  0
SECTION
  2
HEADER
  9
$ACADVER
  1
AC1015
  9
$ACADMAINTVER
 70
     6
  9
$DWGCODEPAGE
  3
ANSI_1252
  9
$INSBASE
 10
0.0
 20
0.0
 30
0.0
  9
$EXTMIN
 10
-205.1049239464
 20
-116.3409600093
 30
0.0
  9
$EXTMAX
 10
218.3358186554
 20
203.2416083953
 30
0.0
  9
$LIMMIN
 10
0.0
 20
0.0
  9
$LIMMAX
 10
420.0
 20
297.0
  9
$ORTHOMODE
 70
     0
  9
$REGENMODE
 70
     1
  9
$FILLMODE
 70
     1
  9
$QTEXTMODE
 70
     0
  9
$MIRRTEXT
 70
     1
  9
$LTSCALE
 40
1.0
  9
$ATTMODE
 70
     1
  9
$TEXTSIZE
 40
3.5
  9
$TRACEWID
 40
1.0
  9
$TEXTSTYLE
  7
Standard
  9
$CLAYER
  8
0
  9
$CELTYPE
  6
ByLayer
  9
$CECOLOR
 62
   256
  9
$CELTSCALE
 40
1.0
  9
$DISPSILH
 70
     0
  9
$DIMSCALE
 40
1.0
  9
$DIMASZ
 40
3.556
  9
$DIMEXO
 40
0.0
  9
$DIMDLI
 40
3.75
  9
$DIMRND
 40
0.0
  9
$DIMDLE
 40
0.0
  9
$DIMEXE
 40
1.0
  9
$DIMTP
 40
0.0
  9
$DIMTM
 40
0.0
  9
$DIMTXT
 40
3.5
  9
$DIMCEN
 40
2.5
  9
$DIMTSZ
 40
0.0
  9
$DIMTOL
 70
     0
  9
$DIMLIM
 70
     0
  9
$DIMTIH
 70
     1
  9
$DIMTOH
 70
     1
  9
$DIMSE1
 70
     0
  9
$DIMSE2
 70
     0
  9
$DIMTAD
 70
     1
  9
$DIMZIN
 70
     1
  9
$DIMBLK
  1

  9
$DIMASO
 70
     1
  9
$DIMSHO
 70
     1
  9
$DIMPOST
  1

  9
$DIMAPOST
  1

  9
$DIMALT
 70
     0
  9
$DIMALTD
 70
     3
  9
$DIMALTF
 40
0.0393700787
  9
$DIMLFAC
 40
1.0
  9
$DIMTOFL
 70
     1
  9
$DIMTVP
 40
0.0
  9
$DIMTIX
 70
     0
  9
$DIMSOXD
 70
     0
  9
$DIMSAH
 70
     0
  9
$DIMBLK1
  1

  9
$DIMBLK2
  1

  9
$DIMSTYLE
  2
ISO-25
  9
$DIMCLRD
 70
     0
  9
$DIMCLRE
 70
     0
  9
$DIMCLRT
 70
     0
  9
$DIMTFAC
 40
1.0
  9
$DIMGAP
 40
1.524
  9
$DIMJUST
 70
     0
  9
$DIMSD1
 70
     0
  9
$DIMSD2
 70
     0
  9
$DIMTOLJ
 70
     0
  9
$DIMTZIN
 70
     1
  9
$DIMALTZ
 70
     0
  9
$DIMALTTZ
 70
     0
  9
$DIMUPT
 70
     0
  9
$DIMDEC
 70
     2
  9
$DIMTDEC
 70
     2
  9
$DIMALTU
 70
     2
  9
$DIMALTTD
 70
     3
  9
$DIMTXSTY
  7
Standard
  9
$DIMAUNIT
 70
     0
  9
$DIMADEC
 70
     2
  9
$DIMALTRND
 40
0.0
  9
$DIMAZIN
 70
     0
  9
$DIMDSEP
 70
    44
  9
$DIMATFIT
 70
     3
  9
$DIMFRAC
 70
     0
  9
$DIMLDRBLK
  1

  9
$DIMLUNIT
 70
     2
  9
$DIMLWD
 70
    -2
  9
$DIMLWE
 70
    -2
  9
$DIMTMOVE
 70
     0
  9
$LUNITS
 70
     2
  9
$LUPREC
 70
     2
  9
$SKETCHINC
 40
1.0
  9
$FILLETRAD
 40
0.0
  9
$AUNITS
 70
     0
  9
$AUPREC
 70
     2
  9
$MENU
  1
.
  9
$ELEVATION
 40
0.0
  9
$PELEVATION
 40
0.0
  9
$THICKNESS
 40
0.0
  9
$LIMCHECK
 70
     0
  9
$CHAMFERA
 40
0.0
  9
$CHAMFERB
 40
0.0
  9
$CHAMFERC
 40
0.0
  9
$CHAMFERD
 40
0.0
  9
$SKPOLY
 70
     0
  9
$TDCREATE
 40
2460516.727682975
  9
$TDUCREATE
 40
2460516.977682975
  9
$TDUPDATE
 40
2460516.727710914
  9
$TDUUPDATE
 40
2460516.977710914
  9
$TDINDWG
 40
0.0000000116
  9
$TDUSRTIMER
 40
0.0000000116
  9
$USRTIMER
 70
     1
  9
$ANGBASE
 50
0.0
  9
$ANGDIR
 70
     0
  9
$PDMODE
 70
     0
  9
$PDSIZE
 40
-1.0
  9
$PLINEWID
 40
0.0
  9
$SPLFRAME
 70
     0
  9
$SPLINETYPE
 70
     6
  9
$SPLINESEGS
 70
     8
  9
$HANDSEED
  5
B0
  9
$SURFTAB1
 70
     6
  9
$SURFTAB2
 70
     6
  9
$SURFTYPE
 70
     6
  9
$SURFU
 70
     6
  9
$SURFV
 70
     6
  9
$UCSBASE
  2

  9
$UCSNAME
  2

  9
$UCSORG
 10
0.0
 20
0.0
 30
0.0
  9
$UCSXDIR
 10
1.0
 20
0.0
 30
0.0
  9
$UCSYDIR
 10
0.0
 20
1.0
 30
0.0
  9
$UCSORTHOREF
  2

  9
$UCSORTHOVIEW
 70
     0
  9
$UCSORGTOP
 10
0.0
 20
0.0
 30
0.0
  9
$UCSORGBOTTOM
 10
0.0
 20
0.0
 30
0.0
  9
$UCSORGLEFT
 10
0.0
 20
0.0
 30
0.0
  9
$UCSORGRIGHT
 10
0.0
 20
0.0
 30
0.0
  9
$UCSORGFRONT
 10
0.0
 20
0.0
 30
0.0
  9
$UCSORGBACK
 10
0.0
 20
0.0
 30
0.0
  9
$PUCSBASE
  2

  9
$PUCSNAME
  2

  9
$PUCSORG
 10
0.0
 20
0.0
 30
0.0
  9
$PUCSXDIR
 10
1.0
 20
0.0
 30
0.0
  9
$PUCSYDIR
 10
0.0
 20
1.0
 30
0.0
  9
$PUCSORTHOREF
  2

  9
$PUCSORTHOVIEW
 70
     0
  9
$PUCSORGTOP
 10
0.0
 20
0.0
 30
0.0
  9
$PUCSORGBOTTOM
 10
0.0
 20
0.0
 30
0.0
  9
$PUCSORGLEFT
 10
0.0
 20
0.0
 30
0.0
  9
$PUCSORGRIGHT
 10
0.0
 20
0.0
 30
0.0
  9
$PUCSORGFRONT
 10
0.0
 20
0.0
 30
0.0
  9
$PUCSORGBACK
 10
0.0
 20
0.0
 30
0.0
  9
$USERI1
 70
     0
  9
$USERI2
 70
     0
  9
$USERI3
 70
     0
  9
$USERI4
 70
     0
  9
$USERI5
 70
     0
  9
$USERR1
 40
0.0
  9
$USERR2
 40
0.0
  9
$USERR3
 40
0.0
  9
$USERR4
 40
0.0
  9
$USERR5
 40
0.0
  9
$WORLDVIEW
 70
     1
  9
$SHADEDGE
 70
     3
  9
$SHADEDIF
 70
    70
  9
$TILEMODE
 70
     1
  9
$MAXACTVP
 70
    64
  9
$PINSBASE
 10
0.0
 20
0.0
 30
0.0
  9
$PLIMCHECK
 70
     0
  9
$PEXTMIN
 10
1.0000000000E+20
 20
1.0000000000E+20
 30
1.0000000000E+20
  9
$PEXTMAX
 10
-1.0000000000E+20
 20
-1.0000000000E+20
 30
-1.0000000000E+20
  9
$PLIMMIN
 10
0.0
 20
0.0
  9
$PLIMMAX
 10
420.0
 20
297.0
  9
$UNITMODE
 70
     0
  9
$VISRETAIN
 70
     1
  9
$PLINEGEN
 70
     0
  9
$PSLTSCALE
 70
     1
  9
$TREEDEPTH
 70
  3020
  9
$CMLSTYLE
  2
Standard
  9
$CMLJUST
 70
     0
  9
$CMLSCALE
 40
20.0
  9
$PROXYGRAPHICS
 70
     1
  9
$MEASUREMENT
 70
     1
  9
$CELWEIGHT
370
    -1
  9
$ENDCAPS
280
     0
  9
$JOINSTYLE
280
     0
  9
$LWDISPLAY
290
     1
  9
$INSUNITS
 70
     4
  9
$HYPERLINKBASE
  1

  9
$STYLESHEET
  1

  9
$XEDIT
290
     1
  9
$CEPSNTYPE
380
     0
  9
$PSTYLEMODE
290
     1
  9
$FINGERPRINTGUID
  2
{eb8c20a8-2b82-466f-8f5c-c79a930fe7d5}
  9
$VERSIONGUID
  2
{FAEB1C32-E019-11D5-929B-00C0DF256EC4}
  9
$EXTNAMES
290
     1
  9
$PSVPSCALE
 40
0.0
  9
$OLESTARTUP
290
     0
  0
ENDSEC
  0
SECTION
  2
CLASSES
  0
CLASS
  1
ACDBDICTIONARYWDFLT
  2
AcDbDictionaryWithDefault
  3
ObjectDBX Classes
 90
        0
280
     0
281
     0
  0
CLASS
  1
VISUALSTYLE
  2
AcDbVisualStyle
  3
ObjectDBX Classes
 90
     4095
280
     0
281
     0
  0
CLASS
  1
MATERIAL
  2
AcDbMaterial
  3
ObjectDBX Classes
 90
     1153
280
     0
281
     0
  0
CLASS
  1
SCALE
  2
AcDbScale
  3
ObjectDBX Classes
 90
     1153
280
     0
281
     0
  0
CLASS
  1
TABLESTYLE
  2
AcDbTableStyle
  3
ObjectDBX Classes
 90
     4095
280
     0
281
     0
  0
CLASS
  1
MLEADERSTYLE
  2
AcDbMLeaderStyle
  3
ACDB_MLEADERSTYLE_CLASS
 90
     4095
280
     0
281
     0
  0
CLASS
  1
SUN
  2
AcDbSun
  3
SCENEOE
 90
     1153
280
     0
281
     0
  0
CLASS
  1
ACDBPLACEHOLDER
  2
AcDbPlaceHolder
  3
ObjectDBX Classes
 90
        0
280
     0
281
     0
  0
CLASS
  1
LAYOUT
  2
AcDbLayout
  3
ObjectDBX Classes
 90
        0
280
     0
281
     0
  0
ENDSEC
  0
SECTION
  2
TABLES
  0
TABLE
  2
VPORT
  5
8
330
0
100
AcDbSymbolTable
 70
     1
  0
VPORT
  5
29
330
8
100
AcDbSymbolTableRecord
100
AcDbViewportTableRecord
  2
*Active
 70
     0
 10
0.0
 20
0.0
 11
1.0
 21
1.0
 12
6.6154473545
 22
43.450324193
 13
0.0
 23
0.0
 14
10.0
 24
10.0
 15
10.0
 25
10.0
 16
0.0
 26
0.0
 36
1.0
 17
0.0
 27
0.0
 37
0.0
 40
325.9742197727
 41
1.3249807232
 42
50.0
 43
0.0
 44
0.0
 50
0.0
 51
0.0
 71
     0
 72
   100
 73
     1
 74
     3
 75
     0
 76
     0
 77
     0
 78
     0
281
     0
 65
     1
110
0.0
120
0.0
130
0.0
111
1.0
121
0.0
131
0.0
112
0.0
122
1.0
132
0.0
 79
     0
146
0.0
  0
ENDTAB
  0
TABLE
  2
LTYPE
  5
5
330
0
100
AcDbSymbolTable
 70
     6
  0
LTYPE
  5
14
330
5
100
AcDbSymbolTableRecord
100
AcDbLinetypeTableRecord
  2
ByBlock
 70
     0
  3

 72
    65
 73
     0
 40
0.0
  0
LTYPE
  5
15
330
5
100
AcDbSymbolTableRecord
100
AcDbLinetypeTableRecord
  2
ByLayer
 70
     0
  3

 72
    65
 73
     0
 40
0.0
  0
LTYPE
  5
16
330
5
100
AcDbSymbolTableRecord
100
AcDbLinetypeTableRecord
  2
Continuous
 70
     0
  3
Solid line
 72
    65
 73
     0
 40
0.0
  0
LTYPE
  5
5E
330
5
100
AcDbSymbolTableRecord
100
AcDbLinetypeTableRecord
  2
HIDDEN
 70
     0
  3
Hidden __ __ __ __ __ __ __ __ __ __ __ __ __ __
 72
    65
 73
     2
 40
1.905
 49
1.27
 74
     0
 49
-0.635
 74
     0
  0
LTYPE
  5
5F
330
5
100
AcDbSymbolTableRecord
100
AcDbLinetypeTableRecord
  2
PHANTOM
 70
     0
  3
Phantom ______  __  __  ______  __  __  ______
 72
    65
 73
     6
 40
12.7
 49
6.35
 74
     0
 49
-1.27
 74
     0
 49
1.27
 74
     0
 49
-1.27
 74
     0
 49
1.27
 74
     0
 49
-1.27
 74
     0
  0
LTYPE
  5
60
330
5
100
AcDbSymbolTableRecord
100
AcDbLinetypeTableRecord
  2
CENTER
 70
     0
  3
Center ____ _ ____ _ ____ _ ____ _ ____ _ ____
 72
    65
 73
     4
 40
10.16
 49
6.35
 74
     0
 49
-1.27
 74
     0
 49
1.27
 74
     0
 49
-1.27
 74
     0
  0
LTYPE
  5
61
330
5
100
AcDbSymbolTableRecord
100
AcDbLinetypeTableRecord
  2
CENTERX2
 70
     0
  3
Center (2x) ________  __  ________  __  _____
 72
    65
 73
     4
 40
20.32
 49
12.7
 74
     0
 49
-2.54
 74
     0
 49
2.54
 74
     0
 49
-2.54
 74
     0
  0
LTYPE
  5
62
330
5
100
AcDbSymbolTableRecord
100
AcDbLinetypeTableRecord
  2
DOT2
 70
     0
  3
Dot (.5x) ........................................
 72
    65
 73
     2
 40
0.635
 49
0.0
 74
     0
 49
-0.635
 74
     0
  0
ENDTAB
  0
TABLE
  2
LAYER
  5
2
330
0
100
AcDbSymbolTable
 70
     1
  0
LAYER
  5
10
330
2
100
AcDbSymbolTableRecord
100
AcDbLayerTableRecord
  2
0
 70
     0
 62
     7
  6
Continuous
370
    -3
390
F
  0
ENDTAB
  0
TABLE
  2
STYLE
  5
3
330
0
100
AcDbSymbolTable
 70
     1
  0
STYLE
  5
11
330
3
100
AcDbSymbolTableRecord
100
AcDbTextStyleTableRecord
  2
Standard
 70
     0
 40
0.0
 41
1.0
 50
0.0
 71
     0
 42
3.5
  3
txt
  4

  0
ENDTAB
  0
TABLE
  2
VIEW
  5
6
330
0
100
AcDbSymbolTable
 70
     0
  0
ENDTAB
  0
TABLE
  2
UCS
  5
7
330
0
100
AcDbSymbolTable
 70
     0
  0
ENDTAB
  0
TABLE
  2
APPID
  5
9
330
0
100
AcDbSymbolTable
 70
     1
  0
APPID
  5
12
330
9
100
AcDbSymbolTableRecord
100
AcDbRegAppTableRecord
  2
ACAD
 70
     0
  0
ENDTAB
  0
TABLE
  2
DIMSTYLE
  5
A
330
0
100
AcDbSymbolTable
 70
     1
100
AcDbDimStyleTable
  0
DIMSTYLE
105
27
330
A
100
AcDbSymbolTableRecord
100
AcDbDimStyleTableRecord
  2
ISO-25
 70
     0
 41
2.5
 42
0.625
 43
3.75
 44
1.25
 73
     0
 74
     0
 77
     1
 78
     8
140
2.5
141
2.5
143
0.0393700787
147
0.625
171
     3
172
     1
178
     0
271
     2
272
     2
274
     3
278
    44
283
     0
284
     8
340
11
  0
ENDTAB
  0
TABLE
  2
BLOCK_RECORD
  5
1
330
0
100
AcDbSymbolTable
 70
     1
  0
BLOCK_RECORD
  5
1F
330
1
100
AcDbSymbolTableRecord
100
AcDbBlockTableRecord
  2
*Model_Space
340
22
  0
BLOCK_RECORD
  5
1B
330
1
100
AcDbSymbolTableRecord
100
AcDbBlockTableRecord
  2
*Paper_Space
340
1E
  0
BLOCK_RECORD
  5
23
330
1
100
AcDbSymbolTableRecord
100
AcDbBlockTableRecord
  2
*Paper_Space0
340
26
  0
ENDTAB
  0
ENDSEC
  0
SECTION
  2
BLOCKS
  0
BLOCK
  5
20
330
1F
100
AcDbEntity
  8
0
100
AcDbBlockBegin
  2
*Model_Space
 70
     0
 10
0.0
 20
0.0
 30
0.0
  3
*Model_Space
  1

  0
ENDBLK
  5
21
330
1F
100
AcDbEntity
  8
0
100
AcDbBlockEnd
  0
BLOCK
  5
1C
330
1B
100
AcDbEntity
 67
     1
  8
0
100
AcDbBlockBegin
  2
*Paper_Space
 70
     0
 10
0.0
 20
0.0
 30
0.0
  3
*Paper_Space
  1

  0
ENDBLK
  5
1D
330
1B
100
AcDbEntity
 67
     1
  8
0
100
AcDbBlockEnd
  0
BLOCK
  5
24
330
23
100
AcDbEntity
  8
0
100
AcDbBlockBegin
  2
*Paper_Space0
 70
     0
 10
0.0
 20
0.0
 30
0.0
  3
*Paper_Space0
  1

  0
ENDBLK
  5
25
330
23
100
AcDbEntity
  8
0
100
AcDbBlockEnd
  0
ENDSEC
  0
SECTION
  2
ENTITIES
  0
SPLINE
  5
63
330
1F
100
AcDbEntity
  8
0
  6
Continuous
 62
     7
370
    25
100
AcDbSpline
210
0.0
220
0.0
230
1.0
 70
     8
 71
     3
 72
    24
 73
    20
 74
     0
 42
0.00000001
 43
0.00000001
 40
0.0
 40
0.0
 40
0.0
 40
0.0
 40
0.1077515641955834
 40
0.2443194123749992
 40
0.3629408526896233
 40
0.4918314489365163
 40
0.6158567850460793
 40
0.6647107762248557
 40
0.7034690183477759
 40
0.739242514729991
 40
0.7724611443992113
 40
0.8036100346614854
 40
0.833067032322876
 40
0.8645248753191891
 40
0.8945777112217832
 40
0.9254869050519337
 40
0.9561108529932328
 40
0.9865894320416524
 40
1.0
 40
1.0
 40
1.0
 40
1.0
 10
-120.6296375387151
 20
157.3216130326379
 30
0.0
 10
-124.2315440645144
 20
155.2881485488893
 30
0.0
 10
-132.3986244441143
 20
150.6774048305604
 30
0.0
 10
-144.249128238805
 20
143.6710257937248
 30
0.0
 10
-156.6814477946883
 20
136.1921983367298
 30
0.0
 10
-168.3673538016522
 20
128.7548893349093
 30
0.0
 10
-177.9207377145361
 20
122.8108680621111
 30
0.0
 10
-184.539024663306
 20
118.5559568284375
 30
0.0
 10
-188.3373152630667
 20
115.9181395669472
 30
0.0
 10
-191.4235424215997
 20
113.4800651691666
 30
0.0
 10
-194.0875589733123
 20
111.0777428485514
 30
0.0
 10
-196.3598268467356
 20
108.694631929629
 30
0.0
 10
-198.3552096261264
 20
106.2176343313508
 30
0.0
 10
-200.0393164380517
 20
103.6492673020114
 30
0.0
 10
-201.4578258128261
 20
100.9479954661514
 30
0.0
 10
-202.5754700085448
 20
98.17623533743908
 30
0.0
 10
-203.3684427462988
 20
95.31681565352329
 30
0.0
 10
-203.8100622540917
 20
92.96146657080513
 30
0.0
 10
-203.8730699781051
 20
91.55882316583674
 30
0.0
 10
-203.8923223314182
 20
91.13023783241125
 30
0.0
  0
SPLINE
  5
64
330
1F
100
AcDbEntity
  8
0
  6
Continuous
 62
     7
370
    25
100
AcDbSpline
210
0.0
220
0.0
230
1.0
 70
     8
 71
     3
 72
    41
 73
    37
 74
     0
 42
0.00000001
 43
0.00000001
 40
0.0
 40
0.0
 40
0.0
 40
0.0
 40
0.0103863057245219
 40
0.0815674556545978
 40
0.1515278385996469
 40
0.2254669332954168
 40
0.3004590551681727
 40
0.3555146470210382
 40
0.3875404330658777
 40
0.411991249626215
 40
0.4330104313335526
 40
0.4514554019587693
 40
0.4681328701703198
 40
0.4831545744512933
 40
0.4998607954437178
 40
0.5164367557140461
 40
0.5343143823856534
 40
0.552321873198269
 40
0.5704394722635946
 40
0.588633589877488
 40
0.6068654414811554
 40
0.6250833207356916
 40
0.6432424743613226
 40
0.6613061417892794
 40
0.6792443105921512
 40
0.6970207773728826
 40
0.7140181886690095
 40
0.7311726170156829
 40
0.7498955804295053
 40
0.7707662825190769
 40
0.7948626912910295
 40
0.8245979580048628
 40
0.8662246135325719
 40
0.9171376286576979
 40
0.9703349889201482
 40
1.0
 40
1.0
 40
1.0
 40
1.0
 10
127.6666169320258
 20
13.76669636968929
 30
0.0
 10
127.0980579187253
 20
13.44068933698023
 30
0.0
 10
122.6329561458285
 20
10.88043693454981
 30
0.0
 10
114.1051941312782
 20
6.257936935994496
 30
0.0
 10
101.8702800260778
 20
-0.229775392822415
 30
0.0
 10
89.18818923733953
 20
-6.687684981037181
 30
0.0
 10
77.15962380128144
 20
-12.59223861805346
 30
0.0
 10
67.55011390706782
 20
-17.23086656003246
 30
0.0
 10
60.82834033983471
 20
-20.34527218946216
 30
0.0
 10
56.08732340406229
 20
-22.42257470576725
 30
0.0
 10
52.04246435708397
 20
-24.01835788035539
 30
0.0
 10
48.34117866160414
 20
-25.2939947194927
 30
0.0
 10
44.88885194378729
 20
-26.30452722280988
 30
0.0
 10
41.41655300865315
 20
-27.13928172240186
 30
0.0
 10
37.80702326210543
 20
-27.82686723824938
 30
0.0
 10
33.88134111754123
 20
-28.41401349110004
 30
0.0
 10
29.75690585401126
 20
-28.85824768337412
 30
0.0
 10
25.43035713508509
 20
-29.14696810487899
 30
0.0
 10
21.01778365146715
 20
-29.26568866166324
 30
0.0
 10
16.54785844872118
 20
-29.21160579035753
 30
0.0
 10
12.0522042036627
 20
-28.98337669115653
 30
0.0
 10
7.563872224780707
 20
-28.581674048553
 30
0.0
 10
3.116051144611491
 20
-28.00905252411973
 30
0.0
 10
-1.260221663608579
 20
-27.2702017357043
 30
0.0
 10
-5.53347739098144
 20
-26.37003257459042
 30
0.0
 10
-9.63265823289718
 20
-25.33242583079476
 30
0.0
 10
-13.54650594818631
 20
-24.14836196615445
 30
0.0
 10
-17.40324938778518
 20
-22.80103936712277
 30
0.0
 10
-21.40896350753838
 20
-21.22812111110951
 30
0.0
 10
-25.76476232923019
 20
-19.34213598905936
 30
0.0
 10
-30.73286327712414
 20
-17.01509406081519
 30
0.0
 10
-36.97168329278266
 20
-13.94621173778975
 30
0.0
 10
-44.82663941568144
 20
-9.921910366087555
 30
0.0
 10
-54.11756829387196
 20
-5.058462153247651
 30
0.0
 10
-62.53511697789001
 20
-0.545814635369582
 30
0.0
 10
-67.6408109641765
 20
2.320429053714768
 30
0.0
 10
-69.46866679571966
 20
3.346554053722306
 30
0.0
  0
SPLINE
  5
65
330
1F
100
AcDbEntity
  8
0
  6
Continuous
 62
     7
370
    25
100
AcDbSpline
210
0.0
220
0.0
230
1.0
 70
     8
 71
     3
 72
    24
 73
    20
 74
     0
 42
0.00000001
 43
0.00000001
 40
0.0
 40
0.0
 40
0.0
 40
0.0
 40
0.1181181298318706
 40
0.2315490249193194
 40
0.3334457677748223
 40
0.4237818774004731
 40
0.5025372426544141
 40
0.5696894464006124
 40
0.6122733489952105
 40
0.6481020540081052
 40
0.6771731584121669
 40
0.6995136116918309
 40
0.7132247180724393
 40
0.7340099062843924
 40
0.7618700034304197
 40
0.7968059325127193
 40
0.8543954183931307
 40
0.9245668283854365
 40
0.9999999999999999
 40
0.9999999999999999
 40
0.9999999999999999
 40
0.9999999999999999
 10
202.4692572666038
 20
-13.96131981033081
 30
0.0
 10
203.3226734225744
 20
-10.76972222358173
 30
0.0
 10
204.9956399607905
 20
-4.513177947114526
 30
0.0
 10
207.1893249133617
 20
4.555187231053553
 30
0.0
 10
209.074158723775
 20
12.89893022539833
 30
0.0
 10
210.6327194783448
 20
20.32282534475363
 30
0.0
 10
211.9081396541323
 20
26.81375207665181
 30
0.0
 10
212.8680385675658
 20
32.00622943577326
 30
0.0
 10
213.5758736929669
 20
36.02368834250902
 30
0.0
 10
214.0808911815248
 20
38.99422000230074
 30
0.0
 10
214.4790395702817
 20
41.40859546581508
 30
0.0
 10
214.769406372607
 20
43.2135400405911
 30
0.0
 10
215.0188566172092
 20
44.79190977982844
 30
0.0
 10
215.2880252847843
 20
46.5246837043669
 30
0.0
 10
215.6401887216522
 20
48.8489290591151
 30
0.0
 10
216.1315277510563
 20
52.19915174387137
 30
0.0
 10
216.7623783548406
 20
56.73150817058124
 30
0.0
 10
217.5008412926915
 20
62.39832619524205
 30
0.0
 10
217.9684747002633
 20
66.46541043727764
 30
0.0
 10
218.2107409167298
 20
68.57243935226535
 30
0.0
  0
SPLINE
  5
66
330
1F
100
AcDbEntity
  8
0
  6
Continuous
 62
     7
370
    25
100
AcDbSpline
210
0.0
220
0.0
230
1.0
 70
     8
 71
     3
 72
    24
 73
    20
 74
     0
 42
0.00000001
 43
0.00000001
 40
0.0
 40
0.0
 40
0.0
 40
0.0
 40
0.0739341850305732
 40
0.1442234308142315
 40
0.2035056231936314
 40
0.2517826454972555
 40
0.2894146448108596
 40
0.3243347580795756
 40
0.4088021543214335
 40
0.4966441901661283
 40
0.5577909460938311
 40
0.6244662292171829
 40
0.6966621395957953
 40
0.7676057249288791
 40
0.8074011111674678
 40
0.843487694111619
 40
0.8836020831775081
 40
0.9378328105410593
 40
1.0
 40
1.0
 40
1.0
 40
1.0
 10
-203.9278734093237
 20
91.13818654186396
 30
0.0
 10
-204.0586792080726
 20
89.06435042059769
 30
0.0
 10
-204.3138421081325
 20
85.01891784794118
 30
0.0
 10
-204.5892472561632
 20
79.30608431795555
 30
0.0
 10
-204.7861077864522
 20
74.31177650685476
 30
0.0
 10
-204.9126372127793
 20
70.2333516967454
 30
0.0
 10
-204.9961001853879
 20
66.83795345097577
 30
0.0
 10
-205.0802721174142
 20
62.42517995405399
 30
0.0
 10
-205.1387371797459
 20
56.60203211705614
 30
0.0
 10
-205.1189312781077
 20
50.04313931982048
 30
0.0
 10
-205.0322109320781
 20
43.99022457816954
 30
0.0
 10
-204.8973659323459
 20
38.38150749715723
 30
0.0
 10
-204.6938948345348
 20
32.5045011592608
 30
0.0
 10
-204.4606894661043
 20
27.38512481638901
 30
0.0
 10
-204.2386655691865
 20
23.27827494050759
 30
0.0
 10
-204.0444898281526
 20
20.03417118051009
 30
0.0
 10
-203.8042825725205
 20
16.39048980133725
 30
0.0
 10
-203.4883445656455
 20
12.02576091506087
 30
0.0
 10
-203.213643226542
 20
8.78635273434692
 30
0.0
 10
-203.0669274548266
 20
7.056210927664917
 30
0.0
  0
SPLINE
  5
68
330
1F
100
AcDbEntity
  8
0
  6
Continuous
 62
     7
370
    25
100
AcDbSpline
210
0.0
220
0.0
230
1.0
 70
     8
 71
     3
 72
    71
 73
    67
 74
     0
 42
0.00000001
 43
0.00000001
 40
0.0
 40
0.0
 40
0.0
 40
0.0
 40
0.0032498885710352
 40
0.0107751049085606
 40
0.0182988301687704
 40
0.0258257295151305
 40
0.0333497391157562
 40
0.040742961730695
 40
0.0484592458947318
 40
0.0565994247437217
 40
0.065244737110052
 40
0.0745023234422961
 40
0.0845208252096192
 40
0.0955058969805435
 40
0.1083958833598695
 40
0.1506602736759122
 40
0.1870603914753678
 40
0.22097699191594
 40
0.2562694581352033
 40
0.292784888402042
 40
0.328129817389931
 40
0.362399791256562
 40
0.3992025782971456
 40
0.4138305209230862
 40
0.4240260446875602
 40
0.4335816171172076
 40
0.4423908243477775
 40
0.4506203792653999
 40
0.4583938181660843
 40
0.465810056131243
 40
0.4736999779623083
 40
0.4812606334833686
 40
0.4887971599747593
 40
0.4964440944199482
 40
0.5041567278796263
 40
0.5119352960301284
 40
0.5197760928441331
 40
0.5276721788291758
 40
0.5356140036274479
 40
0.5435997231515806
 40
0.5513360957538793
 40
0.558915374176968
 40
0.5665705239177641
 40
0.5742732246726056
 40
0.5819502272255318
 40
0.5906154323369426
 40
0.6006391595364711
 40
0.6134630106977537
 40
0.6392795332860086
 40
0.6773263392345272
 40
0.7147042002382342
 40
0.7513900798266837
 40
0.7873998727267286
 40
0.823508801398298
 40
0.859954750509359
 40
0.8967556804786614
 40
0.9280765800562111
 40
0.9397330005109739
 40
0.9492191305717488
 40
0.9571494578840101
 40
0.9646287312577296
 40
0.972627060752233
 40
0.9804321776243139
 40
0.987070884874973
 40
0.994296583923002
 40
1.0
 40
1.0
 40
1.0
 40
1.0
 10
-202.8468488273285
 20
5.36435845410084
 30
0.0
 10
-202.7925980993396
 20
4.975075392945651
 30
0.0
 10
-202.6127281522107
 20
3.684395503038882
 30
0.0
 10
-201.9762794384622
 20
1.508706919370252
 30
0.0
 10
-200.950962790913
 20
-1.142250638358273
 30
0.0
 10
-199.6052809824849
 20
-3.739916108699927
 30
0.0
 10
-197.9708188638404
 20
-6.26363652157156
 30
0.0
 10
-196.0390494377582
 20
-8.72076397727406
 30
0.0
 10
-193.8023157190308
 20
-11.15544577279676
 30
0.0
 10
-191.2022876094236
 20
-13.62660086466015
 30
0.0
 10
-188.2086958961012
 20
-16.15489979956904
 30
0.0
 10
-184.7802136729167
 20
-18.76334928829318
 30
0.0
 10
-180.8671723462648
 20
-21.49101404244647
 30
0.0
 10
-176.268345088521
 20
-24.42669344057416
 30
0.0
 10
-167.2876960259328
 20
-30.08445310687384
 30
0.0
 10
-154.8066122265327
 20
-37.92189410193819
 30
0.0
 10
-139.3016832214934
 20
-47.46665394233531
 30
0.0
 10
-124.5610771991464
 20
-56.32340378159142
 30
0.0
 10
-109.5989156069852
 20
-65.07427685497456
 30
0.0
 10
-94.23080655815828
 20
-73.82913969144084
 30
0.0
 10
-78.7934140453975
 20
-82.37528691055938
 30
0.0
 10
-63.08987448673908
 20
-90.80460526426747
 30
0.0
 10
-50.36456471254679
 20
-97.53943955561508
 30
0.0
 10
-41.25874225231578
 20
-102.4090721876264
 30
0.0
 10
-36.01798610978806
 20
-105.0504356114784
 30
0.0
 10
-31.51335758290779
 20
-107.1357117137955
 30
0.0
 10
-27.17511697603305
 20
-108.9650055235188
 30
0.0
 10
-22.99240423990576
 20
-110.5492410259899
 30
0.0
 10
-18.92142298619396
 20
-111.9150524725006
 30
0.0
 10
-14.79665134760013
 20
-113.1198157282867
 30
0.0
 10
-10.60419994035184
 20
-114.1530819545782
 30
0.0
 10
-6.299826870672507
 20
-115.0102681755759
 30
0.0
 10
-1.979958364018511
 20
-115.6877884575403
 30
0.0
 10
2.409323763427532
 20
-116.1951010387813
 30
0.0
 10
6.864015909850201
 20
-116.5299287905183
 30
0.0
 10
11.35364525693743
 20
-116.6877122168208
 30
0.0
 10
15.85467358912702
 20
-116.6655943796571
 30
0.0
 10
20.34194220705871
 20
-116.4617782614776
 30
0.0
 10
24.78957260928687
 20
-116.0742877582585
 30
0.0
 10
29.12337792793528
 20
-115.5126221945155
 30
0.0
 10
33.275345136431
 20
-114.7662958846223
 30
0.0
 10
37.23693289993514
 20
-113.8533483539065
 30
0.0
 10
41.04663023289504
 20
-112.7736011817324
 30
0.0
 10
44.70284399316836
 20
-111.5169945794272
 30
0.0
 10
48.33798033287255
 20
-110.0675194957767
 30
0.0
 10
52.16808434456145
 20
-108.3702594884346
 30
0.0
 10
56.58521501884717
 20
-106.2524414946486
 30
0.0
 10
63.30622056190268
 20
-102.9544573506907
 30
0.0
 10
73.85337831340757
 20
-97.71488851320055
 30
0.0
 10
87.59714676567566
 20
-90.68850838158176
 30
0.0
 10
102.5917414878678
 20
-82.76563667531144
 30
0.0
 10
117.07882004227
 20
-74.84427085085241
 30
0.0
 10
131.1625832601119
 20
-66.87573356928449
 30
0.0
 10
144.9830454415655
 20
-58.7911401145982
 30
0.0
 10
158.6721744149361
 20
-50.52293692431402
 30
0.0
 10
171.5315377458664
 20
-42.47622698672701
 30
0.0
 10
181.1747296266147
 20
-36.28843976510293
 30
0.0
 10
187.4840681466885
 20
-32.14213886836244
 30
0.0
 10
190.8304267740084
 20
-29.72884042504982
 30
0.0
 10
193.5322330555429
 20
-27.54187164609974
 30
0.0
 10
195.8395592242483
 20
-25.34519063842441
 30
0.0
 10
197.8663713323663
 20
-23.03835841723791
 30
0.0
 10
199.5393016222061
 20
-20.6957666456279
 30
0.0
 10
200.8721675679978
 20
-18.31273224414702
 30
0.0
 10
201.8364007878382
 20
-16.12509947271679
 30
0.0
 10
202.2701082340087
 20
-14.63097472597323
 30
0.0
 10
202.4614294495198
 20
-13.97187199394464
 30
0.0
  0
SPLINE
  5
69
330
1F
100
AcDbEntity
  8
0
  6
Continuous
 62
     7
370
    25
100
AcDbSpline
210
0.0
220
0.0
230
1.0
 70
     8
 71
     3
 72
    20
 73
    16
 74
     0
 42
0.00000001
 43
0.00000001
 40
0.0
 40
0.0
 40
0.0
 40
0.0
 40
0.0714190141357646
 40
0.2479757086959843
 40
0.4367418838272953
 40
0.6416069850241569
 40
0.7258280321130876
 40
0.7779498973788563
 40
0.8223769430441166
 40
0.8613118093628179
 40
0.8963082024239232
 40
0.9283654839797997
 40
0.9583627741646205
 40
0.9897905315433423
 40
1.0
 40
1.0
 40
1.0
 40
1.0
 10
-69.46383321045039
 20
3.353933229634509
 30
0.0
 10
-71.21304629994353
 20
4.317457058591878
 30
0.0
 10
-77.28653192245287
 20
7.662931750765253
 30
0.0
 10
-87.77852998338946
 20
13.67600636444614
 30
0.0
 10
-101.3395601444889
 20
21.60803899802574
 30
0.0
 10
-112.5397203479489
 20
28.33378034964307
 30
0.0
 10
-120.5040084987501
 20
33.18130506284622
 30
0.0
 10
-124.6751284421775
 20
35.73444995817451
 30
0.0
 10
-127.6094099525407
 20
37.69952376595709
 30
0.0
 10
-129.9938187363973
 20
39.46236753605802
 30
0.0
 10
-131.9269906345521
 20
41.07478375951498
 30
0.0
 10
-133.4853349502747
 20
42.56401341421457
 30
0.0
 10
-134.741155033514
 20
43.99749632432205
 30
0.0
 10
-135.5237906758468
 20
45.04177117936101
 30
0.0
 10
-135.8502916252768
 20
45.65606029383321
 30
0.0
 10
-135.9303498202548
 20
45.8066842898282
 30
0.0
  0
SPLINE
  5
6A
330
1F
100
AcDbEntity
  8
0
  6
Continuous
 62
     7
370
    25
100
AcDbSpline
210
0.0
220
0.0
230
1.0
 70
     8
 71
     3
 72
    21
 73
    17
 74
     0
 42
0.00000001
 43
0.00000001
 40
0.0
 40
0.0
 40
0.0
 40
0.0
 40
0.0177871381524803
 40
0.0547490544384168
 40
0.0852470866439111
 40
0.1175273709642949
 40
0.1520433677702891
 40
0.1902264682965154
 40
0.234271457872051
 40
0.2888543639774732
 40
0.3825762223126301
 40
0.5188570828619259
 40
0.6578582990956701
 40
0.8005078264557463
 40
0.9471429798183162
 40
0.9999999999999999
 40
0.9999999999999999
 40
0.9999999999999999
 40
0.9999999999999999
 10
200.6444926675892
 20
63.36814607066206
 30
0.0
 10
200.4737056011913
 20
63.04099904510949
 30
0.0
 10
199.9480206756326
 20
62.034036027349
 30
0.0
 10
198.8091266667739
 20
60.4912152649044
 30
0.0
 10
197.2655380019426
 20
58.72834815675244
 30
0.0
 10
195.4724624979396
 20
57.00617318138629
 30
0.0
 10
193.3026863536299
 20
55.17628201661812
 30
0.0
 10
190.6675836798017
 20
53.17239539094869
 30
0.0
 10
187.3813155154862
 20
50.85423094074761
 30
0.0
 10
182.6266948164269
 20
47.58642643338072
 30
0.0
 10
175.5312108807854
 20
42.80782050420498
 30
0.0
 10
166.12900810533
 20
36.69799717688589
 30
0.0
 10
155.254290694859
 20
29.89636246214116
 30
0.0
 10
143.8636879631006
 20
23.05492827495553
 30
0.0
 10
134.6325133682456
 20
17.65785063898075
 30
0.0
 10
129.119688303315
 20
14.58685522219777
 30
0.0
 10
127.6590219496523
 20
13.77317083629503
 30
0.0
  0
SPLINE
  5
6B
330
1F
100
AcDbEntity
  8
0
  6
Continuous
 62
     7
370
    25
100
AcDbSpline
210
0.0
220
0.0
230
1.0
 70
     8
 71
     3
 72
    62
 73
    58
 74
     0
 42
0.00000001
 43
0.00000001
 40
0.0
 40
0.0
 40
0.0
 40
0.0
 40
0.0095848795887639
 40
0.0192440313160666
 40
0.0290235346932664
 40
0.0388577892036449
 40
0.0486270074936255
 40
0.0583757850176445
 40
0.0681378830628048
 40
0.0769475681513851
 40
0.0861093283226229
 40
0.0957433544222338
 40
0.1060553175815567
 40
0.117243421874545
 40
0.1296359680392838
 40
0.1438870557023131
 40
0.1618865793697018
 40
0.1842158051548801
 40
0.2246761568071987
 40
0.2650283677568622
 40
0.307300420972825
 40
0.350311634864141
 40
0.3947517862103856
 40
0.4389008132537663
 40
0.481343028931984
 40
0.5249134209371913
 40
0.5438657774180382
 40
0.559122899056936
 40
0.5715685937551417
 40
0.5828300924583111
 40
0.5931651259911234
 40
0.6028109499931895
 40
0.6119408361302111
 40
0.6216914719854197
 40
0.6310197640671095
 40
0.6409019196734025
 40
0.6508891744059755
 40
0.6609964558036114
 40
0.671229680158275
 40
0.6815975585324172
 40
0.6919672695338794
 40
0.702207664291265
 40
0.7124687002892728
 40
0.7227209775202358
 40
0.7329422180863528
 40
0.7431296159927312
 40
0.7529312775384766
 40
0.7630026217732366
 40
0.7736151841573397
 40
0.7848851569511215
 40
0.7968372030706323
 40
0.8092988268776147
 40
0.851061016292247
 40
0.8932937104442431
 40
0.936473992713186
 40
0.9806945213648133
 40
1.0
 40
1.0
 40
1.0
 40
1.0
 10
218.2127559766971
 20
68.57725005968432
 30
0.0
 10
218.291355665341
 20
69.54444487755872
 30
0.0
 10
218.4491641026499
 20
71.48632919561857
 30
0.0
 10
218.2902500059906
 20
74.4171761620662
 30
0.0
 10
217.8543741225767
 20
77.36691220940789
 30
0.0
 10
217.0979924410527
 20
80.31282756417367
 30
0.0
 10
216.0332601658445
 20
83.21704658740848
 30
0.0
 10
214.663999592367
 20
86.06061028990733
 30
0.0
 10
213.0552559711392
 20
88.7369120063319
 30
0.0
 10
211.2059245162334
 20
91.30236709783414
 30
0.0
 10
209.0976871602256
 20
93.7585374809457
 30
0.0
 10
206.6406837848756
 20
96.23484737344246
 30
0.0
 10
203.7860186551455
 20
98.77130760929717
 30
0.0
 10
200.4685384941939
 20
101.4186743290698
 30
0.0
 10
196.5668467145462
 20
104.2595060550784
 30
0.0
 10
191.8133894877696
 20
107.5058429139861
 30
0.0
 10
185.8361185574341
 20
111.3825735637548
 30
0.0
 10
176.8649862250808
 20
117.0126492754643
 30
0.0
 10
165.453573632644
 20
124.2173605681579
 30
0.0
 10
151.6487956052602
 20
132.7404449939705
 30
0.0
 10
137.3424476903073
 20
141.3199757922565
 30
0.0
 10
122.3680083886277
 20
150.0664965598255
 30
0.0
 10
106.9771023796783
 20
158.8256589983709
 30
0.0
 10
91.4529529481151
 20
167.43026886705
 30
0.0
 10
75.76883731186226
 20
175.8225487254429
 30
0.0
 10
63.12502400736185
 20
182.5626499650122
 30
0.0
 10
53.64626476192412
 20
187.5258614054328
 30
0.0
 10
47.82090285527742
 20
190.4193419434692
 30
0.0
 10
42.8371999126092
 20
192.7599807977352
 30
0.0
 10
38.34020502599788
 20
194.702541821189
 30
0.0
 10
34.07976464510195
 20
196.3690767804887
 30
0.0
 10
29.98493435471887
 20
197.7955567733302
 30
0.0
 10
25.85707441411802
 20
199.0545109427342
 30
0.0
 10
21.6618874678012
 20
200.1342200062896
 30
0.0
 10
17.26582650406735
 20
201.0659183808716
 30
0.0
 10
12.76880724538272
 20
201.8434698166118
 30
0.0
 10
8.10270081502193
 20
202.4655969514575
 30
0.0
 10
3.353087243868656
 20
202.9180834997571
 30
0.0
 10
-1.46519252362601
 20
203.1964630321738
 30
0.0
 10
-6.314570847794483
 20
203.2992542160077
 30
0.0
 10
-11.13404407461733
 20
203.2130170726556
 30
0.0
 10
-15.8848910584868
 20
202.9401215961528
 30
0.0
 10
-20.5463661398288
 20
202.4839735502101
 30
0.0
 10
-25.11346233842099
 20
201.8434524889348
 30
0.0
 10
-29.5582393639416
 20
201.0229866952958
 30
0.0
 10
-33.80785018492784
 20
200.0274582306521
 30
0.0
 10
-37.87963076529468
 20
198.8598948864895
 30
0.0
 10
-41.85498695691808
 20
197.524144808736
 30
0.0
 10
-45.853623890662
 20
195.982698124442
 30
0.0
 10
-49.92502192537783
 20
194.2169760345654
 30
0.0
 10
-53.99878890023712
 20
192.2467653474382
 30
0.0
 10
-61.48742639497499
 20
188.6190699480221
 30
0.0
 10
-72.30750370040725
 20
183.2405437741926
 30
0.0
 10
-86.35413406757495
 20
176.0259137541642
 30
0.0
 10
-100.4458885567159
 20
168.5288386331961
 30
0.0
 10
-111.9071669640312
 20
162.2753852378855
 30
0.0
 10
-118.59689619453
 20
158.4747123075691
 30
0.0
 10
-120.6298970118407
 20
157.3196922899521
 30
0.0
  0
SPLINE
  5
6C
330
1F
100
AcDbEntity
  8
0
  6
Continuous
 62
     7
370
    25
100
AcDbSpline
210
0.0
220
0.0
230
1.0
 70
     8
 71
     3
 72
    15
 73
    11
 74
     0
 42
0.00000001
 43
0.00000001
 40
0.0
 40
0.0
 40
0.0
 40
0.0
 40
0.096596972592827
 40
0.2420987397689573
 40
0.3857623579524299
 40
0.5283368890226479
 40
0.6720421536342467
 40
0.8164415438967103
 40
0.9609139001639317
 40
1.0
 40
1.0
 40
1.0
 40
1.0
 10
38.45828657378816
 20
-22.28643975498131
 30
0.0
 10
37.80885491422246
 20
-22.38529655178352
 30
0.0
 10
36.1811994905928
 20
-22.63305903626939
 30
0.0
 10
33.47688633686468
 20
-22.83623082399981
 30
0.0
 10
30.40733077803715
 20
-22.91067497485898
 30
0.0
 10
27.32204698352868
 20
-22.80025839070744
 30
0.0
 10
24.23677130034555
 20
-22.51886420693161
 30
0.0
 10
21.18438474614359
 20
-22.04692740903218
 30
0.0
 10
18.89780833233015
 20
-21.59433269271925
 30
0.0
 10
17.67860958253857
 20
-21.24678850990376
 30
0.0
 10
17.41899896548506
 20
-21.17278403789334
 30
0.0
  0
SPLINE
  5
6D
330
1F
100
AcDbEntity
  8
0
  6
Continuous
 62
     7
370
    25
100
AcDbSpline
210
0.0
220
0.0
230
1.0
 70
     8
 71
     3
 72
    13
 73
     9
 74
     0
 42
0.00000001
 43
0.00000001
 40
0.0
 40
0.0
 40
0.0
 40
0.0
 40
0.155228938237254
 40
0.3368962868493236
 40
0.5243625457026176
 40
0.717231166920911
 40
0.913669466784459
 40
1.0
 40
1.0
 40
1.0
 40
1.0
 10
9.779458294602607
 20
-18.21051659373954
 30
0.0
 10
9.425675370923866
 20
-17.84474832696398
 30
0.0
 10
8.657853631681562
 20
-17.05091457197393
 30
0.0
 10
7.804326495625124
 20
-15.78180667590728
 30
0.0
 10
7.128622249077926
 20
-14.41782155655593
 30
0.0
 10
6.744503391456923
 20
-13.0633331407252
 30
0.0
 10
6.605127336581121
 20
-11.98115735713267
 30
0.0
 10
6.691249562789183
 20
-11.36188915603617
 30
0.0
 10
6.717543046513296
 20
-11.17282392765884
 30
0.0
  0
SPLINE
  5
6E
330
1F
100
AcDbEntity
  8
0
  6
Continuous
 62
     7
370
    25
100
AcDbSpline
210
0.0
220
0.0
230
1.0
 70
     8
 71
     3
 72
    13
 73
     9
 74
     0
 42
0.00000001
 43
0.00000001
 40
0.0
 40
0.0
 40
0.0
 40
0.0
 40
0.0635256878365798
 40
0.2824124898237232
 40
0.4867159248289141
 40
0.6762831299131477
 40
0.880108317137196
 40
1.0
 40
1.0
 40
1.0
 40
1.0
 10
48.38133077389902
 20
-16.08159865677945
 30
0.0
 10
48.38034757881541
 20
-16.17851487765456
 30
0.0
 10
48.37597664508768
 20
-16.60936973611837
 30
0.0
 10
48.13149526555396
 20
-17.32184282236991
 30
0.0
 10
47.63433923107888
 20
-18.29924571907554
 30
0.0
 10
46.86598285153451
 20
-19.26776717501632
 30
0.0
 10
45.99031470825174
 20
-20.12273581599677
 30
0.0
 10
45.24410448532139
 20
-20.63644849400813
 30
0.0
 10
44.96773829108339
 20
-20.82670696727897
 30
0.0
  0
SPLINE
  5
6F
330
1F
100
AcDbEntity
  8
0
  6
Continuous
 62
     7
370
    25
100
AcDbSpline
210
0.0
220
0.0
230
1.0
 70
     8
 71
     3
 72
    27
 73
    23
 74
     0
 42
0.00000001
 43
0.00000001
 40
0.0
 40
0.0
 40
0.0
 40
0.0
 40
0.0270274337159163
 40
0.0788861061286893
 40
0.1310153844442677
 40
0.1834689619588804
 40
0.2362416664178489
 40
0.2892730646952298
 40
0.342481037839915
 40
0.3957762378103987
 40
0.4490630778714319
 40
0.5022232286124607
 40
0.5551642338978512
 40
0.6077965047673126
 40
0.6600430836597557
 40
0.7118631875980738
 40
0.7633018171792877
 40
0.814586742733417
 40
0.8660882495981203
 40
0.9187992685106371
 40
0.9747558170248454
 40
1.0
 40
1.0
 40
1.0
 40
1.0
 10
-68.17501831646814
 20
127.5476534332564
 30
0.0
 10
-68.41859404811285
 20
127.4164130783912
 30
0.0
 10
-69.12952876795582
 20
127.0333563416296
 30
0.0
 10
-70.4937702538795
 20
126.4662332754026
 30
0.0
 10
-72.31291803930752
 20
125.9062214504408
 30
0.0
 10
-74.31280839925523
 20
125.4842656037599
 30
0.0
 10
-76.45056422651415
 20
125.2140615448326
 30
0.0
 10
-78.68508529314055
 20
125.1062141451657
 30
0.0
 10
-80.97074922668108
 20
125.1660801256188
 30
0.0
 10
-83.2607787605064
 20
125.3942008921869
 30
0.0
 10
-85.50760667322363
 20
125.786096500193
 30
0.0
 10
-87.66452546478376
 20
126.3322690985079
 30
0.0
 10
-89.68686520426286
 20
127.018217041146
 30
0.0
 10
-91.53343504233139
 20
127.8245614059816
 30
0.0
 10
-93.16762679057776
 20
128.7269527286613
 30
0.0
 10
-94.5591478092267
 20
129.6962359759987
 30
0.0
 10
-95.68691774162167
 20
130.6992404508301
 30
0.0
 10
-96.53895318704102
 20
131.6994398192013
 30
0.0
 10
-97.12364668080113
 20
132.6624165878553
 30
0.0
 10
-97.44609565017942
 20
133.5664483640976
 30
0.0
 10
-97.56597377155616
 20
134.2416310276718
 30
0.0
 10
-97.50153329733345
 20
134.6293289398741
 30
0.0
 10
-97.48149964625118
 20
134.7498588520461
 30
0.0
  0
SPLINE
  5
70
330
1F
100
AcDbEntity
  8
0
  6
Continuous
 62
     7
370
    25
100
AcDbSpline
210
0.0
220
0.0
230
1.0
 70
     8
 71
     3
 72
    13
 73
     9
 74
     0
 42
0.00000001
 43
0.00000001
 40
0.0
 40
0.0
 40
0.0
 40
0.0
 40
0.1043937369657715
 40
0.3142443280075085
 40
0.5051367674819262
 40
0.6878757488586863
 40
0.8822309557021994
 40
1.0
 40
1.0
 40
1.0
 40
1.0
 10
-64.67941844155956
 20
131.756497289128
 30
0.0
 10
-64.68587093106696
 20
131.6197669597685
 30
0.0
 10
-64.70529410996794
 20
131.2081835476149
 30
0.0
 10
-64.97358767926208
 20
130.5394189942988
 30
0.0
 10
-65.48963726508548
 20
129.7052536375189
 30
0.0
 10
-66.27284742166073
 20
128.8644975632023
 30
0.0
 10
-67.18456092207062
 20
128.1362001357418
 30
0.0
 10
-67.9036804123172
 20
127.7088869702495
 30
0.0
 10
-68.17501471201541
 20
127.5476554641045
 30
0.0
  0
SPLINE
  5
71
330
1F
100
AcDbEntity
  8
0
  6
Continuous
 62
     7
370
    25
100
AcDbSpline
210
0.0
220
0.0
230
1.0
 70
     8
 71
     3
 72
    68
 73
    64
 74
     0
 42
0.00000001
 43
0.00000001
 40
0.0
 40
0.0
 40
0.0
 40
0.0
 40
0.0156250000000002
 40
0.0156250000000002
 40
0.0312500000000004
 40
0.0312500000000004
 40
0.0625000000000007
 40
0.0625000000000007
 40
0.0937500000000011
 40
0.0937500000000011
 40
0.1250000000000014
 40
0.1250000000000014
 40
0.1875000000000022
 40
0.1875000000000022
 40
0.2500000000000029
 40
0.2500000000000029
 40
0.2656250000000031
 40
0.2656250000000031
 40
0.2812500000000032
 40
0.2812500000000032
 40
0.3125000000000036
 40
0.3125000000000036
 40
0.3203125000000037
 40
0.3203125000000037
 40
0.3281250000000038
 40
0.3281250000000038
 40
0.3437500000000042
 40
0.3437500000000042
 40
0.3750000000000047
 40
0.3750000000000047
 40
0.3828125000000048
 40
0.3828125000000048
 40
0.3906250000000048
 40
0.3906250000000048
 40
0.4062500000000049
 40
0.4062500000000049
 40
0.421875000000005
 40
0.421875000000005
 40
0.4296875000000048
 40
0.4296875000000048
 40
0.4375000000000047
 40
0.4375000000000047
 40
0.4687500000000037
 40
0.4687500000000037
 40
0.4843750000000033
 40
0.4843750000000033
 40
0.4921875000000032
 40
0.4921875000000032
 40
0.5000000000000031
 40
0.5000000000000031
 40
0.5312500000000029
 40
0.5312500000000029
 40
0.5468750000000028
 40
0.5468750000000028
 40
0.5625000000000026
 40
0.5625000000000026
 40
0.5937500000000026
 40
0.5937500000000026
 40
0.6250000000000024
 40
0.6250000000000024
 40
0.7500000000000017
 40
0.7500000000000017
 40
1.0
 40
1.0
 40
1.0
 40
1.0
 10
-71.53659038239728
 20
3.111289617647589
 30
0.0
 10
-72.56885677177995
 20
3.695313746606282
 30
0.0
 10
-73.61978262821579
 20
4.268369896727534
 30
0.0
 10
-75.70796626847373
 20
5.422479833039312
 30
0.0
 10
-76.74231557454021
 20
6.005314048583315
 30
0.0
 10
-79.83358897326576
 20
7.760525804929849
 30
0.0
 10
-81.89003110259449
 20
8.933176112454838
 30
0.0
 10
-85.9857162645312
 20
11.28826951425813
 30
0.0
 10
-88.02494815768557
 20
12.47073604513069
 30
0.0
 10
-92.10295263400393
 20
14.83584019204687
 30
0.0
 10
-94.14037635409247
 20
16.01922073135709
 30
0.0
 10
-100.236886931264
 20
19.57763409805606
 30
0.0
 10
-104.2845332443181
 20
21.95867135468463
 30
0.0
 10
-112.3385406754336
 20
26.74241389626172
 30
0.0
 10
-116.342082815262
 20
29.1465986873673
 30
0.0
 10
-121.3205290075687
 20
32.16546573872175
 30
0.0
 10
-122.3161442225512
 20
32.76927799930775
 30
0.0
 10
-124.3047863799364
 20
33.97826094360386
 30
0.0
 10
-125.2975201009667
 20
34.58358552095486
 30
0.0
 10
-128.2455152523319
 20
36.41541250785327
 30
0.0
 10
-130.1650678114105
 20
37.6606562805878
 30
0.0
 10
-132.3934266424016
 20
39.30700121690563
 30
0.0
 10
-132.8303493634036
 20
39.64086203325309
 30
0.0
 10
-133.6828498941028
 20
40.31978628089652
 30
0.0
 10
-134.0993151891286
 20
40.66591763646635
 30
0.0
 10
-135.3022725710074
 20
41.71428148347715
 30
0.0
 10
-136.0438625375955
 20
42.42641373657656
 30
0.0
 10
-138.0826462081681
 20
44.60353977576941
 30
0.0
 10
-139.1962296985121
 20
46.10874251612204
 30
0.0
 10
-140.2738586022738
 20
48.05908581154416
 30
0.0
 10
-140.4739960083316
 20
48.45368019298703
 30
0.0
 10
-140.8396803266353
 20
49.24243116523965
 30
0.0
 10
-141.0055426076954
 20
49.63695901105952
 30
0.0
 10
-141.4547543304872
 20
50.82097661633265
 30
0.0
 10
-141.690195214986
 20
51.61089625714749
 30
0.0
 10
-142.0353237874098
 20
53.19186391663938
 30
0.0
 10
-142.1449385979417
 20
53.98291258924218
 30
0.0
 10
-142.2137796054841
 20
55.17034324409402
 30
0.0
 10
-142.2207751803506
 20
55.5662965938317
 30
0.0
 10
-142.2022138961527
 20
56.35849538485468
 30
0.0
 10
-142.1764966153704
 20
56.75563530375924
 30
0.0
 10
-141.9664398987656
 20
58.72323281043511
 30
0.0
 10
-141.5416639100676
 20
60.25029221374502
 30
0.0
 10
-140.5167331299805
 20
62.46986426185723
 30
0.0
 10
-140.1091529287505
 20
63.19764573504317
 30
0.0
 10
-139.3899969443116
 20
64.26957767307341
 30
0.0
 10
-139.1315682343918
 20
64.62447033734564
 30
0.0
 10
-138.579957449906
 20
65.32306020600124
 30
0.0
 10
-138.2875115560393
 20
65.66551890541395
 30
0.0
 10
-136.7484530324666
 20
67.34624956411254
 30
0.0
 10
-135.2742328695959
 20
68.59101601495254
 30
0.0
 10
-132.8296274990196
 20
70.36233182760321
 30
0.0
 10
-131.975263249065
 20
70.93733416090421
 30
0.0
 10
-130.2213556444433
 20
72.06509865112639
 30
0.0
 10
-129.3231487419627
 20
72.617189190441
 30
0.0
 10
-126.6064502184087
 20
74.26121153133154
 30
0.0
 10
-124.7632653145599
 20
75.33944293516262
 30
0.0
 10
-121.1045514005874
 20
77.51124986484636
 30
0.0
 10
-119.2822517365023
 20
78.60106887711183
 30
0.0
 10
-110.148709903523
 20
84.03793369378346
 30
0.0
 10
-102.8048460854294
 20
88.36688026151927
 30
0.0
 10
-80.71842977262907
 20
101.3233018799847
 30
0.0
 10
-65.88579796617891
 20
109.9003293020339
 30
0.0
 10
-50.85952318934644
 20
118.3665892187808
 30
0.0
  0
SPLINE
  5
72
330
1F
100
AcDbEntity
  8
0
  6
Continuous
 62
     7
370
    25
100
AcDbSpline
210
0.0
220
0.0
230
1.0
 70
     8
 71
     3
 72
    76
 73
    72
 74
     0
 42
0.00000001
 43
0.00000001
 40
0.0
 40
0.0
 40
0.0
 40
0.0
 40
0.0625000000000004
 40
0.0625000000000004
 40
0.1250000000000007
 40
0.1250000000000007
 40
0.1875000000000011
 40
0.1875000000000011
 40
0.2500000000000015
 40
0.2500000000000015
 40
0.2812500000000017
 40
0.2812500000000017
 40
0.3125000000000019
 40
0.3125000000000019
 40
0.3750000000000024
 40
0.3750000000000024
 40
0.4062500000000026
 40
0.4062500000000026
 40
0.4375000000000027
 40
0.4375000000000027
 40
0.4687500000000029
 40
0.4687500000000029
 40
0.4765625000000029
 40
0.4765625000000029
 40
0.4843750000000029
 40
0.4843750000000029
 40
0.5000000000000028
 40
0.5000000000000028
 40
0.5312500000000029
 40
0.5312500000000029
 40
0.5625000000000028
 40
0.5625000000000028
 40
0.5781250000000029
 40
0.5781250000000029
 40
0.593750000000003
 40
0.593750000000003
 40
0.6250000000000032
 40
0.6250000000000032
 40
0.6562500000000033
 40
0.6562500000000033
 40
0.6718750000000033
 40
0.6718750000000033
 40
0.6875000000000033
 40
0.6875000000000033
 40
0.7031250000000032
 40
0.7031250000000032
 40
0.7187500000000031
 40
0.7187500000000031
 40
0.7500000000000028
 40
0.7500000000000028
 40
0.7656250000000026
 40
0.7656250000000026
 40
0.7812500000000023
 40
0.7812500000000023
 40
0.812500000000002
 40
0.812500000000002
 40
0.8437500000000017
 40
0.8437500000000017
 40
0.8750000000000012
 40
0.8750000000000012
 40
0.9062500000000009
 40
0.9062500000000009
 40
0.9375000000000006
 40
0.9375000000000006
 40
0.9531250000000003
 40
0.9531250000000003
 40
0.9687500000000002
 40
0.9687500000000002
 40
0.9843750000000001
 40
0.9843750000000001
 40
1.0
 40
1.0
 40
1.0
 40
1.0
 10
130.5063065256955
 20
13.50875259774072
 30
0.0
 10
126.977927396392
 20
11.52076899881792
 30
0.0
 10
123.4168811316497
 20
9.553269094576642
 30
0.0
 10
116.2399684836525
 20
5.652643851078873
 30
0.0
 10
112.623704549264
 20
3.71976779342996
 30
0.0
 10
105.3374525670017
 20
-0.1122969990311057
 30
0.0
 10
101.6689256589792
 20
-2.012401931183724
 30
0.0
 10
94.27705441009836
 20
-5.778238914538464
 30
0.0
 10
90.55280295982614
 20
-7.643402169241378
 30
0.0
 10
84.9257245750404
 20
-10.41562564775501
 30
0.0
 10
83.04390423368034
 20
-11.33585790623222
 30
0.0
 10
79.27411504415382
 20
-13.17246704577203
 30
0.0
 10
77.38613030272282
 20
-14.08883396107638
 30
0.0
 10
71.71146885879163
 20
-16.83122082115224
 30
0.0
 10
67.9125602394204
 20
-18.64957082954277
 30
0.0
 10
62.09363674809251
 20
-21.30149919996834
 30
0.0
 10
60.13726848905898
 20
-22.17406086568843
 30
0.0
 10
56.13874826194633
 20
-23.84282649088978
 30
0.0
 10
54.09484032496626
 20
-24.63879361561416
 30
0.0
 10
49.84646108437788
 20
-26.09257662489615
 30
0.0
 10
47.63802941364757
 20
-26.74698494743685
 30
0.0
 10
44.75381783105774
 20
-27.45858602619294
 30
0.0
 10
44.17083896776094
 20
-27.59562626080234
 30
0.0
 10
42.99214787018799
 20
-27.858750737822
 30
0.0
 10
42.39535707022598
 20
-27.985012304825
 30
0.0
 10
40.59364850374497
 20
-28.34597710990146
 30
0.0
 10
39.38219358136263
 20
-28.56212985773679
 30
0.0
 10
35.71939704637091
 20
-29.14308953811441
 30
0.0
 10
33.23958296770894
 20
-29.44030128776881
 30
0.0
 10
28.21133230305094
 20
-29.87181122262156
 30
0.0
 10
25.66265963768696
 20
-30.00554894256132
 30
0.0
 10
21.78767597739539
 20
-30.08276484765117
 30
0.0
 10
20.48732924228964
 20
-30.08788359768817
 30
0.0
 10
17.86895587751258
 20
-30.05614806653945
 30
0.0
 10
16.54689826001379
 20
-30.01904053351928
 30
0.0
 10
12.59941527511697
 20
-29.84533057688038
 30
0.0
 10
9.984064394173991
 20
-29.64700293324318
 30
0.0
 10
4.785195637109826
 20
-29.089232562961
 30
0.0
 10
2.201675074209327
 20
-28.72980343480211
 30
0.0
 10
-1.648533980737151
 20
-28.06376492212212
 30
0.0
 10
-2.927753142159736
 20
-27.82057650109522
 30
0.0
 10
-5.477278974209815
 20
-27.28909123455341
 30
0.0
 10
-6.749503679545853
 20
-27.00020205130704
 30
0.0
 10
-9.247285230851432
 20
-26.38242650601316
 30
0.0
 10
-10.47704273803563
 20
-26.05252333585033
 30
0.0
 10
-12.89903948875946
 20
-25.35150808101659
 30
0.0
 10
-14.09097512735635
 20
-24.98006252595172
 30
0.0
 10
-17.61626644154233
 20
-23.8102410673368
 30
0.0
 10
-19.89938265570221
 20
-22.95668367429662
 30
0.0
 10
-23.25027983116552
 20
-21.59531302189487
 30
0.0
 10
-24.3552442073019
 20
-21.12834088933799
 30
0.0
 10
-26.5461609664671
 20
-20.17351443185991
 30
0.0
 10
-27.63195506172113
 20
-19.6856182976657
 30
0.0
 10
-30.85678875403337
 20
-18.20359402082113
 30
0.0
 10
-32.96996839866457
 20
-17.190538467729
 30
0.0
 10
-37.15057912988296
 20
-15.13322248223588
 30
0.0
 10
-39.21708702128873
 20
-14.08833234268264
 30
0.0
 10
-43.33146476382606
 20
-11.98583914272729
 30
0.0
 10
-45.38091193465123
 20
-10.9293119647744
 30
0.0
 10
-49.47256505938298
 20
-8.811318408386114
 30
0.0
 10
-51.5153479275546
 20
-7.750211781334865
 30
0.0
 10
-55.58555967744003
 20
-5.618408491559604
 30
0.0
 10
-57.61255390238596
 20
-4.547375296815245
 30
0.0
 10
-60.63828504361692
 20
-2.931487986112535
 30
0.0
 10
-61.64446159158573
 20
-2.391341708046515
 30
0.0
 10
-63.65258361471422
 20
-1.308494720089995
 30
0.0
 10
-64.65524688228453
 20
-0.7662163938551569
 30
0.0
 10
-66.65008158903728
 20
0.3247568509110454
 30
0.0
 10
-67.63883472808085
 20
0.8754183665623666
 30
0.0
 10
-69.59039236785168
 20
1.991796978937935
 30
0.0
 10
-70.55538967516196
 20
2.556156859019776
 30
0.0
 10
-71.53659038239736
 20
3.111289617647631
 30
0.0
  0
SPLINE
  5
74
330
1F
100
AcDbEntity
  8
0
  6
Continuous
 62
     7
370
    25
100
AcDbSpline
210
0.0
220
0.0
230
1.0
 70
     8
 71
     3
 72
   146
 73
   142
 74
     0
 42
0.00000001
 43
0.00000001
 40
0.0
 40
0.0
 40
0.0
 40
0.0
 40
0.0312500000000001
 40
0.0312500000000001
 40
0.0625000000000001
 40
0.0625000000000001
 40
0.0781250000000001
 40
0.0781250000000001
 40
0.0937500000000002
 40
0.0937500000000002
 40
0.1093750000000002
 40
0.1093750000000002
 40
0.1250000000000002
 40
0.1250000000000002
 40
0.1406250000000002
 40
0.1406250000000002
 40
0.1562500000000003
 40
0.1562500000000003
 40
0.1640625000000003
 40
0.1640625000000003
 40
0.1718750000000004
 40
0.1718750000000004
 40
0.1796875000000004
 40
0.1796875000000004
 40
0.1875000000000004
 40
0.1875000000000004
 40
0.2031250000000005
 40
0.2031250000000005
 40
0.2070312500000005
 40
0.2070312500000005
 40
0.2109375000000004
 40
0.2109375000000004
 40
0.2187500000000004
 40
0.2187500000000004
 40
0.2343750000000005
 40
0.2343750000000005
 40
0.2421875000000006
 40
0.2421875000000006
 40
0.2500000000000006
 40
0.2500000000000006
 40
0.2656250000000008
 40
0.2656250000000008
 40
0.281250000000001
 40
0.281250000000001
 40
0.2851562500000009
 40
0.2851562500000009
 40
0.2890625000000009
 40
0.2890625000000009
 40
0.2968750000000008
 40
0.2968750000000008
 40
0.3125000000000008
 40
0.3125000000000008
 40
0.3203125000000008
 40
0.3203125000000008
 40
0.3281250000000008
 40
0.3281250000000008
 40
0.3437500000000008
 40
0.3437500000000008
 40
0.3750000000000009
 40
0.3750000000000009
 40
0.390625000000001
 40
0.390625000000001
 40
0.4062500000000011
 40
0.4062500000000011
 40
0.4218750000000011
 40
0.4218750000000011
 40
0.4375000000000011
 40
0.4375000000000011
 40
0.4531250000000012
 40
0.4531250000000012
 40
0.4687500000000012
 40
0.4687500000000012
 40
0.5000000000000012
 40
0.5000000000000012
 40
0.5312500000000013
 40
0.5312500000000013
 40
0.5625000000000013
 40
0.5625000000000013
 40
0.5781250000000013
 40
0.5781250000000013
 40
0.5937500000000014
 40
0.5937500000000014
 40
0.6093750000000014
 40
0.6093750000000014
 40
0.6250000000000014
 40
0.6250000000000014
 40
0.6562500000000016
 40
0.6562500000000016
 40
0.6640625000000016
 40
0.6640625000000016
 40
0.6718750000000016
 40
0.6718750000000016
 40
0.6875000000000016
 40
0.6875000000000016
 40
0.7031250000000016
 40
0.7031250000000016
 40
0.7070312500000016
 40
0.7070312500000016
 40
0.7109375000000014
 40
0.7109375000000014
 40
0.7187500000000014
 40
0.7187500000000014
 40
0.734375000000001
 40
0.734375000000001
 40
0.7421875000000009
 40
0.7421875000000009
 40
0.7500000000000008
 40
0.7500000000000008
 40
0.7656250000000006
 40
0.7656250000000006
 40
0.7812500000000003
 40
0.7812500000000003
 40
0.7890625000000002
 40
0.7890625000000002
 40
0.796875
 40
0.796875
 40
0.8124999999999998
 40
0.8124999999999998
 40
0.8203124999999998
 40
0.8203124999999998
 40
0.8281249999999998
 40
0.8281249999999998
 40
0.8437499999999997
 40
0.8437499999999997
 40
0.8515624999999998
 40
0.8515624999999998
 40
0.8593749999999998
 40
0.8593749999999998
 40
0.8749999999999998
 40
0.8749999999999998
 40
0.8906249999999998
 40
0.8906249999999998
 40
0.9062499999999998
 40
0.9062499999999998
 40
0.9218749999999999
 40
0.9218749999999999
 40
0.9374999999999999
 40
0.9374999999999999
 40
0.9687499999999999
 40
0.9687499999999999
 40
1.0
 40
1.0
 40
1.0
 40
1.0
 10
-117.8324939470207
 20
157.0874488027716
 30
0.0
 10
-122.0967731318715
 20
154.6848370844174
 30
0.0
 10
-126.3215906532022
 20
152.2608716894048
 30
0.0
 10
-134.7103932942833
 20
147.3800229907613
 30
0.0
 10
-138.8740263635961
 20
144.9229491839801
 30
0.0
 10
-145.0778500483089
 20
141.2148136651431
 30
0.0
 10
-147.138622342684
 20
139.9748892057704
 30
0.0
 10
-151.2424544199882
 20
137.4854556114567
 30
0.0
 10
-153.2857702470325
 20
136.2360850282836
 30
0.0
 10
-157.3447289904358
 20
133.722369369373
 30
0.0
 10
-159.3594314073956
 20
132.4575153662798
 30
0.0
 10
-163.3699908974446
 20
129.917609681039
 30
0.0
 10
-165.3658572916777
 20
128.6425630427915
 30
0.0
 10
-169.3628093114273
 20
126.0952940207071
 30
0.0
 10
-171.362599808487
 20
124.8223708110094
 30
0.0
 10
-175.3875901692275
 20
122.2902740248153
 30
0.0
 10
-177.4192515345705
 20
121.0345969257837
 30
0.0
 10
-180.408956860963
 20
119.1198114609493
 30
0.0
 10
-181.3953491448803
 20
118.476043069854
 30
0.0
 10
-183.3312366050477
 20
117.1685403552507
 30
0.0
 10
-184.2823189350723
 20
116.5040459573191
 30
0.0
 10
-186.1220131347341
 20
115.1490111322432
 30
0.0
 10
-187.0082940223355
 20
114.459525525955
 30
0.0
 10
-188.6943014910766
 20
113.0496929608201
 30
0.0
 10
-189.4931520464438
 20
112.3290336507883
 30
0.0
 10
-191.7471007740072
 20
110.1162099598985
 30
0.0
 10
-193.0611988752909
 20
108.5737713283759
 30
0.0
 10
-194.4648763517779
 20
106.5605260011672
 30
0.0
 10
-194.7334308010415
 20
106.1535337254157
 30
0.0
 10
-195.2457385065786
 20
105.3307061897561
 30
0.0
 10
-195.4895063883405
 20
104.9147470924317
 30
0.0
 10
-196.17794441184
 20
103.6632843997187
 30
0.0
 10
-196.5819863556934
 20
102.8210305493035
 30
0.0
 10
-197.6294889569578
 20
100.2704512045297
 30
0.0
 10
-198.1086566777228
 20
98.53835570373765
 30
0.0
 10
-198.5078123605861
 20
95.89397311497724
 30
0.0
 10
-198.5873106166513
 20
95.00476407766153
 30
0.0
 10
-198.6393874409441
 20
93.21087679467816
 30
0.0
 10
-198.6114537732431
 20
92.30317582389416
 30
0.0
 10
-198.3694604811499
 20
89.59406349049348
 30
0.0
 10
-197.9994188521754
 20
87.79829812081127
 30
0.0
 10
-196.8474281807098
 20
84.22711384830961
 30
0.0
 10
-196.0652330069472
 20
82.45170710332378
 30
0.0
 10
-194.8006068117677
 20
80.24661942880435
 30
0.0
 10
-194.5332578368832
 20
79.80631436484381
 30
0.0
 10
-193.968628030162
 20
78.9271827428094
 30
0.0
 10
-193.6721030430818
 20
78.4895626316075
 30
0.0
 10
-192.744297819908
 20
77.1904864930161
 30
0.0
 10
-192.0720786891115
 20
76.33992639334575
 30
0.0
 10
-189.8924580607852
 20
73.83527104034826
 30
0.0
 10
-188.222296285557
 20
72.22814216706341
 30
0.0
 10
-185.4914488435326
 20
69.88254975244186
 30
0.0
 10
-184.5431929801244
 20
69.11164327755526
 30
0.0
 10
-182.5859746805247
 20
67.58734791873633
 30
0.0
 10
-181.5762102729226
 20
66.83282880987524
 30
0.0
 10
-178.4949416589974
 20
64.59883060423192
 30
0.0
 10
-176.3689960490293
 20
63.14639831647592
 30
0.0
 10
-169.8919503258898
 20
58.84011120675882
 30
0.0
 10
-165.4261543794639
 20
56.04522898288719
 30
0.0
 10
-158.7414404126999
 20
51.84571764278418
 30
0.0
 10
-156.5156170551084
 20
50.44463901018341
 30
0.0
 10
-152.0629993484295
 20
47.64298099495101
 30
0.0
 10
-149.8352382406494
 20
46.24289868592933
 30
0.0
 10
-145.3656042637714
 20
43.449989843487
 30
0.0
 10
-143.1238276923846
 20
42.0571137971415
 30
0.0
 10
-138.6186543523129
 20
39.28247805601881
 30
0.0
 10
-136.3558691422957
 20
37.90040391909935
 30
0.0
 10
-131.8140062031128
 20
35.14463269049694
 30
0.0
 10
-129.5349506571554
 20
33.77092419298162
 30
0.0
 10
-124.9645400970817
 20
31.0298311556042
 30
0.0
 10
-122.672938950613
 20
29.66257316841518
 30
0.0
 10
-115.7750649703989
 20
25.57266127447618
 30
0.0
 10
-111.1464638120915
 20
22.86107559773339
 30
0.0
 10
-101.8259008688504
 20
17.4722370834034
 30
0.0
 10
-97.13254654210593
 20
14.79810373689545
 30
0.0
 10
-87.69565370877469
 20
9.480618534769391
 30
0.0
 10
-82.95440079347652
 20
6.835864765088531
 30
0.0
 10
-75.79774280281293
 20
2.896199989607648
 30
0.0
 10
-73.40413495954985
 20
1.587919206649135
 30
0.0
 10
-68.59925169599055
 20
-1.017805590326423
 30
0.0
 10
-66.18774786019755
 20
-2.315109501036458
 30
0.0
 10
-61.35128532306378
 20
-4.901464506079908
 30
0.0
 10
-58.92591757093148
 20
-6.190264700762061
 30
0.0
 10
-54.07489364419642
 20
-8.767688180317618
 30
0.0
 10
-51.65016732928599
 20
-10.05688181361067
 30
0.0
 10
-44.37682703718497
 20
-13.92497711819558
 30
0.0
 10
-39.53689730807065
 20
-16.50920545027744
 30
0.0
 10
-33.31147217491738
 20
-19.63183640219646
 30
0.0
 10
-32.05827482893869
 20
-20.25138673594813
 30
0.0
 10
-29.52800393006343
 20
-21.47584244466085
 30
0.0
 10
-28.24962742656643
 20
-22.08107185133265
 30
0.0
 10
-24.37020351876411
 20
-23.86182643689917
 30
0.0
 10
-21.73393353833755
 20
-24.99954796577458
 30
0.0
 10
-16.28890729837781
 20
-27.10436523856949
 30
0.0
 10
-13.48097369789284
 20
-28.07227476806401
 30
0.0
 10
-9.816113485307376
 20
-29.12888973676894
 30
0.0
 10
-9.075475759163863
 20
-29.3326297314864
 30
0.0
 10
-7.578590614331702
 20
-29.72466839969197
 30
0.0
 10
-6.824053244292176
 20
-29.91258461288962
 30
0.0
 10
-4.557806549340169
 20
-30.44963557262131
 30
0.0
 10
-3.037631984727728
 20
-30.77386651363197
 30
0.0
 10
1.549057442183802
 20
-31.65189595538563
 30
0.0
 10
4.64166595191455
 20
-32.11129186902263
 30
0.0
 10
9.328781038876354
 20
-32.62599754987163
 30
0.0
 10
10.89921621992366
 20
-32.76839372694347
 30
0.0
 10
14.05638139278602
 20
-32.99423409682139
 30
0.0
 10
15.64797960790831
 20
-33.07767954635143
 30
0.0
 10
20.38076928548338
 20
-33.23570391806546
 30
0.0
 10
23.49704860185648
 20
-33.22051762144522
 30
0.0
 10
29.65099983407771
 20
-32.9466578454648
 30
0.0
 10
32.68873845773019
 20
-32.68819099417418
 30
0.0
 10
37.18326500773054
 20
-32.108193025806
 30
0.0
 10
38.67559907861158
 20
-31.88185556657366
 30
0.0
 10
41.595709078076
 20
-31.37256379817126
 30
0.0
 10
43.02794816142049
 20
-31.08911985990342
 30
0.0
 10
47.24331913130749
 20
-30.15456955159114
 30
0.0
 10
49.94705760244428
 20
-29.42126650546004
 30
0.0
 10
53.84182061984788
 20
-28.15478806574841
 30
0.0
 10
55.11301987853025
 20
-27.70461823167253
 30
0.0
 10
57.60528243675979
 20
-26.75237237996354
 30
0.0
 10
58.82849257070157
 20
-26.24997831932828
 30
0.0
 10
62.41188326141901
 20
-24.69713693579116
 30
0.0
 10
64.70045384679412
 20
-23.59962636776431
 30
0.0
 10
68.08111917061217
 20
-21.92097016889916
 30
0.0
 10
69.19905378818443
 20
-21.35586120712933
 30
0.0
 10
71.43180645764694
 20
-20.22370908984843
 30
0.0
 10
72.54726535491376
 20
-19.65706365389246
 30
0.0
 10
75.90464335012221
 20
-17.96395494228403
 30
0.0
 10
78.1547021144867
 20
-16.84254328224069
 30
0.0
 10
82.65660638428754
 20
-14.60082884409321
 30
0.0
 10
84.90984685901068
 20
-13.4813918076863
 30
0.0
 10
89.3983733138589
 20
-11.23137486974067
 30
0.0
 10
91.6337536924878
 20
-10.10085355352126
 30
0.0
 10
96.0770215840557
 20
-7.822748380402047
 30
0.0
 10
98.28588919132949
 20
-6.675772786738671
 30
0.0
 10
102.6877477956662
 20
-4.37196830471924
 30
0.0
 10
104.8804724015508
 20
-3.214974089461004
 30
0.0
 10
111.4386780759636
 20
0.2684011260877667
 30
0.0
 10
115.7851020822907
 20
2.606609263742538
 30
0.0
 10
124.4206683238426
 20
7.318575581768267
 30
0.0
 10
128.7101948998686
 20
9.692095233691841
 30
0.0
 10
132.9631320405156
 20
12.08832291236916
 30
0.0
  0
LWPOLYLINE
  5
76
330
1F
100
AcDbEntity
  8
0
  6
Continuous
 62
     7
370
    25
100
AcDbPolyline
 90
       24
 70
   128
 43
0.0
 10
-66.4821811048
 20
127.3989307235
 10
-68.3990630294
 20
126.4717924454
 10
-70.5480870007
 20
125.716784219
 10
-72.8892207762
 20
125.1479704163
 10
-75.3788534724
 20
124.7759469599
 10
-77.9706079519
 20
124.6076439415
 10
-80.6162047426
 20
124.6461965274
 10
-83.266361392
 20
124.8908865558
 10
-85.8717105059
 20
125.3371559156
 10
-88.3837193699
 20
125.9766914545
 10
-90.7555940212
 20
126.797579838
 10
-92.9431509319
 20
127.7845294718
 10
-94.905640064
 20
128.9191553554
 10
-96.6065039656
 20
130.1803215595
 10
-98.0140587668
 20
131.5445349489
 10
-99.1020843904
 20
132.9863828145
 10
-99.8503129815
 20
134.4790062642
 10
-100.2448064602
 20
135.9946005527
 10
-100.2782161608
 20
137.504933032
 10
-99.949919724
 20
138.9818690714
 10
-99.26603269
 20
140.3978961524
 10
-98.2392945776
 20
141.7266363753
 10
-96.8888315713
 20
142.9433378287
 10
-95.2398002366
 20
144.0253356713
  0
SPLINE
  5
7C
330
1F
100
AcDbEntity
  8
0
  6
Continuous
 62
     7
370
    25
100
AcDbSpline
210
0.0
220
0.0
230
1.0
 70
     8
 71
     3
 72
    76
 73
    72
 74
     0
 42
0.00000001
 43
0.00000001
 40
0.0
 40
0.0
 40
0.0
 40
0.0
 40
0.0156249999999997
 40
0.0156249999999997
 40
0.0234374999999995
 40
0.0234374999999995
 40
0.0312499999999994
 40
0.0312499999999994
 40
0.046874999999999
 40
0.046874999999999
 40
0.0624999999999988
 40
0.0624999999999988
 40
0.0937499999999982
 40
0.0937499999999982
 40
0.1249999999999977
 40
0.1249999999999977
 40
0.1874999999999966
 40
0.1874999999999966
 40
0.2499999999999956
 40
0.2499999999999956
 40
0.2656249999999952
 40
0.2656249999999952
 40
0.2812499999999949
 40
0.2812499999999949
 40
0.3124999999999942
 40
0.3124999999999942
 40
0.3281249999999939
 40
0.3281249999999939
 40
0.3359374999999938
 40
0.3359374999999938
 40
0.3437499999999936
 40
0.3437499999999936
 40
0.3749999999999927
 40
0.3749999999999927
 40
0.3828124999999926
 40
0.3828124999999926
 40
0.3906249999999925
 40
0.3906249999999925
 40
0.4062499999999925
 40
0.4062499999999925
 40
0.4218749999999925
 40
0.4218749999999925
 40
0.4296874999999925
 40
0.4296874999999925
 40
0.4374999999999925
 40
0.4374999999999925
 40
0.4531249999999925
 40
0.4531249999999925
 40
0.4687499999999925
 40
0.4687499999999925
 40
0.4843749999999925
 40
0.4843749999999925
 40
0.4999999999999926
 40
0.4999999999999926
 40
0.5312499999999929
 40
0.5312499999999929
 40
0.546874999999993
 40
0.546874999999993
 40
0.5624999999999931
 40
0.5624999999999931
 40
0.5781249999999932
 40
0.5781249999999932
 40
0.5937499999999933
 40
0.5937499999999933
 40
0.6249999999999938
 40
0.6249999999999938
 40
0.6874999999999949
 40
0.6874999999999949
 40
0.7499999999999959
 40
0.7499999999999959
 40
1.0
 40
1.0
 40
1.0
 40
1.0
 10
147.6740609210057
 20
123.4162773659161
 30
0.0
 10
146.6889373920334
 20
123.9973135142751
 30
0.0
 10
145.7285266864527
 20
124.618715485618
 30
0.0
 10
144.2664118544489
 20
125.4805301913554
 30
0.0
 10
143.7755605918146
 20
125.758112299916
 30
0.0
 10
142.7889693785393
 20
126.3087381068642
 30
0.0
 10
142.2940488868972
 20
126.5855273540801
 30
0.0
 10
140.8131288699448
 20
127.4446948228265
 30
0.0
 10
139.8283606053181
 20
128.0386040074485
 30
0.0
 10
137.8556510409131
 20
129.216616474951
 30
0.0
 10
136.8679273750506
 20
129.8048822133035
 30
0.0
 10
133.895650937893
 20
131.5594454476848
 30
0.0
 10
131.902724330818
 20
132.7176705312228
 30
0.0
 10
127.917438854602
 20
135.0402854191362
 30
0.0
 10
125.9246458586222
 20
136.2055001771698
 30
0.0
 10
119.9354602800822
 20
139.7074945756578
 30
0.0
 10
115.9305094470621
 20
142.0507698294712
 30
0.0
 10
107.9003490634439
 20
146.7619229250734
 30
0.0
 10
103.8731256450181
 20
149.1283696915869
 30
0.0
 10
98.8245557205911
 20
152.0891667341782
 30
0.0
 10
97.81395827211043
 20
152.6806761394023
 30
0.0
 10
95.79404822769894
 20
153.8650956469718
 30
0.0
 10
94.78525948165745
 20
154.4602830493177
 30
0.0
 10
91.74579865163433
 20
156.2441452879025
 30
0.0
 10
89.70477978461419
 20
157.4403741869829
 30
0.0
 10
86.47984905841267
 20
159.1440408357704
 30
0.0
 10
85.37836782534805
 20
159.698473909872
 30
0.0
 10
83.65987119795592
 20
160.4905928930834
 30
0.0
 10
83.07357727424086
 20
160.7477255411586
 30
0.0
 10
81.88923614621919
 20
161.2397868290696
 30
0.0
 10
81.29064199188899
 20
161.4751516626674
 30
0.0
 10
78.26482383594254
 20
162.5975437184229
 30
0.0
 10
75.73844524023622
 20
163.3179787697971
 30
0.0
 10
72.44827163467079
 20
163.999878375318
 30
0.0
 10
71.78356489386296
 20
164.1251895870779
 30
0.0
 10
70.44103786028052
 20
164.3541577110699
 30
0.0
 10
69.76357418120725
 20
164.4576860590397
 30
0.0
 10
67.73783583725093
 20
164.7335742756489
 30
0.0
 10
66.38751040223342
 20
164.8733093192204
 30
0.0
 10
63.68722036916584
 20
165.0665234286276
 30
0.0
 10
62.33725401984295
 20
165.119930357006
 30
0.0
 10
60.31258409247107
 20
165.1353003878517
 30
0.0
 10
59.63774022710393
 20
165.1296047991156
 30
0.0
 10
58.28814357443652
 20
165.0960198974668
 30
0.0
 10
57.61138399400172
 20
165.0679969180916
 30
0.0
 10
55.59819113116839
 20
164.9505009564932
 30
0.0
 10
54.28045570294934
 20
164.8282012036775
 30
0.0
 10
51.69287527782667
 20
164.4967373299129
 30
0.0
 10
50.42301748375526
 20
164.2873217326639
 30
0.0
 10
47.93468694542229
 20
163.7729179093203
 30
0.0
 10
46.71615503910453
 20
163.4681293398904
 30
0.0
 10
44.3364637348
 20
162.7497545677712
 30
0.0
 10
43.19925876485365
 20
162.3465919908746
 30
0.0
 10
39.91825277446444
 20
161.049854732519
 30
0.0
 10
37.90162448890254
 20
160.062484789116
 30
0.0
 10
34.99468771172972
 20
158.526200041758
 30
0.0
 10
34.04501929577273
 20
158.0048351769362
 30
0.0
 10
32.16028649353078
 20
156.9628991566625
 30
0.0
 10
31.22503227721915
 20
156.4404769382547
 30
0.0
 10
29.36040832731595
 20
155.3971146553967
 30
0.0
 10
28.43074843548056
 20
154.8765115817899
 30
0.0
 10
26.56642073111133
 20
153.8435017388591
 30
0.0
 10
25.63150146363907
 20
153.3294721889316
 30
0.0
 10
22.82561409374349
 20
151.7860508879384
 30
0.0
 10
20.95429345836293
 20
150.7580690661252
 30
0.0
 10
15.34751446695113
 20
147.6751082180067
 30
0.0
 10
11.61640215513849
 20
145.621961883286
 30
0.0
 10
4.163463010327018
 20
141.5194881626535
 30
0.0
 10
0.4406950408067977
 20
139.470629575226
 30
0.0
 10
-18.1490738488202
 20
129.2321969254203
 30
0.0
 10
-32.92851857958364
 20
121.0529345400001
 30
0.0
 10
-47.52923203634005
 20
112.8265298302193
 30
0.0
  0
SPLINE
  5
7D
330
1F
100
AcDbEntity
  8
0
  6
Continuous
 62
     7
370
    25
100
AcDbSpline
210
0.0
220
0.0
230
1.0
 70
    11
 71
     3
 72
   122
 73
   118
 74
     0
 42
0.00000001
 43
0.00000001
 40
0.0
 40
0.0
 40
0.0
 40
0.0
 40
0.0312500000000002
 40
0.0312500000000002
 40
0.0390625000000002
 40
0.0390625000000002
 40
0.0468750000000002
 40
0.0468750000000002
 40
0.0625000000000002
 40
0.0625000000000002
 40
0.0781250000000002
 40
0.0781250000000002
 40
0.0859375000000003
 40
0.0859375000000003
 40
0.0937500000000003
 40
0.0937500000000003
 40
0.1250000000000004
 40
0.1250000000000004
 40
0.1406250000000004
 40
0.1406250000000004
 40
0.1562500000000005
 40
0.1562500000000005
 40
0.1875000000000006
 40
0.1875000000000006
 40
0.2031250000000006
 40
0.2031250000000006
 40
0.2187500000000007
 40
0.2187500000000007
 40
0.2343750000000007
 40
0.2343750000000007
 40
0.2421875000000007
 40
0.2421875000000007
 40
0.2500000000000008
 40
0.2500000000000008
 40
0.2812500000000009
 40
0.2812500000000009
 40
0.296875000000001
 40
0.296875000000001
 40
0.3125000000000011
 40
0.3125000000000011
 40
0.3437500000000012
 40
0.3437500000000012
 40
0.3593750000000012
 40
0.3593750000000012
 40
0.3750000000000012
 40
0.3750000000000012
 40
0.4062500000000011
 40
0.4062500000000011
 40
0.4218750000000011
 40
0.4218750000000011
 40
0.4375000000000011
 40
0.4375000000000011
 40
0.453125000000001
 40
0.453125000000001
 40
0.4609375000000011
 40
0.4609375000000011
 40
0.4687500000000011
 40
0.4687500000000011
 40
0.5000000000000012
 40
0.5000000000000012
 40
0.5312500000000012
 40
0.5312500000000012
 40
0.5468750000000013
 40
0.5468750000000013
 40
0.5546875000000014
 40
0.5546875000000014
 40
0.5625000000000014
 40
0.5625000000000014
 40
0.5937500000000014
 40
0.5937500000000014
 40
0.6015625000000016
 40
0.6015625000000016
 40
0.6093750000000016
 40
0.6093750000000016
 40
0.6250000000000017
 40
0.6250000000000017
 40
0.6562500000000017
 40
0.6562500000000017
 40
0.6640625000000017
 40
0.6640625000000017
 40
0.6718750000000016
 40
0.6718750000000016
 40
0.6875000000000016
 40
0.6875000000000016
 40
0.7031250000000016
 40
0.7031250000000016
 40
0.7187500000000014
 40
0.7187500000000014
 40
0.7500000000000013
 40
0.7500000000000013
 40
0.7656250000000013
 40
0.7656250000000013
 40
0.7812500000000012
 40
0.7812500000000012
 40
0.8125000000000011
 40
0.8125000000000011
 40
0.828125000000001
 40
0.828125000000001
 40
0.8437500000000009
 40
0.8437500000000009
 40
0.8750000000000008
 40
0.8750000000000008
 40
0.8828125000000007
 40
0.8828125000000007
 40
0.8906250000000007
 40
0.8906250000000007
 40
0.9062500000000006
 40
0.9062500000000006
 40
0.9218750000000006
 40
0.9218750000000006
 40
0.9375000000000006
 40
0.9375000000000006
 40
0.9687500000000003
 40
0.9687500000000003
 40
0.9843750000000002
 40
0.9843750000000002
 40
1.0
 40
1.0
 40
1.0
 40
1.0
 10
50.91846833304495
 20
8.717476915546234
 30
0.0
 10
52.55802813098814
 20
7.742212831172671
 30
0.0
 10
54.03186541753607
 20
6.704097964406658
 30
0.0
 10
55.66921170679318
 20
5.327929581334621
 30
0.0
 10
55.98698544049289
 20
5.04808399317172
 30
0.0
 10
56.59640816471362
 20
4.485130373091145
 30
0.0
 10
56.88851261996319
 20
4.20170224261774
 30
0.0
 10
57.72790340528103
 20
3.345641815695577
 30
0.0
 10
58.23807390608597
 20
2.767173912992901
 30
0.0
 10
59.16131468260337
 20
1.594492681354517
 30
0.0
 10
59.57456312925765
 20
1.000329594344984
 30
0.0
 10
60.12069943636115
 20
0.0966664875840448
 30
0.0
 10
60.29047953379066
 20
-0.2066160396688374
 30
0.0
 10
60.60496873108961
 20
-0.8174940621309273
 30
0.0
 10
60.74936889996474
 20
-1.124679752717614
 30
0.0
 10
61.40113593605209
 20
-2.654491004138317
 30
0.0
 10
61.70635231274237
 20
-3.872082323140492
 30
0.0
 10
61.84953367963347
 20
-5.69380546608407
 30
0.0
 10
61.84444166294151
 20
-6.300263343358425
 30
0.0
 10
61.72554628031567
 20
-7.512391339986476
 30
0.0
 10
61.61259190528731
 20
-8.108180856307683
 30
0.0
 10
61.12072654158555
 20
-9.866779296671027
 30
0.0
 10
60.58861864255334
 20
-11.00114397487268
 30
0.0
 10
59.48376700978704
 20
-12.64985103756066
 30
0.0
 10
59.06226462658716
 20
-13.19175289480402
 30
0.0
 10
58.13330930761768
 20
-14.23592404677824
 30
0.0
 10
57.62428140366041
 20
-14.74101152380633
 30
0.0
 10
56.51901516426447
 20
-15.71833592602621
 30
0.0
 10
55.92279329219922
 20
-16.19057699415862
 30
0.0
 10
54.96254650112086
 20
-16.87432300004922
 30
0.0
 10
54.63150553892605
 20
-17.09814119369839
 30
0.0
 10
53.94707511868091
 20
-17.53745135531147
 30
0.0
 10
53.59292319861977
 20
-17.7533815510753
 30
0.0
 10
51.77430634178303
 20
-18.80667764330529
 30
0.0
 10
50.18606042624292
 20
-19.55586660163182
 30
0.0
 10
47.61012846730419
 20
-20.5430807792835
 30
0.0
 10
46.71904619706628
 20
-20.84924060904088
 30
0.0
 10
44.87027226779036
 20
-21.41411360164151
 30
0.0
 10
43.90937880762316
 20
-21.6732452503425
 30
0.0
 10
40.98595027550249
 20
-22.36151291870088
 30
0.0
 10
38.96548459622905
 20
-22.70845186689545
 30
0.0
 10
35.82772100637439
 20
-23.05674734095892
 30
0.0
 10
34.76286381535296
 20
-23.14404235465106
 30
0.0
 10
32.59973502039756
 20
-23.25728593957267
 30
0.0
 10
31.51780764583918
 20
-23.28246392218991
 30
0.0
 10
28.27105531729034
 20
-23.26509844821455
 30
0.0
 10
26.10526925184605
 20
-23.13054623826591
 30
0.0
 10
22.8549503474598
 20
-22.73413181902745
 30
0.0
 10
21.76754397500468
 20
-22.5682758277182
 30
0.0
 10
19.64023724717718
 20
-22.17703293373656
 30
0.0
 10
18.59483264189799
 20
-21.95112535282946
 30
0.0
 10
16.53998285758258
 20
-21.43907646646065
 30
0.0
 10
15.53054845614566
 20
-21.15292099251224
 30
0.0
 10
14.04379500329538
 20
-20.67745153017152
 30
0.0
 10
13.55277864777692
 20
-20.51125163099179
 30
0.0
 10
12.58007681813148
 20
-20.16305967867864
 30
0.0
 10
12.09732933056774
 20
-19.98062855793237
 30
0.0
 10
9.721308385770925
 20
-19.03345835758886
 30
0.0
 10
7.950341713798844
 20
-18.1695234077328
 30
0.0
 10
4.66997849118015
 20
-16.2262209771802
 30
0.0
 10
3.205404622108119
 20
-15.17336405396162
 30
0.0
 10
1.26509090889804
 20
-13.48058781820975
 30
0.0
 10
0.6611402275696482
 20
-12.89712163578009
 30
0.0
 10
-0.1790183381098764
 20
-11.99258593541438
 30
0.0
 10
-0.4487955781301662
 20
-11.68530585620915
 30
0.0
 10
-0.9621013005775046
 20
-11.06541903929439
 30
0.0
 10
-1.205393671716819
 20
-10.75322588247735
 30
0.0
 10
-2.356716019253402
 20
-9.181393826946264
 30
0.0
 10
-3.07044340483566
 20
-7.889360934379523
 30
0.0
 10
-3.706756176454824
 20
-6.234452776358646
 30
0.0
 10
-3.821130260323346
 20
-5.901464003399859
 30
0.0
 10
-4.023630910772552
 20
-5.231497452872616
 30
0.0
 10
-4.111778899935035
 20
-4.894061221192826
 30
0.0
 10
-4.334074813716354
 20
-3.887013416840161
 30
0.0
 10
-4.427336023085901
 20
-3.219156173624026
 30
0.0
 10
-4.547919683673248
 20
-1.226991268506852
 30
0.0
 10
-4.417520521526145
 20
0.0860449415861012
 30
0.0
 10
-3.986311080924724
 20
1.703568275968466
 30
0.0
 10
-3.886725132115849
 20
2.024863860124452
 30
0.0
 10
-3.662753872120688
 20
2.658396433290522
 30
0.0
 10
-3.538192381868226
 20
2.971335575514766
 30
0.0
 10
-3.127660922424918
 20
3.898786582106364
 30
0.0
 10
-2.804643947768154
 20
4.501844457509286
 30
0.0
 10
-2.061727781674553
 20
5.677201713456877
 30
0.0
 10
-1.641968538424189
 20
6.24955702648635
 30
0.0
 10
-0.704418349649084
 20
7.362444966719083
 30
0.0
 10
-0.1838805795017478
 20
7.905155892497358
 30
0.0
 10
1.496059606078226
 20
9.453291412196654
 30
0.0
 10
2.777492633200539
 20
10.38794545634307
 30
0.0
 10
4.937155341187323
 20
11.64501485381655
 30
0.0
 10
5.696860569107998
 20
12.03977497831074
 30
0.0
 10
7.29877319198392
 20
12.77910118393059
 30
0.0
 10
8.129910674380676
 20
13.11848521105266
 30
0.0
 10
10.70348035435585
 20
14.04597664413459
 30
0.0
 10
12.52884478628851
 20
14.54534853149964
 30
0.0
 10
15.43506310042932
 20
15.1159128482309
 30
0.0
 10
16.43737650756315
 20
15.27661792309742
 30
0.0
 10
18.4620010796754
 20
15.53138228770131
 30
0.0
 10
19.48666986042321
 20
15.62628867183422
 30
0.0
 10
22.59733862586764
 20
15.8165045660679
 30
0.0
 10
24.71966562466392
 20
15.81809360587591
 30
0.0
 10
27.43722682619905
 20
15.65996253714981
 30
0.0
 10
27.98244687507454
 20
15.62032252005067
 30
0.0
 10
29.06752999488203
 20
15.52585194976649
 30
0.0
 10
29.6086861119509
 20
15.47094867213659
 30
0.0
 10
31.22809523889436
 20
15.28379887750945
 30
0.0
 10
32.30229115966085
 20
15.12912357408652
 30
0.0
 10
34.43995489570383
 20
14.76057646867633
 30
0.0
 10
35.50344563819716
 20
14.54683403653556
 30
0.0
 10
37.6195771532051
 20
14.05959023061735
 30
0.0
 10
38.6775525632111
 20
13.78412589597743
 30
0.0
 10
41.77039259069684
 20
12.88468489142186
 30
0.0
 10
43.73817276483975
 20
12.1852869819262
 30
0.0
 10
46.55093003394247
 20
10.99081694906098
 30
0.0
 10
47.4660818820925
 20
10.5677679145014
 30
0.0
 10
49.24409566006752
 20
9.672774911018298
 30
0.0
 10
50.09868843407337
 20
9.205108957733007
 30
0.0
 10
50.91846833304494
 20
8.717476915546236
 30
0.0
  0
SPLINE
  5
7F
330
1F
100
AcDbEntity
  8
0
  6
Continuous
 62
     7
370
    25
100
AcDbSpline
210
0.0
220
0.0
230
1.0
 70
     8
 71
     3
 72
   144
 73
   140
 74
     0
 42
0.00000001
 43
0.00000001
 40
0.0
 40
0.0
 40
0.0
 40
0.0
 40
0.0312499999999995
 40
0.0312499999999995
 40
0.062499999999999
 40
0.062499999999999
 40
0.0781249999999988
 40
0.0781249999999988
 40
0.0937499999999986
 40
0.0937499999999986
 40
0.1093749999999983
 40
0.1093749999999983
 40
0.124999999999998
 40
0.124999999999998
 40
0.1406249999999978
 40
0.1406249999999978
 40
0.1562499999999975
 40
0.1562499999999975
 40
0.1640624999999973
 40
0.1640624999999973
 40
0.1718749999999971
 40
0.1718749999999971
 40
0.179687499999997
 40
0.179687499999997
 40
0.1874999999999968
 40
0.1874999999999968
 40
0.2031249999999964
 40
0.2031249999999964
 40
0.2070312499999964
 40
0.2070312499999964
 40
0.2109374999999965
 40
0.2109374999999965
 40
0.2187499999999966
 40
0.2187499999999966
 40
0.2343749999999968
 40
0.2343749999999968
 40
0.2421874999999968
 40
0.2421874999999968
 40
0.2499999999999969
 40
0.2499999999999969
 40
0.265624999999997
 40
0.265624999999997
 40
0.2812499999999971
 40
0.2812499999999971
 40
0.289062499999997
 40
0.289062499999997
 40
0.2968749999999969
 40
0.2968749999999969
 40
0.3124999999999969
 40
0.3124999999999969
 40
0.3203124999999969
 40
0.3203124999999969
 40
0.3281249999999969
 40
0.3281249999999969
 40
0.343749999999997
 40
0.343749999999997
 40
0.3593749999999971
 40
0.3593749999999971
 40
0.3749999999999972
 40
0.3749999999999972
 40
0.4062499999999973
 40
0.4062499999999973
 40
0.4218749999999974
 40
0.4218749999999974
 40
0.4374999999999975
 40
0.4374999999999975
 40
0.4687499999999977
 40
0.4687499999999977
 40
0.4999999999999979
 40
0.4999999999999979
 40
0.5312499999999981
 40
0.5312499999999981
 40
0.5468749999999982
 40
0.5468749999999982
 40
0.5624999999999982
 40
0.5624999999999982
 40
0.5781249999999983
 40
0.5781249999999983
 40
0.5937499999999984
 40
0.5937499999999984
 40
0.6093749999999986
 40
0.6093749999999986
 40
0.6249999999999987
 40
0.6249999999999987
 40
0.6562499999999989
 40
0.6562499999999989
 40
0.6640624999999989
 40
0.6640624999999989
 40
0.6718749999999989
 40
0.6718749999999989
 40
0.687499999999999
 40
0.687499999999999
 40
0.7031249999999991
 40
0.7031249999999991
 40
0.7070312499999991
 40
0.7070312499999991
 40
0.7109374999999991
 40
0.7109374999999991
 40
0.718749999999999
 40
0.718749999999999
 40
0.734374999999999
 40
0.734374999999999
 40
0.742187499999999
 40
0.742187499999999
 40
0.7499999999999989
 40
0.7499999999999989
 40
0.765624999999999
 40
0.765624999999999
 40
0.7812499999999991
 40
0.7812499999999991
 40
0.7890624999999992
 40
0.7890624999999992
 40
0.7968749999999993
 40
0.7968749999999993
 40
0.8124999999999994
 40
0.8124999999999994
 40
0.8203124999999996
 40
0.8203124999999996
 40
0.8281249999999997
 40
0.8281249999999997
 40
0.8437499999999999
 40
0.8437499999999999
 40
0.8515624999999999
 40
0.8515624999999999
 40
0.859375
 40
0.859375
 40
0.8750000000000001
 40
0.8750000000000001
 40
0.8906250000000001
 40
0.8906250000000001
 40
0.9062500000000001
 40
0.9062500000000001
 40
0.9218750000000001
 40
0.9218750000000001
 40
0.9375000000000001
 40
0.9375000000000001
 40
0.96875
 40
0.96875
 40
1.0
 40
1.0
 40
1.0
 40
1.0
 10
132.9631320405188
 20
12.0883229123674
 30
0.0
 10
137.2270120488172
 20
14.4907082831702
 30
0.0
 10
141.4514654956764
 20
16.91443206190901
 30
0.0
 10
149.8395294096688
 20
21.79480900186498
 30
0.0
 10
154.0027342274215
 20
24.25168170827304
 30
0.0
 10
160.2059275423084
 20
27.95951301157455
 30
0.0
 10
162.2664792916108
 20
29.19934238372105
 30
0.0
 10
166.3698839069523
 20
31.68858010161194
 30
0.0
 10
168.4130164996032
 20
32.93783705397244
 30
0.0
 10
172.4711075011318
 20
35.4515993649625
 30
0.0
 10
174.4850125260506
 20
36.71667483510598
 30
0.0
 10
178.4951559089975
 20
39.25638731287463
 30
0.0
 10
180.4914039586582
 20
40.53101907520318
 30
0.0
 10
184.4878178560154
 20
43.07816221274965
 30
0.0
 10
186.487333112996
 20
44.35102570008691
 30
0.0
 10
190.5120267341681
 20
46.88286331107841
 30
0.0
 10
192.5436650552543
 20
48.13834118270267
 30
0.0
 10
195.532669840893
 20
50.05319370541574
 30
0.0
 10
196.5190681278875
 20
50.69685577981032
 30
0.0
 10
198.454218005166
 20
52.0045550397559
 30
0.0
 10
199.4040013331512
 20
52.66976893295318
 30
0.0
 10
201.241122249359
 20
54.02522247427084
 30
0.0
 10
202.1277410941072
 20
54.7144058846788
 30
0.0
 10
203.8162666892592
 20
56.1231567670779
 30
0.0
 10
204.6167498421024
 20
56.84323484710313
 30
0.0
 10
206.8736390526524
 20
59.05531915075225
 30
0.0
 10
208.1867983143437
 20
60.59870433632322
 30
0.0
 10
209.5911886558739
 20
62.61296272355541
 30
0.0
 10
209.8599257761646
 20
63.02016904852917
 30
0.0
 10
210.3726201134895
 20
63.84346961598627
 30
0.0
 10
210.616321797172
 20
64.25924088056364
 30
0.0
 10
211.3046102274341
 20
65.5102814567807
 30
0.0
 10
211.7084877645599
 20
66.3523551443741
 30
0.0
 10
212.755432607203
 20
68.90267858109469
 30
0.0
 10
213.2349802197229
 20
70.63485975401629
 30
0.0
 10
213.6353412878117
 20
73.2798119785218
 30
0.0
 10
213.7150659936093
 20
74.16932606083685
 30
0.0
 10
213.7673569726588
 20
75.96403706962727
 30
0.0
 10
213.7393976363362
 20
76.87192362306234
 30
0.0
 10
213.4975328804271
 20
79.5805329195023
 30
0.0
 10
213.1276976276037
 20
81.37637644845027
 30
0.0
 10
211.9751032203993
 20
84.94847361723181
 30
0.0
 10
211.1922865274855
 20
86.72472452732893
 30
0.0
 10
209.674327262738
 20
89.3727934921658
 30
0.0
 10
209.1078245116622
 20
90.25612378141048
 30
0.0
 10
207.8701104063861
 20
91.98694830072432
 30
0.0
 10
207.1971802643857
 20
92.83693732582776
 30
0.0
 10
205.017026814087
 20
95.34087892337456
 30
0.0
 10
203.3498664936204
 20
96.94921275863172
 30
0.0
 10
200.6191557454963
 20
99.29611923131874
 30
0.0
 10
199.6705974187894
 20
100.067490996109
 30
0.0
 10
197.7123644435335
 20
101.5928023541986
 30
0.0
 10
196.7018598079997
 20
102.3476803062283
 30
0.0
 10
193.6191416971248
 20
104.5813295340531
 30
0.0
 10
191.4917820471147
 20
106.033331042454
 30
0.0
 10
187.1732561755441
 20
108.9045552801449
 30
0.0
 10
184.9776571429179
 20
110.3215007810674
 30
0.0
 10
180.549351591993
 20
113.1363288863075
 30
0.0
 10
178.3190667615723
 20
114.5354555626713
 30
0.0
 10
171.6414404903534
 20
118.7396312068889
 30
0.0
 10
167.1924913815888
 20
121.5438542818627
 30
0.0
 10
160.4830318068685
 20
125.7316764878924
 30
0.0
 10
158.2405177540326
 20
127.1245207552422
 30
0.0
 10
153.7359325953183
 20
129.9001624200637
 30
0.0
 10
151.4743363431202
 20
131.2832037598682
 30
0.0
 10
144.664372025815
 20
135.4193945637287
 30
0.0
 10
140.0935242522691
 20
138.1609957282998
 30
0.0
 10
130.8925124818163
 20
143.6137260647302
 30
0.0
 10
126.2613310760453
 20
146.3247881541664
 30
0.0
 10
116.9373522699546
 20
151.7132980632116
 30
0.0
 10
112.2452155786398
 20
154.3890686348234
 30
0.0
 10
105.1661542919798
 20
158.3776740612776
 30
0.0
 10
102.7995513351472
 20
159.7029688410157
 30
0.0
 10
98.05439988131413
 20
162.346234161689
 30
0.0
 10
95.67595407728903
 20
163.664267667368
 30
0.0
 10
90.90401170813406
 20
166.2911065176764
 30
0.0
 10
88.51050276655947
 20
167.5999042738639
 30
0.0
 10
83.70534220572736
 20
170.2063758603217
 30
0.0
 10
81.29334650044088
 20
171.5038387191156
 30
0.0
 10
76.45675595510599
 20
174.0910394556304
 30
0.0
 10
74.03201457218982
 20
175.3806874826667
 30
0.0
 10
69.17970245111879
 20
177.9582487576396
 30
0.0
 10
66.75316502453371
 20
179.2467955659333
 30
0.0
 10
59.47963213853686
 20
183.1161634850108
 30
0.0
 10
54.63732781713505
 20
185.6998609006381
 30
0.0
 10
48.41192995525342
 20
188.8237060323758
 30
0.0
 10
47.15916146211457
 20
189.4437607058344
 30
0.0
 10
44.62970720750913
 20
190.6692055183498
 30
0.0
 10
43.35136771096991
 20
191.2748396112945
 30
0.0
 10
39.47078257817353
 20
193.0549197322301
 30
0.0
 10
36.83118923171695
 20
194.1897249489025
 30
0.0
 10
31.38375702043642
 20
196.2930809110821
 30
0.0
 10
28.57459309656572
 20
197.2603222785256
 30
0.0
 10
24.9084953317931
 20
198.316561198835
 30
0.0
 10
24.16753688449899
 20
198.5201616720008
 30
0.0
 10
22.66985856668814
 20
198.9117877185782
 30
0.0
 10
21.91542995403223
 20
199.0993061594938
 30
0.0
 10
19.64902050047081
 20
199.6353501450099
 30
0.0
 10
18.12874854845686
 20
199.959064013135
 30
0.0
 10
13.54166346062262
 20
200.8354887427533
 30
0.0
 10
10.44874153927078
 20
201.2940612377814
 30
0.0
 10
5.760841721619294
 20
201.8069863335626
 30
0.0
 10
4.190026299308383
 20
201.948459640421
 30
0.0
 10
1.032243523113992
 20
202.1731685221819
 30
0.0
 10
-0.5593619168039127
 20
202.2564401508512
 30
0.0
 10
-5.291429592546362
 20
202.4134438544415
 30
0.0
 10
-8.407089768753897
 20
202.3968894972539
 30
0.0
 10
-14.56008312057157
 20
202.1206391254551
 30
0.0
 10
-17.59746974881337
 20
201.8611090378094
 30
0.0
 10
-22.09198867039747
 20
201.2807169856025
 30
0.0
 10
-23.58423484595807
 20
201.0544012769848
 30
0.0
 10
-26.50326393008002
 20
200.5446708938218
 30
0.0
 10
-27.93470605008268
 20
200.2607432538212
 30
0.0
 10
-32.14683393846428
 20
199.3238629796695
 30
0.0
 10
-34.8481157379904
 20
198.5887060474972
 30
0.0
 10
-38.74010016429499
 20
197.3203918545353
 30
0.0
 10
-40.01070673507581
 20
196.8699564994729
 30
0.0
 10
-42.50266880848944
 20
195.918097790355
 30
0.0
 10
-43.7257336997821
 20
195.4159746574441
 30
0.0
 10
-47.30682398380532
 20
193.8629118533443
 30
0.0
 10
-49.59358046977919
 20
192.7650819587827
 30
0.0
 10
-52.97281177908272
 20
191.0867467850736
 30
0.0
 10
-54.09033759502577
 20
190.5217879893567
 30
0.0
 10
-56.32237001276725
 20
189.3899966932194
 30
0.0
 10
-57.43763503418104
 20
188.8236348630905
 30
0.0
 10
-60.79452716286382
 20
187.1314361388737
 30
0.0
 10
-63.04265464924006
 20
186.009633337871
 30
0.0
 10
-67.54339877049973
 20
183.7688136722941
 30
0.0
 10
-69.79557901047016
 20
182.6495259838689
 30
0.0
 10
-74.2823565099742
 20
180.4000387234764
 30
0.0
 10
-76.51731088092664
 20
179.270060772538
 30
0.0
 10
-80.95914261602465
 20
176.9926804624614
 30
0.0
 10
-83.16710602157248
 20
175.8459520935692
 30
0.0
 10
-87.56720993326772
 20
173.5426757671101
 30
0.0
 10
-89.75907239556203
 20
172.3859552573325
 30
0.0
 10
-96.31500879096944
 20
168.9035984502292
 30
0.0
 10
-100.6600954319069
 20
166.5661787626103
 30
0.0
 10
-109.2928100850958
 20
161.8556809353268
 30
0.0
 10
-113.5809136921788
 20
159.4828979467278
 30
0.0
 10
-117.8324939470241
 20
157.0874488027739
 30
0.0
  0
SPLINE
  5
80
330
1F
100
AcDbEntity
  8
0
  6
Continuous
 62
     7
370
    25
100
AcDbSpline
210
0.0
220
0.0
230
1.0
 70
     8
 71
     3
 72
    74
 73
    70
 74
     0
 42
0.00000001
 43
0.00000001
 40
0.0
 40
0.0
 40
0.0
 40
0.0
 40
0.0156249999999996
 40
0.0156249999999996
 40
0.0312499999999993
 40
0.0312499999999993
 40
0.0468749999999989
 40
0.0468749999999989
 40
0.0624999999999986
 40
0.0624999999999986
 40
0.0937499999999979
 40
0.0937499999999979
 40
0.1249999999999973
 40
0.1249999999999973
 40
0.1562499999999967
 40
0.1562499999999967
 40
0.1874999999999961
 40
0.1874999999999961
 40
0.2187499999999955
 40
0.2187499999999955
 40
0.2499999999999949
 40
0.2499999999999949
 40
0.2656249999999946
 40
0.2656249999999946
 40
0.2812499999999943
 40
0.2812499999999943
 40
0.3124999999999936
 40
0.3124999999999936
 40
0.3437499999999929
 40
0.3437499999999929
 40
0.3593749999999927
 40
0.3593749999999927
 40
0.3749999999999924
 40
0.3749999999999924
 40
0.4062499999999917
 40
0.4062499999999917
 40
0.4374999999999909
 40
0.4374999999999909
 40
0.4453124999999908
 40
0.4453124999999908
 40
0.4531249999999907
 40
0.4531249999999907
 40
0.4687499999999907
 40
0.4687499999999907
 40
0.4999999999999907
 40
0.4999999999999907
 40
0.5312499999999909
 40
0.5312499999999909
 40
0.539062499999991
 40
0.539062499999991
 40
0.5468749999999911
 40
0.5468749999999911
 40
0.5624999999999913
 40
0.5624999999999913
 40
0.5937499999999919
 40
0.5937499999999919
 40
0.6249999999999923
 40
0.6249999999999923
 40
0.6874999999999936
 40
0.6874999999999936
 40
0.7187499999999942
 40
0.7187499999999942
 40
0.7499999999999948
 40
0.7499999999999948
 40
0.8749999999999974
 40
0.8749999999999974
 40
0.9374999999999988
 40
0.9374999999999988
 40
1.0
 40
1.0
 40
1.0
 40
1.0
 10
151.3347075984376
 20
128.6829173139536
 30
0.0
 10
152.2987836067502
 20
128.1133027065074
 30
0.0
 10
153.2795090469444
 20
127.552993200205
 30
0.0
 10
155.2194991489719
 20
126.4203801018751
 30
0.0
 10
156.1762738680987
 20
125.846924130928
 30
0.0
 10
158.0717203367355
 20
124.6902339844322
 30
0.0
 10
159.013688409706
 20
124.1089376890591
 30
0.0
 10
160.894125179078
 20
122.9445673037854
 30
0.0
 10
161.8318836113248
 20
122.3611251176528
 30
0.0
 10
164.6369492288507
 20
120.6066035540109
 30
0.0
 10
166.49567212157
 20
119.4311377502661
 30
0.0
 10
170.1934554416737
 20
117.070158960298
 30
0.0
 10
172.0327777303916
 20
115.8853302990815
 30
0.0
 10
175.703363627198
 20
113.5121034918066
 30
0.0
 10
177.5339046824568
 20
112.3233583662371
 30
0.0
 10
181.1746688981632
 20
109.936753410569
 30
0.0
 10
182.9829646770622
 20
108.7380289479136
 30
0.0
 10
186.5407194221781
 20
106.314185547777
 30
0.0
 10
188.2913849105347
 20
105.0896078618833
 30
0.0
 10
191.7009047488741
 20
102.5992655754748
 30
0.0
 10
193.3576136767292
 20
101.3325385283605
 30
0.0
 10
195.7175279880873
 20
99.37630548323877
 30
0.0
 10
196.4846693557544
 20
98.71290820212182
 30
0.0
 10
197.9548756348922
 20
97.3727762638521
 30
0.0
 10
198.658252403081
 20
96.69629261411697
 30
0.0
 10
200.6612267784031
 20
94.64516592645731
 30
0.0
 10
201.8481156274816
 20
93.24772391157762
 30
0.0
 10
203.9068093220804
 20
90.38910399243416
 30
0.0
 10
204.7855228983754
 20
88.92932360151809
 30
0.0
 10
205.8935615141796
 20
86.69716732832042
 30
0.0
 10
206.2278061687927
 20
85.94446108638485
 30
0.0
 10
206.8179250970065
 20
84.44389980634487
 30
0.0
 10
207.0750331422092
 20
83.6938816020438
 30
0.0
 10
207.7364944369689
 20
81.44458669548283
 30
0.0
 10
208.031184059048
 20
79.94606832199582
 30
0.0
 10
208.3307252519181
 20
76.95103581780296
 30
0.0
 10
208.3356426835222
 20
75.45452123166652
 30
0.0
 10
208.1541344385479
 20
73.58517564175436
 30
0.0
 10
208.1083382142801
 20
73.21106665896002
 30
0.0
 10
207.9984018923562
 20
72.46764869048756
 30
0.0
 10
207.9342257717949
 20
72.09779206161262
 30
0.0
 10
207.7143315821688
 20
70.99372732925767
 30
0.0
 10
207.5312767620213
 20
70.26501853068659
 30
0.0
 10
206.8737258017464
 20
68.10069613095034
 30
0.0
 10
206.2916974939657
 20
66.68671466067278
 30
0.0
 10
204.8182562931579
 20
63.92099028545879
 30
0.0
 10
203.9250114874672
 20
62.56961590442909
 30
0.0
 10
202.5924888068126
 20
60.92384371233276
 30
0.0
 10
202.3149797904089
 20
60.59632326515074
 30
0.0
 10
201.7438881383403
 20
59.95082087619911
 30
0.0
 10
201.4498704385132
 20
59.63224367875202
 30
0.0
 10
200.5435100212136
 20
58.68848802878602
 30
0.0
 10
199.9061827801852
 20
58.07561917030036
 30
0.0
 10
197.9125682378959
 20
56.27723216764848
 30
0.0
 10
196.47678597543
 20
55.13088029767258
 30
0.0
 10
193.4931436446257
 20
52.89339603338252
 30
0.0
 10
191.9480326847262
 20
51.80090918422884
 30
0.0
 10
187.258183631232
 20
48.5503081430604
 30
0.0
 10
184.0467642482188
 20
46.42504707311945
 30
0.0
 10
179.2061340160361
 20
43.24873422453253
 30
0.0
 10
177.5889771381875
 20
42.1917435896535
 30
0.0
 10
174.3474694051058
 20
40.08130671172243
 30
0.0
 10
172.7232601665109
 20
39.02779069574407
 30
0.0
 10
164.5668344616045
 20
33.77764170385994
 30
0.0
 10
157.9159101252683
 20
29.63924307008504
 30
0.0
 10
147.7678184573568
 20
23.51700717333199
 30
0.0
 10
144.3570260875745
 20
21.49204177359236
 30
0.0
 10
137.47735099948
 20
17.47473795550267
 30
0.0
 10
134.0088595197319
 20
15.48217979439542
 30
0.0
 10
130.50630652569
 20
13.50875259774387
 30
0.0
  0
SPLINE
  5
81
330
1F
100
AcDbEntity
  8
0
  6
Continuous
 62
     7
370
    25
100
AcDbSpline
210
0.0
220
0.0
230
1.0
 70
     8
 71
     3
 72
    64
 73
    60
 74
     0
 42
0.00000001
 43
0.00000001
 40
0.0
 40
0.0
 40
0.0
 40
0.0
 40
0.2500000000000002
 40
0.2500000000000002
 40
0.3750000000000002
 40
0.3750000000000002
 40
0.4062500000000003
 40
0.4062500000000003
 40
0.4375000000000004
 40
0.4375000000000004
 40
0.4687500000000006
 40
0.4687500000000006
 40
0.5000000000000006
 40
0.5000000000000006
 40
0.5078125000000006
 40
0.5078125000000006
 40
0.5156250000000006
 40
0.5156250000000006
 40
0.5312500000000007
 40
0.5312500000000007
 40
0.5468750000000008
 40
0.5468750000000008
 40
0.554687500000001
 40
0.554687500000001
 40
0.5625000000000012
 40
0.5625000000000012
 40
0.5937500000000021
 40
0.5937500000000021
 40
0.6093750000000023
 40
0.6093750000000023
 40
0.6171875000000023
 40
0.6171875000000023
 40
0.6250000000000023
 40
0.6250000000000023
 40
0.6562500000000022
 40
0.6562500000000022
 40
0.6718750000000021
 40
0.6718750000000021
 40
0.687500000000002
 40
0.687500000000002
 40
0.7187500000000018
 40
0.7187500000000018
 40
0.7343750000000017
 40
0.7343750000000017
 40
0.7500000000000017
 40
0.7500000000000017
 40
0.8125000000000012
 40
0.8125000000000012
 40
0.8750000000000008
 40
0.8750000000000008
 40
0.9062500000000006
 40
0.9062500000000006
 40
0.9375000000000004
 40
0.9375000000000004
 40
0.9687500000000002
 40
0.9687500000000002
 40
0.9843750000000001
 40
0.9843750000000001
 40
1.0
 40
1.0
 40
1.0
 40
1.0
 10
-50.85952318933714
 20
118.3665892187754
 30
0.0
 10
-35.85525673690149
 20
126.8204168970859
 30
0.0
 10
-20.66016568855428
 20
135.1625733239273
 30
0.0
 10
2.289747313254086
 20
147.5823117581464
 30
0.0
 10
9.957325800169139
 20
151.7117463450902
 30
0.0
 10
19.58596571424182
 20
156.8469264726362
 30
0.0
 10
21.51570508984809
 20
157.8715408497557
 30
0.0
 10
25.36292446340908
 20
159.9281705003144
 30
0.0
 10
27.27312724636806
 20
160.9650067682195
 30
0.0
 10
31.15132601107134
 20
163.0019866556154
 30
0.0
 10
33.11470780642093
 20
164.0024147661063
 30
0.0
 10
37.26892504751818
 20
165.8340855813282
 30
0.0
 10
39.45969277232697
 20
166.6653786584956
 30
0.0
 10
42.42702440638511
 20
167.5342546135387
 30
0.0
 10
43.03322967098369
 20
167.6997411755461
 30
0.0
 10
44.26585779350493
 20
168.0104205693051
 30
0.0
 10
44.88855343141986
 20
168.1549028894573
 30
0.0
 10
46.77478271611816
 20
168.5574830959996
 30
0.0
 10
48.0564062992165
 20
168.7848034388164
 30
0.0
 10
50.66429987068322
 20
169.1634843941504
 30
0.0
 10
51.99049396088345
 20
169.314974136983
 30
0.0
 10
54.01204310667708
 20
169.4873261741861
 30
0.0
 10
54.6913111270796
 20
169.5355583507902
 30
0.0
 10
56.0607742019252
 20
169.6134318554489
 30
0.0
 10
56.75253156411827
 20
169.643106191611
 30
0.0
 10
60.21989410848794
 20
169.7438234852899
 30
0.0
 10
62.99543952192781
 20
169.674077617227
 30
0.0
 10
67.16115176210516
 20
169.352056250795
 30
0.0
 10
68.55012470296145
 20
169.2081938019878
 30
0.0
 10
70.63419940284528
 20
168.9365276919896
 30
0.0
 10
71.33091319882294
 20
168.8362778138422
 30
0.0
 10
72.71319213175984
 20
168.6178157622464
 30
0.0
 10
73.39867806445453
 20
168.4996841117337
 30
0.0
 10
76.7974681580054
 20
167.8639372342396
 30
0.0
 10
79.42532041116374
 20
167.2117910409643
 30
0.0
 10
83.23045673833643
 20
166.018449726708
 30
0.0
 10
84.47674997827151
 20
165.5841279209491
 30
0.0
 10
86.92070775751233
 20
164.6461271110211
 30
0.0
 10
88.09703020442237
 20
164.1493889883519
 30
0.0
 10
91.52626458421125
 20
162.5985837255618
 30
0.0
 10
93.68410396668145
 20
161.4867570358975
 30
0.0
 10
96.8578286590088
 20
159.7807216421352
 30
0.0
 10
97.90605327303624
 20
159.2061600773369
 30
0.0
 10
99.99920572337857
 20
158.0550340521121
 30
0.0
 10
101.0445756347587
 20
157.4787381661218
 30
0.0
 10
106.2722828392966
 20
154.5977797839479
 30
0.0
 10
110.4369997062536
 20
152.2824123274394
 30
0.0
 10
118.7233589932989
 20
147.6255083399916
 30
0.0
 10
122.8477417027578
 20
145.2856366205983
 30
0.0
 10
129.0087247063664
 20
141.7602816713682
 30
0.0
 10
131.0571338375818
 20
140.5819726795901
 30
0.0
 10
135.1506935499867
 20
138.2233750249218
 30
0.0
 10
137.1973865209566
 20
137.0439159832048
 30
0.0
 10
141.2705065529088
 20
134.6737232177669
 30
0.0
 10
143.2970840024895
 20
133.4830376296503
 30
0.0
 10
146.331270429282
 20
131.6939156779066
 30
0.0
 10
147.3386436256781
 20
131.0952997749619
 30
0.0
 10
149.3336152141889
 20
129.8874574318306
 30
0.0
 10
150.3243366296273
 20
129.2798848329166
 30
0.0
 10
151.3347075984376
 20
128.6829173139536
 30
0.0
  0
LWPOLYLINE
  5
82
330
1F
100
AcDbEntity
  8
0
  6
Continuous
 62
     7
370
    25
100
AcDbPolyline
 90
       24
 70
   128
 43
0.0
 10
-95.2398002366
 20
144.0253356713
 10
-93.3229189186
 20
144.9524715139
 10
-91.17389524
 20
145.7074773045
 10
-88.8327614664
 20
146.2762887064
 10
-86.3431285125
 20
146.6483098341
 10
-83.7513735533
 20
146.8166106344
 10
-81.1057761047
 20
146.7780559802
 10
-78.4556186664
 20
146.5333640721
 10
-75.8502686825
 20
146.0870930597
 10
-73.3382589184
 20
145.4475561319
 10
-70.9663833869
 20
144.6266666576
 10
-68.7788256639
 20
143.6397162623
 10
-66.8163358316
 20
142.5050899739
 10
-65.1154713809
 20
141.2439237442
 10
-63.7079162147
 20
139.8797107257
 10
-62.6198904358
 20
138.4378636387
 10
-61.8716619162
 20
136.9452413801
 10
-61.4771687446
 20
135.4296486926
 10
-61.4437595861
 20
133.9193182147
 10
-61.7720567905
 20
132.4423845599
 10
-62.4559447989
 20
131.0263602218
 10
-63.4826840652
 20
129.697623068
 10
-64.8331483697
 20
128.4809249703
 10
-66.4821811048
 20
127.3989307235
  0
SPLINE
  5
84
330
1F
100
AcDbEntity
  8
0
  6
Continuous
 62
     7
370
    25
100
AcDbSpline
210
0.0
220
0.0
230
1.0
 70
     8
 71
     3
 72
    12
 73
     8
 74
     0
 42
0.00000001
 43
0.00000001
 40
0.0
 40
0.0
 40
0.0
 40
0.0
 40
0.1520329478470471
 40
0.4124396468471944
 40
0.5804553502936141
 40
0.7484722399870045
 40
1.0
 40
1.0
 40
1.0
 40
1.0
 10
2.188469795427368
 20
-13.02301015512182
 30
0.0
 10
2.7238587005556
 20
-13.57177693336015
 30
0.0
 10
4.176278153601711
 20
-15.06048829114948
 30
0.0
 10
6.890486796207289
 20
-16.88015309771673
 30
0.0
 10
9.958296165722919
 20
-18.5330420525827
 30
0.0
 10
13.22799743828917
 20
-19.9773891060554
 30
0.0
 10
15.79757087747154
 20
-20.73649400504619
 30
0.0
 10
17.338095948638
 20
-21.19159682900468
 30
0.0
  0
SPLINE
  5
85
330
1F
100
AcDbEntity
  8
0
  6
Continuous
 62
     7
370
    25
100
AcDbSpline
210
0.0
220
0.0
230
1.0
 70
     8
 71
     3
 72
    12
 73
     8
 74
     0
 42
0.00000001
 43
0.00000001
 40
0.0
 40
0.0
 40
0.0
 40
0.0
 40
0.0158077999934867
 40
0.2897580553309747
 40
0.5638947252409694
 40
0.8380406224548824
 40
1.0
 40
1.0
 40
1.0
 40
1.0
 10
38.37657240960017
 20
-22.32738940168309
 30
0.0
 10
38.47800886075998
 20
-22.31707015510261
 30
0.0
 10
40.3373459500356
 20
-22.12791765931703
 30
0.0
 10
43.70016808710407
 20
-21.28838606719852
 30
0.0
 10
48.21045949895274
 20
-19.79312410681526
 30
0.0
 10
51.69133708439877
 20
-18.14661477976474
 30
0.0
 10
53.34185880583195
 20
-16.90800015440851
 30
0.0
 10
53.95482426646691
 20
-16.44800742936792
 30
0.0
  0
LWPOLYLINE
  5
87
330
1F
100
AcDbEntity
  8
0
  6
Continuous
 62
     7
370
    25
100
AcDbPolyline
 90
        7
 70
   128
 43
0.0
 10
41.2947698542
 20
-9.5961058146
 10
43.1953138662
 20
-10.8326353656
 10
44.8220643506
 20
-12.1839483019
 10
46.1471871557
 20
-13.6269232844
 10
47.1480090628
 20
-15.1368706112
 10
47.8074057317
 20
-16.6879546649
 10
48.0349412782
 20
-17.6315197338
  0
LWPOLYLINE
  5
88
330
1F
100
AcDbEntity
  8
0
  6
Continuous
 62
     7
370
    25
100
AcDbPolyline
 90
       17
 70
   128
 43
0.0
 10
6.8061120315
 20
-13.5808927467
 10
7.4911786094
 20
-12.3102956008
 10
8.5867282143
 20
-10.9497689731
 10
10.0006467875
 20
-9.7020215421
 10
11.7087417901
 20
-8.5884026123
 10
13.6817872431
 20
-7.6279665125
 10
15.8860237918
 20
-6.8371465705
 10
18.2837363377
 20
-6.2294739348
 10
20.8338993544
 20
-5.8153460526
 10
23.4928788455
 20
-5.601848767
 10
26.2151789349
 20
-5.5926350755
 10
28.9542203131
 20
-5.7878626271
 10
31.6631372229
 20
-6.1841910241
 10
34.2955793448
 20
-6.7748389779
 10
36.8065048643
 20
-7.5497003382
 10
39.1529511496
 20
-8.4955170123
 10
41.2947698542
 20
-9.5961058146
  0
LWPOLYLINE
  5
8A
330
1F
100
AcDbEntity
  8
0
  6
Continuous
 62
     7
370
    25
100
AcDbPolyline
 90
       16
 70
   128
 43
0.0
 10
-65.8307902341
 20
129.2216316254
 10
-65.9165724242
 20
129.3845931556
 10
-66.8364398941
 20
130.7366317211
 10
-68.085989771
 20
132.0162705233
 10
-69.6373091755
 20
133.1949245458
 10
-71.4557441955
 20
134.2462646054
 10
-73.5006739976
 20
135.1468055025
 10
-75.726418229
 20
135.8764306416
 10
-78.0832574418
 20
136.4188414026
 10
-80.5185437423
 20
136.7619212255
 10
-82.9778768588
 20
136.898006274
 10
-85.4063193534
 20
136.824056633
 10
-87.7496238337
 20
136.5417242152
 10
-89.9554447498
 20
136.0573158604
 10
-91.9745077074
 20
135.3816524506
 10
-93.7617101763
 20
134.5298271901
  0
SPLINE
  5
8C
330
1F
100
AcDbEntity
  8
0
  6
Continuous
 62
     7
370
    25
100
AcDbSpline
210
0.0
220
0.0
230
1.0
 70
     8
 71
     3
 72
    48
 73
    44
 74
     0
 42
0.00000001
 43
0.00000001
 40
0.0
 40
0.0
 40
0.0
 40
0.0
 40
0.056774171241585
 40
0.1135680240638898
 40
0.1704321858319102
 40
0.1988726584619655
 40
0.213107680043495
 40
0.2273369807902357
 40
0.2404732030139609
 40
0.2536067935248666
 40
0.2671086199182252
 40
0.2806099533338549
 40
0.2937818958113191
 40
0.3069540911045376
 40
0.3205244121812739
 40
0.3340953687204306
 40
0.3471018377449104
 40
0.3601076775074472
 40
0.3735056810729268
 40
0.386901686679932
 40
0.3994045392373496
 40
0.4119114913144769
 40
0.4247057812925288
 40
0.4375042190368847
 40
0.4653156146470189
 40
0.4931406299521344
 40
0.5488603366037161
 40
0.6047068628981689
 40
0.6605750874330161
 40
0.7161689608233149
 40
0.7717828867259439
 40
0.8274660660252291
 40
0.8553433075687517
 40
0.8832026646318548
 40
0.8964292965816535
 40
0.9096506612470717
 40
0.9232066913777764
 40
0.9367613260549438
 40
0.9500826258406642
 40
0.9634055228914021
 40
0.9771465559035816
 40
0.9908878677567404
 40
1.0
 40
1.0
 40
1.0
 40
1.0
 10
136.2851973635208
 20
5.87396093540915
 30
0.0
 10
130.2238781214203
 20
2.511815216322017
 30
0.0
 10
118.099138393972
 20
-4.213641757885855
 30
0.0
 10
99.53513728876182
 20
-14.11439924579716
 30
0.0
 10
83.52829385767477
 20
-22.03054007974893
 30
0.0
 10
72.47421625727165
 20
-27.69484524418991
 30
0.0
 10
66.0539677034464
 20
-30.86943650171675
 30
0.0
 10
61.15612312260681
 20
-33.05049716703603
 30
0.0
 10
56.09674208278566
 20
-34.9522941635691
 30
0.0
 10
50.83532210338963
 20
-36.56338169368226
 30
0.0
 10
45.24910706954556
 20
-37.90682948279601
 30
0.0
 10
39.42550292367506
 20
-38.96409167449262
 30
0.0
 10
33.45698460541953
 20
-39.70910773366519
 30
0.0
 10
27.3342082760702
 20
-40.15223827211213
 30
0.0
 10
21.0484362227738
 20
-40.28546056756318
 30
0.0
 10
14.73513206098506
 20
-40.11013949062844
 30
0.0
 10
8.50277164604474
 20
-39.64408145399409
 30
0.0
 10
2.330341268091817
 20
-38.89510794799384
 30
0.0
 10
-3.823567355784304
 20
-37.84113820049895
 30
0.0
 10
-9.769766594334413
 20
-36.49890254450007
 30
0.0
 10
-15.38815159897897
 20
-34.87783461861788
 30
0.0
 10
-20.70364729908175
 20
-33.02400606412363
 30
0.0
 10
-25.84488757957625
 20
-30.94805389996777
 30
0.0
 10
-32.79264517316025
 20
-27.82980508455504
 30
0.0
 10
-41.33426600956408
 20
-23.57648758231629
 30
0.0
 10
-54.8108353561734
 20
-16.38281610987286
 30
0.0
 10
-71.74015246790746
 20
-7.402167958282149
 30
0.0
 10
-91.68605208524416
 20
3.601801840846339
 30
0.0
 10
-111.3172302128371
 20
14.76745294415685
 30
0.0
 10
-130.5547100357187
 20
26.10493451343106
 30
0.0
 10
-149.4426496592766
 20
37.60285769226631
 30
0.0
 10
-164.8895715886069
 20
47.32537904361695
 30
0.0
 10
-177.2685390416229
 20
55.1163934769331
 30
0.0
 10
-184.5779283632045
 20
60.12015896743276
 30
0.0
 10
-189.8916019175669
 20
64.23620730888099
 30
0.0
 10
-193.4770671462785
 20
67.38833660405014
 30
0.0
 10
-196.6172642234352
 20
70.71225503617956
 30
0.0
 10
-199.2092684799325
 20
74.17570622518637
 30
0.0
 10
-201.2146827626588
 20
77.71172355715787
 30
0.0
 10
-202.6994878109216
 20
81.31777059163723
 30
0.0
 10
-203.6361864990947
 20
84.98627356845756
 30
0.0
 10
-204.0527713737278
 20
88.2809557274005
 30
0.0
 10
-203.9293180178897
 20
90.31656659606979
 30
0.0
 10
-203.8800946579653
 20
91.12820598630239
 30
0.0
  0
SPLINE
  5
90
330
1F
100
AcDbEntity
  8
0
  6
Continuous
 62
     7
370
    25
100
AcDbSpline
210
0.0
220
0.0
230
1.0
 70
     8
 71
     3
 72
    20
 73
    16
 74
     0
 42
0.00000001
 43
0.00000001
 40
0.0
 40
0.0
 40
0.0
 40
0.0
 40
0.0002487552170659
 40
0.0416340985077484
 40
0.0842193054247959
 40
0.1268049611544009
 40
0.1679938367875679
 40
0.2091826620021058
 40
0.251454592669893
 40
0.2937446443743815
 40
0.3818606461595357
 40
0.4700292444013474
 40
0.6464081814115932
 40
0.8231760278157484
 40
1.0
 40
1.0
 40
1.0
 40
1.0
 10
218.2119310039813
 20
68.57232601431654
 30
0.0
 10
218.2116546786959
 20
68.5654139231651
 30
0.0
 10
218.1654061847483
 20
67.40853895471638
 30
0.0
 10
217.6121854294554
 20
65.10919198799297
 30
0.0
 10
216.4875353530805
 20
61.71166055534697
 30
0.0
 10
214.7828549499386
 20
58.42640850982598
 30
0.0
 10
212.6220184718119
 20
55.29607156177013
 30
0.0
 10
210.0085343359263
 20
52.30817078691778
 30
0.0
 10
206.9025253968195
 20
49.46498420312963
 30
0.0
 10
202.1017502011275
 20
45.79454112972512
 30
0.0
 10
195.3739430747931
 20
41.47672557542553
 30
0.0
 10
184.2846959814689
 20
34.64259009651308
 30
0.0
 10
170.6754484611023
 20
25.92050095423665
 30
0.0
 10
153.659165667525
 20
15.81479966426583
 30
0.0
 10
142.0771329385196
 20
9.187924473936015
 30
0.0
 10
136.2851973635208
 20
5.87396093540915
 30
0.0
  0
SPLINE
  5
91
330
1F
100
AcDbEntity
  8
0
  6
Continuous
 62
     7
370
    25
100
AcDbSpline
210
0.0
220
0.0
230
1.0
 70
     8
 71
     3
 72
    58
 73
    54
 74
     0
 42
0.00000001
 43
0.00000001
 40
0.0
 40
0.0
 40
0.0
 40
0.0
 40
0.0037376022605711
 40
0.0132949528001603
 40
0.0228516925449803
 40
0.0327296852074624
 40
0.0426090370469028
 40
0.0540926290924115
 40
0.0655800152304006
 40
0.0773721423969329
 40
0.0891690405414739
 40
0.1275655834219959
 40
0.1659669423381639
 40
0.2044033217092271
 40
0.2428401740957744
 40
0.2905046444081401
 40
0.3381870027172432
 40
0.3859281501520728
 40
0.4098040425216474
 40
0.4217556205455985
 40
0.4337025300643298
 40
0.4434039226863727
 40
0.4531037062425836
 40
0.4630152457517285
 40
0.4729244744548975
 40
0.4827336108869472
 40
0.4925432777276329
 40
0.502699040766428
 40
0.5128556952070571
 40
0.5218517463139211
 40
0.5308475629919968
 40
0.5400773016576067
 40
0.5493062947308136
 40
0.5587200323103255
 40
0.5681330190376617
 40
0.5778306451415489
 40
0.5875331324625127
 40
0.6062008617836336
 40
0.6248764571263745
 40
0.662259179588052
 40
0.7371557321892583
 40
0.7888998868923444
 40
0.8406683249215521
 40
0.9093476140323881
 40
0.9269171894765804
 40
0.9444912901802348
 40
0.9533689695127875
 40
0.9622434208053837
 40
0.9713090161342633
 40
0.9803741668212428
 40
0.9896130617931551
 40
0.99885276504695
 40
1.0
 40
1.0
 40
1.0
 40
1.0
 10
-202.9809650354775
 20
6.691943398611961
 30
0.0
 10
-202.9505377046501
 20
6.278504301262276
 30
0.0
 10
-202.8423052339426
 20
4.807868074665731
 30
0.0
 10
-202.1736821129633
 20
2.271127461696186
 30
0.0
 10
-200.954332819135
 20
-0.9247442399839684
 30
0.0
 10
-199.1765319129762
 20
-4.108576920143651
 30
0.0
 10
-196.7610711888981
 20
-7.418993881495036
 30
0.0
 10
-193.6751156705689
 20
-10.78016790458648
 30
0.0
 10
-189.9010637214027
 20
-14.18693743137265
 30
0.0
 10
-185.6578120243946
 20
-17.46940093332842
 30
0.0
 10
-177.5184174534007
 20
-22.9976550351555
 30
0.0
 10
-165.3546072880446
 20
-30.64910440582855
 30
0.0
 10
-149.4294103757439
 20
-40.53717636198721
 30
0.0
 10
-133.3612562805025
 20
-50.35164108585856
 30
0.0
 10
-115.7120502775238
 20
-60.79393387506467
 30
0.0
 10
-96.41139225005256
 20
-71.8112390638435
 30
0.0
 10
-75.53266764933689
 20
-83.44717051928112
 30
0.0
 10
-57.52976244821846
 20
-92.7899319455911
 30
0.0
 10
-45.20364012070068
 20
-99.49078991923281
 30
0.0
 10
-38.01940573747323
 20
-103.2412908512627
 30
0.0
 10
-32.76940129539373
 20
-105.7535607640509
 30
0.0
 10
-27.64757442066563
 20
-107.9286072161326
 30
0.0
 10
-22.66541591369651
 20
-109.7912390087144
 30
0.0
 10
-17.45292229171626
 20
-111.4585873467654
 30
0.0
 10
-12.03834054571045
 20
-112.8893240454886
 30
0.0
 10
-6.483115222170358
 20
-114.0313643560763
 30
0.0
 10
-0.7728545419435967
 20
-114.889458903771
 30
0.0
 10
5.063869096908635
 20
-115.4548917981167
 30
0.0
 10
10.75197547284138
 20
-115.7153337277235
 30
0.0
 10
16.18254793054462
 20
-115.7079230507634
 30
0.0
 10
21.37462229246076
 20
-115.4679218167763
 30
0.0
 10
26.51616528640059
 20
-114.9840053182399
 30
0.0
 10
31.60131411089499
 20
-114.2426743221066
 30
0.0
 10
36.53758499752676
 20
-113.2336307768563
 30
0.0
 10
41.31913866604302
 20
-111.9363525936219
 30
0.0
 10
45.86442330382029
 20
-110.3633571457982
 30
0.0
 10
51.54302865687572
 20
-108.0313983739406
 30
0.0
 10
58.18388058995097
 20
-104.8838007816936
 30
0.0
 10
68.49886130473337
 20
-99.73613347748137
 30
0.0
 10
86.57074707954699
 20
-90.71936585990424
 30
0.0
 10
108.5994636971089
 20
-79.03104243848779
 30
0.0
 10
131.9370411085641
 20
-65.93547167067811
 30
0.0
 10
153.9143207974384
 20
-52.97278741984933
 30
0.0
 10
171.0314997832289
 20
-42.29022763463282
 30
0.0
 10
183.648794467487
 20
-34.13468852750097
 30
0.0
 10
188.9558093893806
 20
-30.64623423337437
 30
0.0
 10
192.8625316770209
 20
-27.67835430072356
 30
0.0
 10
195.5685646103479
 20
-25.31229962765193
 30
0.0
 10
197.9114419216824
 20
-22.78752509691585
 30
0.0
 10
199.8645243819436
 20
-20.09565331748586
 30
0.0
 10
201.33587744326
 20
-17.26605336924237
 30
0.0
 10
202.1932036247241
 20
-15.20389113466296
 30
0.0
 10
202.4252719847203
 20
-14.08080305645806
 30
0.0
 10
202.4509038820882
 20
-13.95675823468168
 30
0.0
  0
SPLINE
  5
92
330
1F
100
AcDbEntity
  8
0
  6
Continuous
 62
     7
370
    25
100
AcDbSpline
210
0.0
220
0.0
230
1.0
 70
     8
 71
     3
 72
    24
 73
    20
 74
     0
 42
0.00000001
 43
0.00000001
 40
0.0
 40
0.0
 40
0.0
 40
0.0
 40
0.007797569270416
 40
0.0521845997967659
 40
0.0965764480658836
 40
0.1423045893150139
 40
0.1880328825773519
 40
0.2316853259170135
 40
0.2753365214229427
 40
0.3203000500459398
 40
0.3652554452782479
 40
0.4077024602945731
 40
0.4501637088932109
 40
0.4936576099347695
 40
0.5371678105704927
 40
0.6526428839570847
 40
0.7681820648503909
 40
0.8840925277774636
 40
1.0
 40
1.0
 40
1.0
 40
1.0
 10
200.6400124501905
 20
63.37191412412999
 30
0.0
 10
200.7445406325558
 20
63.53905911302849
 30
0.0
 10
201.4440870136204
 20
64.65766339228712
 30
0.0
 10
202.2659421223695
 20
66.82807818699938
 30
0.0
 10
203.1262569089504
 20
69.88140432454881
 30
0.0
 10
203.4850453008406
 20
73.02144009401762
 30
0.0
 10
203.3854686471011
 20
76.1622628713133
 30
0.0
 10
202.8309053069315
 20
79.25102965913361
 30
0.0
 10
201.8433399810372
 20
82.29400402207304
 30
0.0
 10
200.3943169639862
 20
85.31263372261844
 30
0.0
 10
198.4992522917946
 20
88.2200949723986
 30
0.0
 10
196.1589435916342
 20
90.94900525459387
 30
0.0
 10
193.4332656301368
 20
93.52235587790356
 30
0.0
 10
190.3501639195015
 20
96.00572280212589
 30
0.0
 10
185.1618915114827
 20
99.75925308554748
 30
0.0
 10
177.623246590032
 20
104.6994596311702
 30
0.0
 10
167.7724634089619
 20
110.848835619674
 30
0.0
 10
157.8984621406457
 20
117.2192733286218
 30
0.0
 10
151.0821653483281
 20
121.3506271198099
 30
0.0
 10
147.6740609210057
 20
123.4162773659161
 30
0.0
  0
SPLINE
  5
93
330
1F
100
AcDbEntity
  8
0
  6
Continuous
 62
     7
370
    25
100
AcDbSpline
210
0.0
220
0.0
230
1.0
 70
     8
 71
     3
 72
    18
 73
    14
 74
     0
 42
0.00000001
 43
0.00000001
 40
0.0
 40
0.0
 40
0.0
 40
0.0
 40
0.3311352789861464
 40
0.539208191731553
 40
0.6432740190477709
 40
0.7473061713277284
 40
0.7870212661110391
 40
0.82735738604018
 40
0.8682244619973811
 40
0.9105376208833919
 40
0.9500110218640486
 40
0.9906001078997103
 40
1.0
 40
1.0
 40
1.0
 40
1.0
 10
-47.52923203634007
 20
112.8265298302193
 30
0.0
 10
-59.57519943169471
 20
105.9899554444938
 30
0.0
 10
-79.19039814079439
 20
94.85753571726943
 30
0.0
 10
-102.1277507128669
 20
81.53819216751063
 30
0.0
 10
-117.1269011401678
 20
72.98567361752858
 30
0.0
 10
-126.0038550425243
 20
67.95415876951377
 30
0.0
 10
-132.0774695984653
 20
64.12297700726677
 30
0.0
 10
-135.2809134834475
 20
61.27545032186289
 30
0.0
 10
-137.330390814952
 20
57.90450063918598
 30
0.0
 10
-138.2257439764396
 20
54.26526980083864
 30
0.0
 10
-137.8965690087729
 20
50.49039244859535
 30
0.0
 10
-137.112604204042
 20
47.67432176635368
 30
0.0
 10
-136.0737146749185
 20
46.141059188829
 30
0.0
 10
-135.8783626224856
 20
45.8527455779577
 30
0.0
  0
SPLINE
  5
94
330
1F
100
AcDbEntity
  8
0
  6
Continuous
 62
     7
370
    25
100
AcDbSpline
210
0.0
220
0.0
230
1.0
 70
     8
 71
     3
 72
    25
 73
    21
 74
     0
 42
0.00000001
 43
0.00000001
 40
0.0
 40
0.0
 40
0.0
 40
0.0
 40
0.0359169714695248
 40
0.0936260061739779
 40
0.1513377835795971
 40
0.2102249639026135
 40
0.2691180302484792
 40
0.3291770741305705
 40
0.389242193894294
 40
0.4496873653454155
 40
0.5101362218022262
 40
0.5699976876059035
 40
0.6298579888222291
 40
0.6885766490949884
 40
0.7472901300738196
 40
0.8048632606722603
 40
0.8624308394769428
 40
0.9193878538177447
 40
0.9763414669001772
 40
1.0
 40
1.0
 40
1.0
 40
1.0
 10
49.63410718067752
 20
7.366885681832989
 30
0.0
 10
48.80209323510822
 20
7.838833311332762
 30
0.0
 10
46.63325383641885
 20
9.069075446609453
 30
0.0
 10
42.66678406974319
 20
10.77120992897721
 30
0.0
 10
37.75399896153746
 20
12.35273796689706
 30
0.0
 10
32.54646940667093
 20
13.47177402702501
 30
0.0
 10
27.17842055944757
 20
14.10640942411204
 30
0.0
 10
21.83532856825069
 20
14.18847041398555
 30
0.0
 10
16.65945377290475
 20
13.71711084202148
 30
0.0
 10
11.84407050004179
 20
12.66911648383044
 30
0.0
 10
7.522683720404475
 20
11.09421047639522
 30
0.0
 10
3.839945998508195
 20
9.018994151701861
 30
0.0
 10
0.8842529744340615
 20
6.54269170089515
 30
0.0
 10
-1.257821648757614
 20
3.723221604797468
 30
0.0
 10
-2.561690872952163
 20
0.6842309777350536
 30
0.0
 10
-2.976296814635577
 20
-2.500770215904877
 30
0.0
 10
-2.551420983063639
 20
-5.720307487232186
 30
0.0
 10
-1.210022199536733
 20
-8.873572088433104
 30
0.0
 10
0.3795399730312449
 20
-11.34603922560374
 30
0.0
 10
1.77803201586098
 20
-12.64251323579022
 30
0.0
 10
2.188469795427368
 20
-13.02301015512182
 30
0.0
  0
SPLINE
  5
95
330
1F
100
AcDbEntity
  8
0
  6
Continuous
 62
     7
370
    25
100
AcDbSpline
210
0.0
220
0.0
230
1.0
 70
     8
 71
     3
 72
    17
 73
    13
 74
     0
 42
0.00000001
 43
0.00000001
 40
0.0
 40
0.0
 40
0.0
 40
0.0
 40
0.0471305048069918
 40
0.1644191732797758
 40
0.279535330000829
 40
0.3946419131663961
 40
0.5079242970876121
 40
0.6211968060494827
 40
0.7334783438652331
 40
0.8457532169661119
 40
0.9228768098322857
 40
1.0
 40
1.0
 40
1.0
 40
1.0
 10
53.95482426646691
 20
-16.44800742936792
 30
0.0
 10
54.39399398144228
 20
-16.15103303508529
 30
0.0
 10
55.92607859970528
 20
-15.115010090006
 30
0.0
 10
57.76199886735396
 20
-13.04393590379541
 30
0.0
 10
59.37279962798018
 20
-10.31715258445654
 30
0.0
 10
60.08500142726285
 20
-7.451423703574337
 30
0.0
 10
59.9189171940534
 20
-4.518385302032871
 30
0.0
 10
58.90993154746429
 20
-1.592025087349964
 30
0.0
 10
57.06124412731673
 20
1.271169469159353
 30
0.0
 10
54.71932366849854
 20
3.714509615202623
 30
0.0
 10
52.1964260652009
 20
5.749943093939628
 30
0.0
 10
50.48821198895028
 20
6.827905757295777
 30
0.0
 10
49.63410718067752
 20
7.366885681832989
 30
0.0
  0
SPLINE
  5
96
330
1F
100
AcDbEntity
  8
0
  6
Continuous
 62
     7
370
    25
100
AcDbSpline
210
0.0
220
0.0
230
1.0
 70
     8
 71
     3
 72
    17
 73
    13
 74
     0
 42
0.00000001
 43
0.00000001
 40
0.0
 40
0.0
 40
0.0
 40
0.0
 40
0.0903896865882816
 40
0.1824846300498675
 40
0.2933917698829008
 40
0.4074924505330196
 40
0.5188788430265661
 40
0.6334690485895256
 40
0.7456213538558204
 40
0.8610232865275326
 40
0.9735288689148972
 40
1.0
 40
1.0
 40
1.0
 40
1.0
 10
42.19763799720726
 20
-3.958651385799213
 30
0.0
 10
42.9011102452988
 20
-4.415965630217698
 30
0.0
 10
44.32132617688026
 20
-5.339221632745549
 30
0.0
 10
46.20651354865942
 20
-6.964714687612672
 30
0.0
 10
47.83413415521926
 20
-8.80674631481597
 30
0.0
 10
48.99569691722278
 20
-10.82803511888888
 30
0.0
 10
49.57369419941125
 20
-12.88740147579316
 30
0.0
 10
49.53222751165708
 20
-14.90491210760508
 30
0.0
 10
48.88050610288274
 20
-16.87556536653341
 30
0.0
 10
47.58932563508727
 20
-18.69797162129736
 30
0.0
 10
46.31491158430295
 20
-19.99169693095511
 30
0.0
 10
45.34532796188063
 20
-20.5834477131175
 30
0.0
 10
45.16064971956348
 20
-20.69615949146472
 30
0.0
  0
SPLINE
  5
97
330
1F
100
AcDbEntity
  8
0
  6
Continuous
 62
     7
370
    25
100
AcDbSpline
210
0.0
220
0.0
230
1.0
 70
     8
 71
     3
 72
    25
 73
    21
 74
     0
 42
0.00000001
 43
0.00000001
 40
0.0
 40
0.0
 40
0.0
 40
0.0
 40
0.0434210522214165
 40
0.1006313371814694
 40
0.1594819213776649
 40
0.2173183188822299
 40
0.2768401465458238
 40
0.3349857659502004
 40
0.3948646314371628
 40
0.4526773929678906
 40
0.5122141235614618
 40
0.5695542634675665
 40
0.6285626968752336
 40
0.6858847237130691
 40
0.744849251079851
 40
0.8023452195616075
 40
0.8615005929119154
 40
0.9188476373532465
 40
0.9778635272968621
 40
1.0
 40
1.0
 40
1.0
 40
1.0
 10
9.64499602195206
 20
-18.03153852616254
 30
0.0
 10
9.133666172206977
 20
-17.52427851484088
 30
0.0
 10
7.948623344173716
 20
-16.34866782310344
 30
0.0
 10
6.760093468497399
 20
-14.26794525453529
 30
0.0
 10
5.972288016306983
 20
-11.94370600472987
 30
0.0
 10
5.818272799626523
 20
-9.570672197016947
 30
0.0
 10
6.284180790732707
 20
-7.278594398846989
 30
0.0
 10
7.376829828143709
 20
-5.112029032677031
 30
0.0
 10
9.043499815223267
 20
-3.191990098671139
 30
0.0
 10
11.26106860724903
 20
-1.551510874781552
 30
0.0
 10
13.91336693874002
 20
-0.2743354990828312
 30
0.0
 10
16.9716425817531
 20
0.6348408722150269
 30
0.0
 10
20.28929487626525
 20
1.145687883577926
 30
0.0
 10
23.8424981793514
 20
1.268889166838372
 30
0.0
 10
27.47385254239158
 20
1.013283485377929
 30
0.0
 10
31.15030317143363
 20
0.3943423985144565
 30
0.0
 10
34.70354767616222
 20
-0.5482531440200028
 30
0.0
 10
38.08860847111458
 20
-1.797122288840651
 30
0.0
 10
40.54753024293124
 20
-2.979713471259276
 30
0.0
 10
41.8439931416328
 20
-3.748849112882958
 30
0.0
 10
42.19763799720726
 20
-3.958651385799213
 30
0.0
  0
SPLINE
  5
98
330
1F
100
AcDbEntity
  8
0
  6
Continuous
 62
     7
370
    25
100
AcDbSpline
210
0.0
220
0.0
230
1.0
 70
     8
 71
     3
 72
    22
 73
    18
 74
     0
 42
0.00000001
 43
0.00000001
 40
0.0
 40
0.0
 40
0.0
 40
0.0
 40
0.0287750083785128
 40
0.1030829019859287
 40
0.1795622258175137
 40
0.1798722594765609
 40
0.254236065454131
 40
0.3307468990633343
 40
0.4044540966804699
 40
0.4802543658964016
 40
0.5535673494790155
 40
0.6289881355001042
 40
0.7027428328602757
 40
0.7786801506085289
 40
0.853066708873534
 40
0.9296601373872867
 40
1.0
 40
1.0
 40
1.0
 40
1.0
 10
41.34583517573119
 20
-6.09083382846079
 30
0.0
 10
41.00378065413525
 20
-5.887645649366259
 30
0.0
 10
39.77841271471708
 20
-5.159749174940186
 30
0.0
 10
37.41297721012606
 20
-4.013166186686075
 30
0.0
 10
35.2479119438572
 20
-3.204071893229569
 30
0.0
 10
33.02155323221367
 20
-2.492669244548509
 30
0.0
 10
30.73003630897772
 20
-1.873105401924653
 30
0.0
 10
27.24133237125014
 20
-1.267080195099371
 30
0.0
 10
23.73972354107794
 20
-1.001087714293761
 30
0.0
 10
20.38820949220514
 20
-1.09882097595769
 30
0.0
 10
17.20634052832183
 20
-1.572597173036774
 30
0.0
 10
14.33114345400911
 20
-2.414450369318595
 30
0.0
 10
11.78995490874049
 20
-3.629119362346091
 30
0.0
 10
9.695127908691926
 20
-5.168848202271606
 30
0.0
 10
8.095165993716874
 20
-7.015109449698464
 30
0.0
 10
7.028513633136538
 20
-9.027518352966627
 30
0.0
 10
6.802966533280849
 20
-10.47177162372499
 30
0.0
 10
6.694992690900294
 20
-11.16316413160579
 30
0.0
  0
SPLINE
  5
99
330
1F
100
AcDbEntity
  8
0
  6
Continuous
 62
     7
370
    25
100
AcDbSpline
210
0.0
220
0.0
230
1.0
 70
     8
 71
     3
 72
    13
 73
     9
 74
     0
 42
0.00000001
 43
0.00000001
 40
0.0
 40
0.0
 40
0.0
 40
0.0
 40
0.1326627675837706
 40
0.3223636739695577
 40
0.5066310212813316
 40
0.6962417752542167
 40
0.8466871829350014
 40
1.0
 40
1.0
 40
1.0
 40
1.0
 10
48.34923246074059
 20
-16.08134464322115
 30
0.0
 10
48.38443048244332
 20
-15.62760270574526
 30
0.0
 10
48.46995985740822
 20
-14.52503323080627
 30
0.0
 10
47.92116825331582
 20
-12.74665402529164
 30
0.0
 10
46.81405402188896
 20
-10.78919190176492
 30
0.0
 10
45.25115121988365
 20
-9.022450233859356
 30
0.0
 10
43.41230538917091
 20
-7.435943897962087
 30
0.0
 10
42.03897987496267
 20
-6.542016675662718
 30
0.0
 10
41.34583517573119
 20
-6.09083382846079
 30
0.0
  0
LWPOLYLINE
  5
9C
330
1F
100
AcDbEntity
  8
0
  6
Continuous
 62
     7
370
    25
100
AcDbPolyline
 90
       18
 70
   128
 43
0.0
 10
-64.646649383
 20
131.7789614484
 10
-64.6264265577
 20
132.3366566678
 10
-64.8331074163
 20
133.7419455686
 10
-65.4027439396
 20
135.1361819727
 10
-66.3226113825
 20
136.4882209268
 10
-67.572161416
 20
137.7678600994
 10
-69.1234811428
 20
138.9465144515
 10
-70.941916626
 20
139.997854779
 10
-72.9868470012
 20
140.8983958643
 10
-75.2125918797
 20
141.6280210975
 10
-77.5694317734
 20
142.1704318482
 10
-80.0047187468
 20
142.5135115504
 10
-82.4640524855
 20
142.6495963665
 10
-84.8924955097
 20
142.575646385
 10
-87.2358003874
 20
142.2933135273
 10
-89.4416215332
 20
141.8089046459
 10
-91.4606845226
 20
141.1332406405
 10
-93.2478868018
 20
140.281414736
  0
LINE
  5
9D
330
1F
100
AcDbEntity
  8
0
  6
Continuous
 62
     7
370
    25
100
AcDbLine
 10
-203.0463147271
 20
6.6540889217
 30
0.0
 11
-202.8779281993
 21
5.5653151737
 31
0.0
  0
LINE
  5
9E
330
1F
100
AcDbEntity
  8
0
  6
Continuous
 62
     7
370
    25
100
AcDbLine
 10
130.5063065257
 20
13.5087525977
 30
0.0
 11
132.9631320405
 21
12.0883229124
 31
0.0
  0
LINE
  5
9F
330
1F
100
AcDbEntity
  8
0
  6
Continuous
 62
     7
370
    25
100
AcDbLine
 10
-117.832493947
 20
157.0874488028
 30
0.0
 11
-95.2398002366
 21
144.0253356713
 31
0.0
  0
LINE
  5
A0
330
1F
100
AcDbEntity
  8
0
  6
Continuous
 62
     7
370
    25
100
AcDbLine
 10
-66.4821811048
 20
127.3989307235
 30
0.0
 11
-50.8595231893
 21
118.3665892188
 31
0.0
  0
LINE
  5
A1
330
1F
100
AcDbEntity
  8
0
  6
Continuous
 62
     7
370
    25
100
AcDbLine
 10
-203.0191357995
 20
7.1093112224
 30
0.0
 11
-202.9809650355
 21
6.6919433986
 31
0.0
  0
LINE
  5
A2
330
1F
100
AcDbEntity
  8
0
  6
Continuous
 62
     7
370
    25
100
AcDbLine
 10
200.5706218747
 20
63.2586274843
 30
0.0
 11
200.6400124502
 21
63.3719141241
 31
0.0
  0
LINE
  5
A3
330
1F
100
AcDbEntity
  8
0
  6
Continuous
 62
     7
370
    25
100
AcDbLine
 10
-135.8783626225
 20
45.852745578
 30
0.0
 11
-135.6713012851
 21
45.5351339498
 31
0.0
  0
LINE
  5
A4
330
1F
100
AcDbEntity
  8
0
  6
Continuous
 62
     7
370
    25
100
AcDbLine
 10
10.1586210399
 20
-18.5785193026
 30
0.0
 11
9.644996022
 21
-18.0315385262
 31
0.0
  0
ARC
  5
A5
330
1F
100
AcDbEntity
  8
0
  6
Continuous
 62
     7
370
    25
100
AcDbCircle
 10
129.2281010886
 20
6.0965214468
 30
0.0
 40
7.060604861796399
100
AcDbArc
 50
358.1936546682
 51
58.0623637728
  0
ARC
  5
A6
330
1F
100
AcDbEntity
  8
0
  6
Continuous
 62
     7
370
    25
100
AcDbCircle
 10
-54.7058104897
 20
112.2834766019
 30
0.0
 40
7.19709560212456
100
AcDbArc
 50
4.3273370613
 51
57.6952685141
  0
ARC
  5
A7
330
1F
100
AcDbEntity
  8
0
  6
Continuous
 62
     7
370
    25
100
AcDbCircle
 10
155.7996400489
 20
121.6739978276
 30
0.0
 40
8.310269198601796
100
AcDbArc
 50
122.4985944711
 51
167.897935028
  0
ARC
  5
A8
330
1F
100
AcDbEntity
  8
0
  6
Continuous
 62
     7
370
    25
100
AcDbCircle
 10
-97.4772824343
 20
140.4330583148
 30
0.0
 40
4.232113324511078
100
AcDbArc
 50
357.9465584504
 51
58.0829149795
  0
ARC
  5
A9
330
1F
100
AcDbEntity
  8
0
  6
Continuous
 62
     7
370
    25
100
AcDbCircle
 10
-89.2707439951
 20
126.0599410498
 30
0.0
 40
9.586852897105176
100
AcDbArc
 50
117.9337630661
 51
141.5327041346
  0
ARC
  5
AA
330
1F
100
AcDbEntity
  8
0
  6
Continuous
 62
     7
370
    25
100
AcDbCircle
 10
-119.4513567807
 20
154.8503935357
 30
0.0
 40
2.761364362415282
100
AcDbArc
 50
54.108321703
 51
115.5684387742
  0
ARC
  5
AB
330
1F
100
AcDbEntity
  8
0
  6
Continuous
 62
     7
370
    25
100
AcDbCircle
 10
-70.285991855
 20
1.4997969563
 30
0.0
 40
2.039829716981497
100
AcDbArc
 50
66.0638598164
 51
127.8132430533
  0
ARC
  5
AC
330
1F
100
AcDbEntity
  8
0
  6
Continuous
 62
     7
370
    25
100
AcDbCircle
 10
128.8847960592
 20
11.2268138983
 30
0.0
 40
2.799382149893109
100
AcDbArc
 50
54.6029856204
 51
115.5358692883
  0
ARC
  5
AD
330
1F
100
AcDbEntity
  8
0
  6
Continuous
 62
     7
370
    25
100
AcDbCircle
 10
-90.2385422815
 20
133.5493277808
 30
0.0
 40
7.37408633081025
100
AcDbArc
 50
114.0853643664
 51
170.4349870803
  0
ARC
  5
AE
330
1F
100
AcDbEntity
  8
0
  6
Continuous
 62
     7
370
    25
100
AcDbCircle
 10
-67.4573062895
 20
126.0139752775
 30
0.0
 40
1.693803623065459
100
AcDbArc
 50
54.8512307281
 51
114.8520967774
  0
ENDSEC
  0
SECTION
  2
OBJECTS
  0
DICTIONARY
  5
C
330
0
100
AcDbDictionary
281
     1
  3
ACAD_GROUP
350
D
  3
ACAD_LAYOUT
350
1A
  3
ACAD_MLINESTYLE
350
17
  3
ACAD_PLOTSETTINGS
350
19
  3
ACAD_PLOTSTYLENAME
350
E
  3
ACAD_SCALELIST
350
47
  3
DWGPROPS
350
AF
  0
DICTIONARY
  5
D
102
{ACAD_REACTORS
330
C
102
}
330
C
100
AcDbDictionary
281
     1
  0
DICTIONARY
  5
1A
102
{ACAD_REACTORS
330
C
102
}
330
C
100
AcDbDictionary
281
     1
  3
Layout1
350
1E
  3
Layout2
350
26
  3
Model
350
22
  0
DICTIONARY
  5
17
102
{ACAD_REACTORS
330
C
102
}
330
C
100
AcDbDictionary
281
     1
  3
Standard
350
18
  0
DICTIONARY
  5
19
102
{ACAD_REACTORS
330
C
102
}
330
C
100
AcDbDictionary
281
     1
  0
ACDBDICTIONARYWDFLT
  5
E
102
{ACAD_REACTORS
330
C
102
}
330
C
100
AcDbDictionary
281
     1
  3
Normal
350
F
100
AcDbDictionaryWithDefault
340
F
  0
DICTIONARY
  5
47
102
{ACAD_REACTORS
330
C
102
}
330
C
100
AcDbDictionary
281
     1
  3
A0
350
48
  3
A1
350
49
  3
A2
350
4A
  3
A3
350
4B
  3
A4
350
4C
  3
A5
350
4D
  3
A6
350
4E
  3
A7
350
4F
  3
A8
350
50
  3
A9
350
51
  3
B0
350
52
  3
B1
350
53
  3
B2
350
54
  3
B3
350
55
  3
B4
350
56
  3
B5
350
57
  3
B6
350
58
  0
XRECORD
  5
AF
102
{ACAD_REACTORS
330
C
102
}
330
C
100
AcDbXrecord
280
     1
  1
DWGPROPS COOKIE
  2

  3

  4

  6

  7

  8
Alan Ramirez
  9

300
=
301
=
302
=
303
=
304
=
305
=
306
=
307
=
308
=
309
=
 40
0.0
 41
2460516.977682975
 42
2460516.977710914
  1

 90
        0
  0
LAYOUT
  5
1E
102
{ACAD_REACTORS
330
1A
102
}
330
1A
100
AcDbPlotSettings
  1

  2
none_device
  4

  6

 40
0.0
 41
0.0
 42
0.0
 43
0.0
 44
0.0
 45
0.0
 46
0.0
 47
0.0
 48
0.0
 49
0.0
140
0.0
141
0.0
142
1.0
143
1.0
 70
   688
 72
     1
 73
     0
 74
     5
  7

 75
    16
147
1.0
148
0.0
149
0.0
100
AcDbLayout
  1
Layout1
 70
     1
 71
     1
 10
0.0
 20
0.0
 11
420.0
 21
297.0
 12
0.0
 22
0.0
 32
0.0
 14
1.0000000000E+20
 24
1.0000000000E+20
 34
1.0000000000E+20
 15
-1.0000000000E+20
 25
-1.0000000000E+20
 35
-1.0000000000E+20
146
0.0
 13
0.0
 23
0.0
 33
0.0
 16
1.0
 26
0.0
 36
0.0
 17
0.0
 27
1.0
 37
0.0
 76
     0
330
1B
  0
LAYOUT
  5
26
102
{ACAD_REACTORS
330
1A
102
}
330
1A
100
AcDbPlotSettings
  1

  2
none_device
  4

  6

 40
0.0
 41
0.0
 42
0.0
 43
0.0
 44
0.0
 45
0.0
 46
0.0
 47
0.0
 48
0.0
 49
0.0
140
0.0
141
0.0
142
1.0
143
1.0
 70
   688
 72
     1
 73
     0
 74
     5
  7

 75
    16
147
1.0
148
0.0
149
0.0
100
AcDbLayout
  1
Layout2
 70
     1
 71
     2
 10
0.0
 20
0.0
 11
0.0
 21
0.0
 12
0.0
 22
0.0
 32
0.0
 14
0.0
 24
0.0
 34
0.0
 15
0.0
 25
0.0
 35
0.0
146
0.0
 13
0.0
 23
0.0
 33
0.0
 16
1.0
 26
0.0
 36
0.0
 17
0.0
 27
1.0
 37
0.0
 76
     0
330
23
  0
LAYOUT
  5
22
102
{ACAD_REACTORS
330
1A
102
}
330
1A
100
AcDbPlotSettings
  1

  2
none_device
  4
ANSI_A_(11.00_x_8.50_Inches)
  6

 40
6.35
 41
19.05
 42
6.35000508
 43
19.05000254
 44
279.4
 45
215.9
 46
129.0285606051
 47
60.5167583741
 48
0.0
 49
0.0
140
0.0
141
0.0
142
0.0257178842
143
1.0
 70
  1696
 72
     0
 73
     0
 74
     0
  7

 75
     0
147
0.0179189148
148
-1300.4909072572
149
0.0
100
AcDbLayout
  1
Model
 70
     1
 71
     0
 10
0.0
 20
0.0
 11
420.0
 21
297.0
 12
0.0
 22
0.0
 32
0.0
 14
-205.1049239464
 24
-116.3409600093
 34
0.0
 15
218.3358186554
 25
203.2416083953
 35
0.0
146
0.0
 13
0.0
 23
0.0
 33
0.0
 16
1.0
 26
0.0
 36
0.0
 17
0.0
 27
1.0
 37
0.0
 76
     0
330
1F
331
29
  0
MLINESTYLE
  5
18
102
{ACAD_REACTORS
330
17
102
}
330
17
100
AcDbMlineStyle
  2
Standard
 70
     0
  3

 62
   256
 51
90.0
 52
90.0
 71
     2
 49
0.5
 62
   256
  6
BYLAYER
 49
-0.5
 62
   256
  6
BYLAYER
  0
ACDBPLACEHOLDER
  5
F
102
{ACAD_REACTORS
330
E
102
}
330
E
  0
SCALE
  5
48
102
{ACAD_REACTORS
330
47
102
}
330
47
100
AcDbScale
 70
     0
300
1:1
140
1.0
141
1.0
290
     1
  0
SCALE
  5
49
102
{ACAD_REACTORS
330
47
102
}
330
47
100
AcDbScale
 70
     0
300
1:2
140
1.0
141
2.0
290
     0
  0
SCALE
  5
4A
102
{ACAD_REACTORS
330
47
102
}
330
47
100
AcDbScale
 70
     0
300
1:4
140
1.0
141
4.0
290
     0
  0
SCALE
  5
4B
102
{ACAD_REACTORS
330
47
102
}
330
47
100
AcDbScale
 70
     0
300
1:5
140
1.0
141
5.0
290
     0
  0
SCALE
  5
4C
102
{ACAD_REACTORS
330
47
102
}
330
47
100
AcDbScale
 70
     0
300
1:8
140
1.0
141
8.0
290
     0
  0
SCALE
  5
4D
102
{ACAD_REACTORS
330
47
102
}
330
47
100
AcDbScale
 70
     0
300
1:10
140
1.0
141
10.0
290
     0
  0
SCALE
  5
4E
102
{ACAD_REACTORS
330
47
102
}
330
47
100
AcDbScale
 70
     0
300
1:16
140
1.0
141
16.0
290
     0
  0
SCALE
  5
4F
102
{ACAD_REACTORS
330
47
102
}
330
47
100
AcDbScale
 70
     0
300
1:20
140
1.0
141
20.0
290
     0
  0
SCALE
  5
50
102
{ACAD_REACTORS
330
47
102
}
330
47
100
AcDbScale
 70
     0
300
1:30
140
1.0
141
30.0
290
     0
  0
SCALE
  5
51
102
{ACAD_REACTORS
330
47
102
}
330
47
100
AcDbScale
 70
     0
300
1:40
140
1.0
141
40.0
290
     0
  0
SCALE
  5
52
102
{ACAD_REACTORS
330
47
102
}
330
47
100
AcDbScale
 70
     0
300
1:50
140
1.0
141
50.0
290
     0
  0
SCALE
  5
53
102
{ACAD_REACTORS
330
47
102
}
330
47
100
AcDbScale
 70
     0
300
1:100
140
1.0
141
100.0
290
     0
  0
SCALE
  5
54
102
{ACAD_REACTORS
330
47
102
}
330
47
100
AcDbScale
 70
     0
300
2:1
140
2.0
141
1.0
290
     0
  0
SCALE
  5
55
102
{ACAD_REACTORS
330
47
102
}
330
47
100
AcDbScale
 70
     0
300
4:1
140
4.0
141
1.0
290
     0
  0
SCALE
  5
56
102
{ACAD_REACTORS
330
47
102
}
330
47
100
AcDbScale
 70
     0
300
8:1
140
8.0
141
1.0
290
     0
  0
SCALE
  5
57
102
{ACAD_REACTORS
330
47
102
}
330
47
100
AcDbScale
 70
     0
300
10:1
140
10.0
141
1.0
290
     0
  0
SCALE
  5
58
102
{ACAD_REACTORS
330
47
102
}
330
47
100
AcDbScale
 70
     0
300
100:1
140
100.0
141
1.0
290
     0
  0
ENDSEC
  0
EOF
