  0
SECTION
  2
HEADER
  9
$ACADVER
  1
AC1015
  9
$ACADMAINTVER
 70
     6
  9
$DWGCODEPAGE
  3
ANSI_1252
  9
$INSBASE
 10
0.0
 20
0.0
 30
0.0
  9
$EXTMIN
 10
-175.0623123168
 20
-95.5919562935
 30
0.0
  9
$EXTMAX
 10
175.0610115216
 20
180.6861836474
 30
0.0
  9
$LIMMIN
 10
0.0
 20
0.0
  9
$LIMMAX
 10
420.0
 20
297.0
  9
$ORTHOMODE
 70
     0
  9
$REGENMODE
 70
     1
  9
$FILLMODE
 70
     1
  9
$QTEXTMODE
 70
     0
  9
$MIRRTEXT
 70
     1
  9
$LTSCALE
 40
1.0
  9
$ATTMODE
 70
     1
  9
$TEXTSIZE
 40
3.5
  9
$TRACEWID
 40
1.0
  9
$TEXTSTYLE
  7
Standard
  9
$CLAYER
  8
0
  9
$CELTYPE
  6
ByLayer
  9
$CECOLOR
 62
   256
  9
$CELTSCALE
 40
1.0
  9
$DISPSILH
 70
     0
  9
$DIMSCALE
 40
1.0
  9
$DIMASZ
 40
3.556
  9
$DIMEXO
 40
0.0
  9
$DIMDLI
 40
3.75
  9
$DIMRND
 40
0.0
  9
$DIMDLE
 40
0.0
  9
$DIMEXE
 40
1.0
  9
$DIMTP
 40
0.0
  9
$DIMTM
 40
0.0
  9
$DIMTXT
 40
3.5
  9
$DIMCEN
 40
2.5
  9
$DIMTSZ
 40
0.0
  9
$DIMTOL
 70
     0
  9
$DIMLIM
 70
     0
  9
$DIMTIH
 70
     1
  9
$DIMTOH
 70
     1
  9
$DIMSE1
 70
     0
  9
$DIMSE2
 70
     0
  9
$DIMTAD
 70
     1
  9
$DIMZIN
 70
     1
  9
$DIMBLK
  1

  9
$DIMASO
 70
     1
  9
$DIMSHO
 70
     1
  9
$DIMPOST
  1

  9
$DIMAPOST
  1

  9
$DIMALT
 70
     0
  9
$DIMALTD
 70
     3
  9
$DIMALTF
 40
0.0393700787
  9
$DIMLFAC
 40
1.0
  9
$DIMTOFL
 70
     1
  9
$DIMTVP
 40
0.0
  9
$DIMTIX
 70
     0
  9
$DIMSOXD
 70
     0
  9
$DIMSAH
 70
     0
  9
$DIMBLK1
  1

  9
$DIMBLK2
  1

  9
$DIMSTYLE
  2
ISO-25
  9
$DIMCLRD
 70
     0
  9
$DIMCLRE
 70
     0
  9
$DIMCLRT
 70
     0
  9
$DIMTFAC
 40
1.0
  9
$DIMGAP
 40
1.524
  9
$DIMJUST
 70
     0
  9
$DIMSD1
 70
     0
  9
$DIMSD2
 70
     0
  9
$DIMTOLJ
 70
     0
  9
$DIMTZIN
 70
     1
  9
$DIMALTZ
 70
     0
  9
$DIMALTTZ
 70
     0
  9
$DIMUPT
 70
     0
  9
$DIMDEC
 70
     2
  9
$DIMTDEC
 70
     2
  9
$DIMALTU
 70
     2
  9
$DIMALTTD
 70
     3
  9
$DIMTXSTY
  7
Standard
  9
$DIMAUNIT
 70
     0
  9
$DIMADEC
 70
     2
  9
$DIMALTRND
 40
0.0
  9
$DIMAZIN
 70
     0
  9
$DIMDSEP
 70
    44
  9
$DIMATFIT
 70
     3
  9
$DIMFRAC
 70
     0
  9
$DIMLDRBLK
  1

  9
$DIMLUNIT
 70
     2
  9
$DIMLWD
 70
    -2
  9
$DIMLWE
 70
    -2
  9
$DIMTMOVE
 70
     0
  9
$LUNITS
 70
     2
  9
$LUPREC
 70
     2
  9
$SKETCHINC
 40
1.0
  9
$FILLETRAD
 40
0.0
  9
$AUNITS
 70
     0
  9
$AUPREC
 70
     2
  9
$MENU
  1
.
  9
$ELEVATION
 40
0.0
  9
$PELEVATION
 40
0.0
  9
$THICKNESS
 40
0.0
  9
$LIMCHECK
 70
     0
  9
$CHAMFERA
 40
0.0
  9
$CHAMFERB
 40
0.0
  9
$CHAMFERC
 40
0.0
  9
$CHAMFERD
 40
0.0
  9
$SKPOLY
 70
     0
  9
$TDCREATE
 40
2460516.753353796
  9
$TDUCREATE
 40
2460517.003353796
  9
$TDUPDATE
 40
2460516.75338287
  9
$TDUUPDATE
 40
2460517.00338287
  9
$TDINDWG
 40
0.0000000116
  9
$TDUSRTIMER
 40
0.0000000116
  9
$USRTIMER
 70
     1
  9
$ANGBASE
 50
0.0
  9
$ANGDIR
 70
     0
  9
$PDMODE
 70
     0
  9
$PDSIZE
 40
-1.0
  9
$PLINEWID
 40
0.0
  9
$SPLFRAME
 70
     0
  9
$SPLINETYPE
 70
     6
  9
$SPLINESEGS
 70
     8
  9
$HANDSEED
  5
A6
  9
$SURFTAB1
 70
     6
  9
$SURFTAB2
 70
     6
  9
$SURFTYPE
 70
     6
  9
$SURFU
 70
     6
  9
$SURFV
 70
     6
  9
$UCSBASE
  2

  9
$UCSNAME
  2

  9
$UCSORG
 10
0.0
 20
0.0
 30
0.0
  9
$UCSXDIR
 10
1.0
 20
0.0
 30
0.0
  9
$UCSYDIR
 10
0.0
 20
1.0
 30
0.0
  9
$UCSORTHOREF
  2

  9
$UCSORTHOVIEW
 70
     0
  9
$UCSORGTOP
 10
0.0
 20
0.0
 30
0.0
  9
$UCSORGBOTTOM
 10
0.0
 20
0.0
 30
0.0
  9
$UCSORGLEFT
 10
0.0
 20
0.0
 30
0.0
  9
$UCSORGRIGHT
 10
0.0
 20
0.0
 30
0.0
  9
$UCSORGFRONT
 10
0.0
 20
0.0
 30
0.0
  9
$UCSORGBACK
 10
0.0
 20
0.0
 30
0.0
  9
$PUCSBASE
  2

  9
$PUCSNAME
  2

  9
$PUCSORG
 10
0.0
 20
0.0
 30
0.0
  9
$PUCSXDIR
 10
1.0
 20
0.0
 30
0.0
  9
$PUCSYDIR
 10
0.0
 20
1.0
 30
0.0
  9
$PUCSORTHOREF
  2

  9
$PUCSORTHOVIEW
 70
     0
  9
$PUCSORGTOP
 10
0.0
 20
0.0
 30
0.0
  9
$PUCSORGBOTTOM
 10
0.0
 20
0.0
 30
0.0
  9
$PUCSORGLEFT
 10
0.0
 20
0.0
 30
0.0
  9
$PUCSORGRIGHT
 10
0.0
 20
0.0
 30
0.0
  9
$PUCSORGFRONT
 10
0.0
 20
0.0
 30
0.0
  9
$PUCSORGBACK
 10
0.0
 20
0.0
 30
0.0
  9
$USERI1
 70
     0
  9
$USERI2
 70
     0
  9
$USERI3
 70
     0
  9
$USERI4
 70
     0
  9
$USERI5
 70
     0
  9
$USERR1
 40
0.0
  9
$USERR2
 40
0.0
  9
$USERR3
 40
0.0
  9
$USERR4
 40
0.0
  9
$USERR5
 40
0.0
  9
$WORLDVIEW
 70
     1
  9
$SHADEDGE
 70
     3
  9
$SHADEDIF
 70
    70
  9
$TILEMODE
 70
     1
  9
$MAXACTVP
 70
    64
  9
$PINSBASE
 10
0.0
 20
0.0
 30
0.0
  9
$PLIMCHECK
 70
     0
  9
$PEXTMIN
 10
1.0000000000E+20
 20
1.0000000000E+20
 30
1.0000000000E+20
  9
$PEXTMAX
 10
-1.0000000000E+20
 20
-1.0000000000E+20
 30
-1.0000000000E+20
  9
$PLIMMIN
 10
0.0
 20
0.0
  9
$PLIMMAX
 10
420.0
 20
297.0
  9
$UNITMODE
 70
     0
  9
$VISRETAIN
 70
     1
  9
$PLINEGEN
 70
     0
  9
$PSLTSCALE
 70
     1
  9
$TREEDEPTH
 70
  3020
  9
$CMLSTYLE
  2
Standard
  9
$CMLJUST
 70
     0
  9
$CMLSCALE
 40
20.0
  9
$PROXYGRAPHICS
 70
     1
  9
$MEASUREMENT
 70
     1
  9
$CELWEIGHT
370
    -1
  9
$ENDCAPS
280
     0
  9
$JOINSTYLE
280
     0
  9
$LWDISPLAY
290
     1
  9
$INSUNITS
 70
     4
  9
$HYPERLINKBASE
  1

  9
$STYLESHEET
  1

  9
$XEDIT
290
     1
  9
$CEPSNTYPE
380
     0
  9
$PSTYLEMODE
290
     1
  9
$FINGERPRINTGUID
  2
{9610143c-503f-4d1d-9030-6b16d78c0d1f}
  9
$VERSIONGUID
  2
{FAEB1C32-E019-11D5-929B-00C0DF256EC4}
  9
$EXTNAMES
290
     1
  9
$PSVPSCALE
 40
0.0
  9
$OLESTARTUP
290
     0
  0
ENDSEC
  0
SECTION
  2
CLASSES
  0
CLASS
  1
ACDBDICTIONARYWDFLT
  2
AcDbDictionaryWithDefault
  3
ObjectDBX Classes
 90
        0
280
     0
281
     0
  0
CLASS
  1
VISUALSTYLE
  2
AcDbVisualStyle
  3
ObjectDBX Classes
 90
     4095
280
     0
281
     0
  0
CLASS
  1
MATERIAL
  2
AcDbMaterial
  3
ObjectDBX Classes
 90
     1153
280
     0
281
     0
  0
CLASS
  1
SCALE
  2
AcDbScale
  3
ObjectDBX Classes
 90
     1153
280
     0
281
     0
  0
CLASS
  1
TABLESTYLE
  2
AcDbTableStyle
  3
ObjectDBX Classes
 90
     4095
280
     0
281
     0
  0
CLASS
  1
MLEADERSTYLE
  2
AcDbMLeaderStyle
  3
ACDB_MLEADERSTYLE_CLASS
 90
     4095
280
     0
281
     0
  0
CLASS
  1
SUN
  2
AcDbSun
  3
SCENEOE
 90
     1153
280
     0
281
     0
  0
CLASS
  1
ACDBPLACEHOLDER
  2
AcDbPlaceHolder
  3
ObjectDBX Classes
 90
        0
280
     0
281
     0
  0
CLASS
  1
LAYOUT
  2
AcDbLayout
  3
ObjectDBX Classes
 90
        0
280
     0
281
     0
  0
ENDSEC
  0
SECTION
  2
TABLES
  0
TABLE
  2
VPORT
  5
8
330
0
100
AcDbSymbolTable
 70
     1
  0
VPORT
  5
29
330
8
100
AcDbSymbolTableRecord
100
AcDbViewportTableRecord
  2
*Active
 70
     0
 10
0.0
 20
0.0
 11
1.0
 21
1.0
 12
-0.0006503976
 22
42.547113677
 13
0.0
 23
0.0
 14
10.0
 24
10.0
 15
10.0
 25
10.0
 16
0.0
 26
0.0
 36
1.0
 17
0.0
 27
0.0
 37
0.0
 40
281.8037027398
 41
1.2672856561
 42
50.0
 43
0.0
 44
0.0
 50
0.0
 51
0.0
 71
     0
 72
   100
 73
     1
 74
     3
 75
     0
 76
     0
 77
     0
 78
     0
281
     0
 65
     1
110
0.0
120
0.0
130
0.0
111
1.0
121
0.0
131
0.0
112
0.0
122
1.0
132
0.0
 79
     0
146
0.0
  0
ENDTAB
  0
TABLE
  2
LTYPE
  5
5
330
0
100
AcDbSymbolTable
 70
     6
  0
LTYPE
  5
14
330
5
100
AcDbSymbolTableRecord
100
AcDbLinetypeTableRecord
  2
ByBlock
 70
     0
  3

 72
    65
 73
     0
 40
0.0
  0
LTYPE
  5
15
330
5
100
AcDbSymbolTableRecord
100
AcDbLinetypeTableRecord
  2
ByLayer
 70
     0
  3

 72
    65
 73
     0
 40
0.0
  0
LTYPE
  5
16
330
5
100
AcDbSymbolTableRecord
100
AcDbLinetypeTableRecord
  2
Continuous
 70
     0
  3
Solid line
 72
    65
 73
     0
 40
0.0
  0
LTYPE
  5
5E
330
5
100
AcDbSymbolTableRecord
100
AcDbLinetypeTableRecord
  2
HIDDEN
 70
     0
  3
Hidden __ __ __ __ __ __ __ __ __ __ __ __ __ __
 72
    65
 73
     2
 40
1.905
 49
1.27
 74
     0
 49
-0.635
 74
     0
  0
LTYPE
  5
5F
330
5
100
AcDbSymbolTableRecord
100
AcDbLinetypeTableRecord
  2
PHANTOM
 70
     0
  3
Phantom ______  __  __  ______  __  __  ______
 72
    65
 73
     6
 40
12.7
 49
6.35
 74
     0
 49
-1.27
 74
     0
 49
1.27
 74
     0
 49
-1.27
 74
     0
 49
1.27
 74
     0
 49
-1.27
 74
     0
  0
LTYPE
  5
60
330
5
100
AcDbSymbolTableRecord
100
AcDbLinetypeTableRecord
  2
CENTER
 70
     0
  3
Center ____ _ ____ _ ____ _ ____ _ ____ _ ____
 72
    65
 73
     4
 40
10.16
 49
6.35
 74
     0
 49
-1.27
 74
     0
 49
1.27
 74
     0
 49
-1.27
 74
     0
  0
LTYPE
  5
61
330
5
100
AcDbSymbolTableRecord
100
AcDbLinetypeTableRecord
  2
CENTERX2
 70
     0
  3
Center (2x) ________  __  ________  __  _____
 72
    65
 73
     4
 40
20.32
 49
12.7
 74
     0
 49
-2.54
 74
     0
 49
2.54
 74
     0
 49
-2.54
 74
     0
  0
LTYPE
  5
62
330
5
100
AcDbSymbolTableRecord
100
AcDbLinetypeTableRecord
  2
DOT2
 70
     0
  3
Dot (.5x) ........................................
 72
    65
 73
     2
 40
0.635
 49
0.0
 74
     0
 49
-0.635
 74
     0
  0
ENDTAB
  0
TABLE
  2
LAYER
  5
2
330
0
100
AcDbSymbolTable
 70
     1
  0
LAYER
  5
10
330
2
100
AcDbSymbolTableRecord
100
AcDbLayerTableRecord
  2
0
 70
     0
 62
     7
  6
Continuous
370
    -3
390
F
  0
ENDTAB
  0
TABLE
  2
STYLE
  5
3
330
0
100
AcDbSymbolTable
 70
     1
  0
STYLE
  5
11
330
3
100
AcDbSymbolTableRecord
100
AcDbTextStyleTableRecord
  2
Standard
 70
     0
 40
0.0
 41
1.0
 50
0.0
 71
     0
 42
3.5
  3
txt
  4

  0
ENDTAB
  0
TABLE
  2
VIEW
  5
6
330
0
100
AcDbSymbolTable
 70
     0
  0
ENDTAB
  0
TABLE
  2
UCS
  5
7
330
0
100
AcDbSymbolTable
 70
     0
  0
ENDTAB
  0
TABLE
  2
APPID
  5
9
330
0
100
AcDbSymbolTable
 70
     1
  0
APPID
  5
12
330
9
100
AcDbSymbolTableRecord
100
AcDbRegAppTableRecord
  2
ACAD
 70
     0
  0
ENDTAB
  0
TABLE
  2
DIMSTYLE
  5
A
330
0
100
AcDbSymbolTable
 70
     1
100
AcDbDimStyleTable
  0
DIMSTYLE
105
27
330
A
100
AcDbSymbolTableRecord
100
AcDbDimStyleTableRecord
  2
ISO-25
 70
     0
 41
2.5
 42
0.625
 43
3.75
 44
1.25
 73
     0
 74
     0
 77
     1
 78
     8
140
2.5
141
2.5
143
0.0393700787
147
0.625
171
     3
172
     1
178
     0
271
     2
272
     2
274
     3
278
    44
283
     0
284
     8
340
11
  0
ENDTAB
  0
TABLE
  2
BLOCK_RECORD
  5
1
330
0
100
AcDbSymbolTable
 70
     1
  0
BLOCK_RECORD
  5
1F
330
1
100
AcDbSymbolTableRecord
100
AcDbBlockTableRecord
  2
*Model_Space
340
22
  0
BLOCK_RECORD
  5
1B
330
1
100
AcDbSymbolTableRecord
100
AcDbBlockTableRecord
  2
*Paper_Space
340
1E
  0
BLOCK_RECORD
  5
23
330
1
100
AcDbSymbolTableRecord
100
AcDbBlockTableRecord
  2
*Paper_Space0
340
26
  0
ENDTAB
  0
ENDSEC
  0
SECTION
  2
BLOCKS
  0
BLOCK
  5
20
330
1F
100
AcDbEntity
  8
0
100
AcDbBlockBegin
  2
*Model_Space
 70
     0
 10
0.0
 20
0.0
 30
0.0
  3
*Model_Space
  1

  0
ENDBLK
  5
21
330
1F
100
AcDbEntity
  8
0
100
AcDbBlockEnd
  0
BLOCK
  5
1C
330
1B
100
AcDbEntity
 67
     1
  8
0
100
AcDbBlockBegin
  2
*Paper_Space
 70
     0
 10
0.0
 20
0.0
 30
0.0
  3
*Paper_Space
  1

  0
ENDBLK
  5
1D
330
1B
100
AcDbEntity
 67
     1
  8
0
100
AcDbBlockEnd
  0
BLOCK
  5
24
330
23
100
AcDbEntity
  8
0
100
AcDbBlockBegin
  2
*Paper_Space0
 70
     0
 10
0.0
 20
0.0
 30
0.0
  3
*Paper_Space0
  1

  0
ENDBLK
  5
25
330
23
100
AcDbEntity
  8
0
100
AcDbBlockEnd
  0
ENDSEC
  0
SECTION
  2
ENTITIES
  0
SPLINE
  5
63
330
1F
100
AcDbEntity
  8
0
  6
Continuous
 62
     7
370
    25
100
AcDbSpline
210
0.0
220
0.0
230
1.0
 70
     8
 71
     3
 72
    55
 73
    51
 74
     0
 42
0.00000001
 43
0.00000001
 40
0.0
 40
0.0
 40
0.0
 40
0.0
 40
0.0147425556168947
 40
0.0381795794301516
 40
0.0615913073179991
 40
0.0849342941333107
 40
0.1081706984963795
 40
0.1312659383399772
 40
0.1541896047511531
 40
0.176916199351586
 40
0.1994256825846175
 40
0.2217097675873572
 40
0.2438833337730242
 40
0.266269736576287
 40
0.288771377901585
 40
0.3113737489750655
 40
0.3340591337451179
 40
0.3568073806186978
 40
0.3795964297194127
 40
0.4024029081891744
 40
0.4251956944436924
 40
0.4479498327268293
 40
0.4706442428728961
 40
0.4933188496822931
 40
0.5161098752578964
 40
0.5389656142321092
 40
0.5618649046509381
 40
0.5847858582191876
 40
0.607701715990222
 40
0.630588935281244
 40
0.6534279179574595
 40
0.6762011165986148
 40
0.6988935666068511
 40
0.7214937404538176
 40
0.7439462304632102
 40
0.766436056322566
 40
0.7888553744511541
 40
0.8112756136041469
 40
0.8337517219555818
 40
0.856382070108883
 40
0.8799195127428435
 40
0.900608854459787
 40
0.9224777844359321
 40
0.9432623232021368
 40
0.9631028067306514
 40
0.9728013208361102
 40
0.9792969116270639
 40
0.985467741205105
 40
0.996913769002358
 40
0.9999999999999999
 40
0.9999999999999999
 40
0.9999999999999999
 40
0.9999999999999999
 10
114.9407150662412
 20
14.10414522604649
 30
0.0
 10
113.8634398766204
 20
13.48371749404677
 30
0.0
 10
111.0735630914095
 20
11.87696283833387
 30
0.0
 10
106.3232542430996
 20
9.425064939327877
 30
0.0
 10
100.7353360066782
 20
6.743446609874263
 30
0.0
 10
94.95498580975666
 20
4.212051877621498
 30
0.0
 10
89.01487435047423
 20
1.83378598413407
 30
0.0
 10
82.93259136142684
 20
-0.3815599666244646
 30
0.0
 10
76.7296088599183
 20
-2.427575112763467
 30
0.0
 10
70.42578754163739
 20
-4.298387614827718
 30
0.0
 10
64.04022403890907
 20
-5.989917103896166
 30
0.0
 10
57.57796135276523
 20
-7.500710564841362
 30
0.0
 10
51.01496006971561
 20
-8.843181975506681
 30
0.0
 10
44.33187621099811
 20
-10.02242285232982
 30
0.0
 10
37.52013809632007
 20
-11.03823626243806
 30
0.0
 10
30.60565221926574
 20
-11.88514666669445
 30
0.0
 10
23.60690035791944
 20
-12.55964504122127
 30
0.0
 10
16.54342629316386
 20
-13.05877471234314
 30
0.0
 10
9.43560894187163
 20
-13.38020365469535
 30
0.0
 10
2.305179901666421
 20
-13.52228877225868
 30
0.0
 10
-4.82564790574947
 20
-13.48415862702237
 30
0.0
 10
-11.93484221841236
 20
-13.26597140256501
 30
0.0
 10
-19.00757782850775
 20
-12.86762040456568
 30
0.0
 10
-26.04613912484701
 20
-12.29050025852051
 30
0.0
 10
-33.04985189206266
 20
-11.53552246818018
 30
0.0
 10
-40.01127302013586
 20
-10.60250059106289
 30
0.0
 10
-46.90694395450991
 20
-9.493848059382678
 30
0.0
 10
-53.71617804193107
 20
-8.212402992593153
 30
0.0
 10
-60.41835976125211
 20
-6.761839562949221
 30
0.0
 10
-66.993471346584
 20
-5.146570467034511
 30
0.0
 10
-73.42283365164073
 20
-3.371558776339226
 30
0.0
 10
-79.68889207253972
 20
-1.442172519026494
 30
0.0
 10
-85.77573480272989
 20
0.6355798362610854
 30
0.0
 10
-91.66301223649877
 20
2.854658184661518
 30
0.0
 10
-97.3548227989248
 20
5.210964707947838
 30
0.0
 10
-102.8412565289058
 20
7.69859125866973
 30
0.0
 10
-108.1223098261057
 20
10.31869204719867
 30
0.0
 10
-113.1890963044761
 20
13.06653050892338
 30
0.0
 10
-118.0475692997381
 20
15.94345473203056
 30
0.0
 10
-122.7531912131842
 20
18.99058250940121
 30
0.0
 10
-127.1334631561363
 20
22.05292207525916
 30
0.0
 10
-131.2245491359566
 20
25.16910095532038
 30
0.0
 10
-134.8936447055156
 20
28.23399774543921
 30
0.0
 10
-138.245605284445
 20
31.35009629187891
 30
0.0
 10
-140.6629227081911
 20
33.87397424269185
 30
0.0
 10
-142.3310321033804
 20
35.78750975159261
 30
0.0
 10
-143.169223517402
 20
36.82855549349988
 30
0.0
 10
-143.9386424313824
 20
37.96097963476856
 30
0.0
 10
-144.5147311579684
 20
38.93261682965731
 30
0.0
 10
-144.7646941287776
 20
39.60350591095686
 30
0.0
 10
-144.8177790262915
 20
39.74598332674672
 30
0.0
  0
SPLINE
  5
64
330
1F
100
AcDbEntity
  8
0
  6
Continuous
 62
     7
370
    25
100
AcDbSpline
210
0.0
220
0.0
230
1.0
 70
     8
 71
     3
 72
    43
 73
    39
 74
     0
 42
0.00000001
 43
0.00000001
 40
0.0
 40
0.0
 40
0.0
 40
0.0
 40
0.0222409253854208
 40
0.0484553596275295
 40
0.0758788704239172
 40
0.1042730163980109
 40
0.1326972855857828
 40
0.1612288613591407
 40
0.189237530941743
 40
0.2174913901687718
 40
0.2459296304706403
 40
0.2745138088345553
 40
0.3032018343218443
 40
0.3319491603537202
 40
0.3607071096987648
 40
0.3894176048128628
 40
0.4180369170601138
 40
0.4465244440251565
 40
0.4748438263346607
 40
0.5029627210655279
 40
0.5309259624975974
 40
0.5591833196395654
 40
0.5875221014485285
 40
0.6159326392677092
 40
0.64440291873324
 40
0.6729195125394344
 40
0.7014680978703931
 40
0.7300340049822442
 40
0.7585980636950712
 40
0.7871467685992756
 40
0.8156682150581246
 40
0.8441524423306941
 40
0.8725906760547392
 40
0.9009814731478336
 40
0.9294709764957964
 40
0.9579974695294553
 40
0.9865390337136534
 40
1.0
 40
1.0
 40
1.0
 40
1.0
 10
-112.8843454398399
 20
-68.55624943673149
 30
0.0
 10
-111.5538187769587
 20
-69.30849064576915
 30
0.0
 10
-108.6550568402728
 20
-70.94736662232637
 30
0.0
 10
-103.9062073153077
 20
-73.40352710588746
 30
0.0
 10
-98.59295509390546
 20
-75.92303054276164
 30
0.0
 10
-92.94717153627676
 20
-78.37002956714423
 30
0.0
 10
-87.04636605972925
 20
-80.69776910373042
 30
0.0
 10
-80.99845603726313
 20
-82.85835378655165
 30
0.0
 10
-74.80153324606316
 20
-84.85126152129868
 30
0.0
 10
-68.46681005621548
 20
-86.68014022350343
 30
0.0
 10
-61.95608007608679
 20
-88.35543260989506
 30
0.0
 10
-55.29165406882484
 20
-89.8700440027427
 30
0.0
 10
-48.49519733258352
 20
-91.21779882489969
 30
0.0
 10
-41.58984373743768
 20
-92.39316234974396
 30
0.0
 10
-34.60061507408471
 20
-93.3912282762949
 30
0.0
 10
-27.5530609227735
 20
-94.20808085521321
 30
0.0
 10
-20.4725608052892
 20
-94.8409065203663
 30
0.0
 10
-13.38307974436681
 20
-95.28785824317416
 30
0.0
 10
-6.307928592549211
 20
-95.54842343115708
 30
0.0
 10
0.7365255964514432
 20
-95.62146724816162
 30
0.0
 10
7.774248188231148
 20
-95.51134814403264
 30
0.0
 10
14.81511862896878
 20
-95.22031512083876
 30
0.0
 10
21.86400577042663
 20
-94.74577492335501
 30
0.0
 10
28.88747758155275
 20
-94.08891217841203
 30
0.0
 10
35.86873551583716
 20
-93.25049271814484
 30
0.0
 10
42.79069414167802
 20
-92.23185572875059
 30
0.0
 10
49.63618520334519
 20
-91.03484859335536
 30
0.0
 10
56.38776496914097
 20
-89.66191450430422
 30
0.0
 10
63.02829905334558
 20
-88.1160253672754
 30
0.0
 10
69.54117580457815
 20
-86.40065020488191
 30
0.0
 10
75.91076708989506
 20
-84.51952604756858
 30
0.0
 10
82.12227275056883
 20
-82.47688819824195
 30
0.0
 10
88.16149322746213
 20
-80.27657903076876
 30
0.0
 10
94.02735581943661
 20
-77.9210820844019
 30
0.0
 10
99.71548773620583
 20
-75.4129271408036
 30
0.0
 10
105.2183214272079
 20
-72.75527291914868
 30
0.0
 10
109.5833766519275
 20
-70.44101033955711
 30
0.0
 10
112.083299278613
 20
-69.0149079851634
 30
0.0
 10
112.8844742035353
 20
-68.55787086148737
 30
0.0
  0
SPLINE
  5
65
330
1F
100
AcDbEntity
  8
0
  6
Continuous
 62
     7
370
    25
100
AcDbSpline
210
0.0
220
0.0
230
1.0
 70
     8
 71
     3
 72
    25
 73
    21
 74
     0
 42
0.00000001
 43
0.00000001
 40
0.0
 40
0.0
 40
0.0
 40
0.0
 40
0.0471473686615299
 40
0.1026486074122358
 40
0.1585620885087288
 40
0.2148890731173837
 40
0.2716142331236325
 40
0.3287057181109352
 40
0.3861166243887283
 40
0.4437876487932859
 40
0.5016505534762136
 40
0.55963200387754
 40
0.6176550602819457
 40
0.6756257250563413
 40
0.7334786772253444
 40
0.7911566114665146
 40
0.8486116833416812
 40
0.9058064370179989
 40
0.962597201597387
 40
1.0
 40
1.0
 40
1.0
 40
1.0
 10
174.817376597091
 20
82.4944403565904
 30
0.0
 10
174.7007473972318
 20
83.72841810585311
 30
0.0
 10
174.446823895475
 20
86.41501761576072
 30
0.0
 10
173.676633144456
 20
90.53890714136367
 30
0.0
 10
172.5848873920643
 20
94.86983452544746
 30
0.0
 10
171.1698472826279
 20
99.18945704887037
 30
0.0
 10
169.442962522579
 20
103.4882172492883
 30
0.0
 10
167.4029162702878
 20
107.7551193957978
 30
0.0
 10
165.0534115483615
 20
111.978734744368
 30
0.0
 10
162.398559034124
 20
116.1471523828231
 30
0.0
 10
159.4442231289535
 20
120.2482845933297
 30
0.0
 10
156.1976801327175
 20
124.2700525187325
 30
0.0
 10
152.6680229972464
 20
128.2002180934961
 30
0.0
 10
148.8655766863779
 20
132.0271670377967
 30
0.0
 10
144.8017867052732
 20
135.740230072905
 30
0.0
 10
140.4876480636683
 20
139.3298850578983
 30
0.0
 10
135.9367204460319
 20
142.7884159263471
 30
0.0
 10
131.1578319558695
 20
146.1035234783685
 30
0.0
 10
126.743698975757
 20
148.9230265288439
 30
0.0
 10
123.8992198592544
 20
150.6023742913525
 30
0.0
 10
122.7697214563187
 20
151.2692171606576
 30
0.0
  0
SPLINE
  5
66
330
1F
100
AcDbEntity
  8
0
  6
Continuous
 62
     7
370
    25
100
AcDbSpline
210
0.0
220
0.0
230
1.0
 70
     8
 71
     3
 72
    25
 73
    21
 74
     0
 42
0.00000001
 43
0.00000001
 40
0.0
 40
0.0
 40
0.0
 40
0.0
 40
0.0374912443089276
 40
0.0929130684462469
 40
0.1466062823101369
 40
0.2032715048718241
 40
0.2602787313882665
 40
0.3176027820671135
 40
0.3751972406444002
 40
0.4330056720242756
 40
0.4909624597464131
 40
0.5489941732078282
 40
0.6070029344343498
 40
0.6648973204742694
 40
0.722595792585922
 40
0.7800223375035454
 40
0.8371107008891697
 40
0.8938083662859374
 40
0.9500797441607256
 40
1.0
 40
1.0
 40
1.0
 40
1.0
 10
-122.7622443369986
 20
151.2681341837232
 30
0.0
 10
-123.896398616253
 20
150.5991894183173
 30
0.0
 10
-126.7071283244657
 20
148.9413700548742
 30
0.0
 10
-130.9889550026207
 20
146.2079748260461
 30
0.0
 10
-135.6277917024937
 20
143.0038333248039
 30
0.0
 10
-140.0734679236025
 20
139.6497437225644
 30
0.0
 10
-144.3669953672779
 20
136.10686894713
 30
0.0
 10
-148.4253660014169
 20
132.4333088052342
 30
0.0
 10
-152.2369626208826
 20
128.6368286554114
 30
0.0
 10
-155.7894217934258
 20
124.7261526475033
 30
0.0
 10
-159.0709129717779
 20
120.7110734820765
 30
0.0
 10
-162.0698322997732
 20
116.6027813052857
 30
0.0
 10
-164.7754555885255
 20
112.413640194173
 30
0.0
 10
-167.1783152471103
 20
108.1568348305414
 30
0.0
 10
-169.2709670037277
 20
103.8456905172
 30
0.0
 10
-171.0467127870171
 20
99.49354288787852
 30
0.0
 10
-172.5040765465871
 20
95.11388089238255
 30
0.0
 10
-173.6301130345162
 20
90.71920818089467
 30
0.0
 10
-174.4328372583203
 20
86.47769910765746
 30
0.0
 10
-174.6989508954613
 20
83.69436333901248
 30
0.0
 10
-174.8240498357805
 20
82.38592849534587
 30
0.0
  0
SPLINE
  5
67
330
1F
100
AcDbEntity
  8
0
  6
Continuous
 62
     7
370
    25
100
AcDbSpline
210
0.0
220
0.0
230
1.0
 70
     8
 71
     3
 72
    24
 73
    20
 74
     0
 42
0.00000001
 43
0.00000001
 40
0.0
 40
0.0
 40
0.0
 40
0.0
 40
0.0107201711094158
 40
0.0775681018693207
 40
0.1438942293477137
 40
0.2095830708785519
 40
0.2745863052389948
 40
0.3381960974382641
 40
0.4046941500737635
 40
0.4707534132447986
 40
0.5363172510165123
 40
0.601349334310151
 40
0.6658244019147959
 40
0.7297284103906133
 40
0.7930588393741381
 40
0.8558249585791561
 40
0.918047953591194
 40
0.979915152373635
 40
1.0
 40
1.0
 40
1.0
 40
1.0
 10
160.5495160233255
 20
68.04648276394482
 30
0.0
 10
160.5173576043842
 20
67.83474381316539
 30
0.0
 10
160.2846684531632
 20
66.30266113126324
 30
0.0
 10
159.5500719333599
 20
63.47162763385318
 30
0.0
 10
158.3294237248827
 20
59.57361459391396
 30
0.0
 10
156.7791705756622
 20
55.73660545027131
 30
0.0
 10
154.9440256136891
 20
51.98438118726208
 30
0.0
 10
152.7980658028517
 20
48.2310185848064
 30
0.0
 10
150.3558242708802
 20
44.5054862626134
 30
0.0
 10
147.5906686568692
 20
40.79423262198087
 30
0.0
 10
144.5541671499369
 20
37.17198893919483
 30
0.0
 10
141.2556524853332
 20
33.64827566287612
 30
0.0
 10
137.7052295446237
 20
30.23227961712966
 30
0.0
 10
133.9132045510603
 20
26.93210972951693
 30
0.0
 10
129.8894602478597
 20
23.75531566946215
 30
0.0
 10
125.645635198098
 20
20.70762170702853
 30
0.0
 10
121.1824682040271
 20
17.79501207308161
 30
0.0
 10
117.5654345898105
 20
15.63226903463089
 30
0.0
 10
115.4177942779267
 20
14.43924738147015
 30
0.0
 10
114.8914495396238
 20
14.14686105106472
 30
0.0
  0
SPLINE
  5
68
330
1F
100
AcDbEntity
  8
0
  6
Continuous
 62
     7
370
    25
100
AcDbSpline
210
0.0
220
0.0
230
1.0
 70
     8
 71
     3
 72
    35
 73
    31
 74
     0
 42
0.00000001
 43
0.00000001
 40
0.0
 40
0.0
 40
0.0
 40
0.0
 40
0.0324787779108412
 40
0.0586151546747643
 40
0.0787181513849064
 40
0.0970125121096918
 40
0.1167250173773303
 40
0.1378395360516448
 40
0.1598672949982939
 40
0.1827230710536728
 40
0.2160445800050803
 40
0.2404361400216489
 40
0.2670348842825421
 40
0.2994766791775745
 40
0.3549828091298448
 40
0.4084553294485703
 40
0.4527524164941824
 40
0.5047758191183326
 40
0.5488505896560764
 40
0.5987611292153194
 40
0.6508878223252883
 40
0.7022375585825359
 40
0.7642347969135198
 40
0.7965488145798281
 40
0.8217959264025267
 40
0.8425735988856067
 40
0.8687059783334542
 40
0.9017047977592176
 40
0.9453649685936655
 40
1.0
 40
1.0
 40
1.0
 40
1.0
 10
154.8912549167261
 20
-26.48704092288615
 30
0.0
 10
155.3887849315882
 20
-25.41745040433615
 30
0.0
 10
156.2866881364602
 20
-23.48713720549677
 30
0.0
 10
157.4659370259441
 20
-20.83913575957417
 30
0.0
 10
158.3661719698363
 20
-18.66422753391863
 30
0.0
 10
159.1320847118045
 20
-16.73560210498673
 30
0.0
 10
159.8954407981163
 20
-14.7248529651886
 30
0.0
 10
160.6766079545329
 20
-12.56868891252331
 30
0.0
 10
161.4667639715233
 20
-10.27953968586184
 30
0.0
 10
162.3629040077627
 20
-7.552742707444576
 30
0.0
 10
163.2359673341624
 20
-4.733134451197183
 30
0.0
 10
164.1001477171874
 20
-1.774622992536681
 30
0.0
 10
164.9064803522089
 20
1.127773629788796
 30
0.0
 10
165.9557819388227
 20
5.123928477413109
 30
0.0
 10
167.1445165561248
 20
10.04696507065967
 30
0.0
 10
168.3021758878412
 20
15.33836269375392
 30
0.0
 10
169.3339772274251
 20
20.48816205094154
 30
0.0
 10
170.2172948113762
 20
25.30529325295922
 30
0.0
 10
171.0558650049751
 20
30.31546553429106
 30
0.0
 10
171.8194063953404
 20
35.33429991477752
 30
0.0
 10
172.5366708778721
 20
40.61178842057296
 30
0.0
 10
173.2205477782396
 20
46.32753110650498
 30
0.0
 10
173.7336127598475
 20
51.37378089619705
 30
0.0
 10
174.0919981952336
 20
55.53107009815076
 30
0.0
 10
174.3013438031642
 20
58.26707647006921
 30
0.0
 10
174.4753242934317
 20
60.80676376194577
 30
0.0
 10
174.6450123975766
 20
63.62363933873957
 30
0.0
 10
174.8231769367705
 20
67.2542942080187
 30
0.0
 10
174.9914733983814
 20
71.93290319148615
 30
0.0
 10
175.0238612531865
 20
75.45436599012466
 30
0.0
 10
175.0418632657377
 20
77.41168665495799
 30
0.0
  0
SPLINE
  5
69
330
1F
100
AcDbEntity
  8
0
  6
Continuous
 62
     7
370
    25
100
AcDbSpline
210
0.0
220
0.0
230
1.0
 70
     8
 71
     3
 72
    35
 73
    31
 74
     0
 42
0.00000001
 43
0.00000001
 40
0.0
 40
0.0
 40
0.0
 40
0.0
 40
0.0545284574095528
 40
0.0981309615612647
 40
0.1311050455908158
 40
0.1572289697761411
 40
0.1779716752426454
 40
0.2122786503004021
 40
0.2578317159392937
 40
0.3017789168628715
 40
0.3358610745890366
 40
0.3682920049265065
 40
0.4032114671596763
 40
0.4372440160230807
 40
0.4651263773668786
 40
0.4952328404105111
 40
0.534432119598684
 40
0.5661086160394989
 40
0.6010291072179563
 40
0.640063579524313
 40
0.6801816957878396
 40
0.7218821370381915
 40
0.7584064146694948
 40
0.7924340171850257
 40
0.8393690470141056
 40
0.884498258782675
 40
0.9085176770601978
 40
0.93119366435515
 40
0.9608383077326182
 40
1.0
 40
1.0
 40
1.0
 40
1.0
 10
-175.0359694323016
 20
77.41168665495542
 30
0.0
 10
-175.0180294575834
 20
75.45824802937987
 30
0.0
 10
-174.9857441692564
 20
71.94278436535437
 30
0.0
 10
-174.8179605476694
 20
67.27097595678889
 30
0.0
 10
-174.6401967704861
 20
63.64352393397971
 30
0.0
 10
-174.4708587701423
 20
60.82910464139284
 30
0.0
 10
-174.2753633037674
 20
57.97217696023368
 30
0.0
 10
-174.0015819641974
 20
54.46278818978341
 30
0.0
 10
-173.6091057690735
 20
50.1655702191081
 30
0.0
 10
-173.1563437626793
 20
45.88599600783014
 30
0.0
 10
-172.705396738575
 20
42.06987958710296
 30
0.0
 10
-172.2556767639609
 20
38.57411592228912
 30
0.0
 10
-171.7702212753382
 20
35.08784205480158
 30
0.0
 10
-171.2702053074268
 20
31.75960477652703
 30
0.0
 10
-170.7645607138903
 20
28.60380000633021
 30
0.0
 10
-170.1983793120843
 20
25.26695126372819
 30
0.0
 10
-169.569819001411
 20
21.79920092660369
 30
0.0
 10
-168.8678805561511
 20
18.17248055554859
 30
0.0
 10
-168.1192985598094
 20
14.53163549621731
 30
0.0
 10
-167.2530140847916
 20
10.59106700702177
 30
0.0
 10
-166.2642069855897
 20
6.403329331038429
 30
0.0
 10
-165.2096203070464
 20
2.263493557673225
 30
0.0
 10
-164.1392154199972
 20
-1.636721767936826
 30
0.0
 10
-162.9260952545208
 20
-5.761978512534592
 30
0.0
 10
-161.5183737378334
 20
-10.16953747151692
 30
0.0
 10
-160.1007384950123
 20
-14.18491873596628
 30
0.0
 10
-158.9092470922535
 20
-17.29699931144862
 30
0.0
 10
-157.8904963995636
 20
-19.82284772407571
 30
0.0
 10
-156.5446317524807
 20
-22.93425503557734
 30
0.0
 10
-155.4872028080736
 20
-25.19839356911702
 30
0.0
 10
-154.8853584208178
 20
-26.48704665128183
 30
0.0
  0
SPLINE
  5
6A
330
1F
100
AcDbEntity
  8
0
  6
Continuous
 62
     7
370
    25
100
AcDbSpline
210
0.0
220
0.0
230
1.0
 70
     8
 71
     3
 72
    16
 73
    12
 74
     0
 42
0.00000001
 43
0.00000001
 40
0.0
 40
0.0
 40
0.0
 40
0.0
 40
0.1003369549266557
 40
0.2131893415302953
 40
0.3292220486767639
 40
0.4510369467222073
 40
0.5728938584077558
 40
0.6951472330153368
 40
0.8153924042198222
 40
0.9361625318909316
 40
1.0
 40
1.0
 40
1.0
 40
1.0
 10
112.9018376196427
 20
-68.54871895748497
 30
0.0
 10
114.2747398647215
 20
-67.73960946519165
 30
0.0
 10
117.1917919700773
 20
-66.02046700153988
 30
0.0
 10
121.5046517796489
 20
-63.23028503435957
 30
0.0
 10
125.8726586315499
 20
-60.15171837016194
 30
0.0
 10
130.1199146585269
 20
-56.87785771590134
 30
0.0
 10
134.1833634385641
 20
-53.43581119636799
 30
0.0
 10
137.9703343059257
 20
-49.89796263689897
 30
0.0
 10
141.453407129828
 20
-46.265245442016
 30
0.0
 10
144.1893341289767
 20
-43.15167596551854
 30
0.0
 10
145.6596791505138
 20
-41.21069406774392
 30
0.0
 10
146.1681257451679
 20
-40.53950082959022
 30
0.0
  0
SPLINE
  5
6B
330
1F
100
AcDbEntity
  8
0
  6
Continuous
 62
     7
370
    25
100
AcDbSpline
210
0.0
220
0.0
230
1.0
 70
     8
 71
     3
 72
     9
 73
     5
 74
     0
 42
0.00000001
 43
0.00000001
 40
0.0
 40
0.0
 40
0.0
 40
0.0
 40
0.2017046094598455
 40
1.0
 40
1.0
 40
1.0
 40
1.0
 10
147.1166683467414
 20
-39.30944889052709
 30
0.0
 10
147.2679974789206
 20
-39.11552990471604
 30
0.0
 10
148.0182487130612
 20
-38.15412904069835
 30
0.0
 10
148.6595541216739
 20
-37.16280696601554
 30
0.0
 10
149.171505273298
 20
-36.37143912325558
 30
0.0
  0
SPLINE
  5
6C
330
1F
100
AcDbEntity
  8
0
  6
Continuous
 62
     7
370
    25
100
AcDbSpline
210
0.0
220
0.0
230
1.0
 70
     8
 71
     3
 72
    17
 73
    13
 74
     0
 42
0.00000001
 43
0.00000001
 40
0.0
 40
0.0
 40
0.0
 40
0.0
 40
0.0450348230842649
 40
0.1530053116192898
 40
0.2610473964178701
 40
0.369066744577176
 40
0.4770020896426698
 40
0.5847587228728863
 40
0.6930749047325275
 40
0.8014682957326368
 40
0.9096625782243655
 40
1.0
 40
1.0
 40
1.0
 40
1.0
 10
-149.116099981953
 20
-36.50780436266177
 30
0.0
 10
-148.756262616484
 20
-37.05359130037053
 30
0.0
 10
-147.533719160882
 20
-38.90789636393458
 30
0.0
 10
-145.1405491678758
 20
-41.98959967499609
 30
0.0
 10
-141.950718816594
 20
-45.74548577686735
 30
0.0
 10
-138.4639858483379
 20
-49.40280717076546
 30
0.0
 10
-134.7115119684694
 20
-52.95807191106734
 30
0.0
 10
-130.6897139363001
 20
-56.40865397503845
 30
0.0
 10
-126.4070114603216
 20
-59.75258424497277
 30
0.0
 10
-121.874078385082
 20
-62.98179198780204
 30
0.0
 10
-117.3533188499455
 20
-65.91954043745451
 30
0.0
 10
-114.2954764653243
 20
-67.72713763421207
 30
0.0
 10
-112.9040735242055
 20
-68.54964440191722
 30
0.0
  0
SPLINE
  5
6D
330
1F
100
AcDbEntity
  8
0
  6
Continuous
 62
     7
370
    25
100
AcDbSpline
210
0.0
220
0.0
230
1.0
 70
     8
 71
     3
 72
    44
 73
    40
 74
     0
 42
0.00000001
 43
0.00000001
 40
0.0
 40
0.0
 40
0.0
 40
0.0
 40
0.021240697433755
 40
0.0467441309190631
 40
0.0736329950597749
 40
0.1005990368961023
 40
0.1277243162613965
 40
0.1549937885740172
 40
0.1823895613917793
 40
0.209890734277535
 40
0.2374737715157551
 40
0.2651129913710854
 40
0.2927811575124302
 40
0.3204445298415674
 40
0.3480710300304885
 40
0.3756332855757748
 40
0.4031055522901934
 40
0.4304644139186325
 40
0.4576894136840292
 40
0.4847635973079486
 40
0.5116723446204088
 40
0.5384814213584822
 40
0.5654112536637836
 40
0.5925023158469757
 40
0.6197400669392471
 40
0.6471069397909438
 40
0.6745825762400774
 40
0.702144349263113
 40
0.7297679587055145
 40
0.7574280843465662
 40
0.7850968736035325
 40
0.8127427974920542
 40
0.8403420452083871
 40
0.8678727259748307
 40
0.8953154035498114
 40
0.9226535323974011
 40
0.9498737753111177
 40
0.9769348034941658
 40
1.0
 40
1.0
 40
1.0
 40
1.0
 10
122.7373814655228
 20
151.292645323268
 30
0.0
 10
121.349268216145
 20
152.0711630603141
 30
0.0
 10
118.2944651588646
 20
153.7844370776478
 30
0.0
 10
113.2823271609735
 20
156.3793336085214
 30
0.0
 10
107.6948995541579
 20
159.0421056208426
 30
0.0
 10
101.7989829952461
 20
161.6093892011606
 30
0.0
 10
95.69533615773271
 20
164.0370225150782
 30
0.0
 10
89.38923030666992
 20
166.3213217315489
 30
0.0
 10
82.89513922319306
 20
168.4563573345785
 30
0.0
 10
76.22844025413977
 20
170.4361945842206
 30
0.0
 10
69.4057628424624
 20
172.2551948905646
 30
0.0
 10
62.4447709378116
 20
173.9080511539543
 30
0.0
 10
55.36451856320073
 20
175.389794526527
 30
0.0
 10
48.18513531344936
 20
176.695966931193
 30
0.0
 10
40.92726294567881
 20
177.822795370881
 30
0.0
 10
33.611270467861
 20
178.7672957441902
 30
0.0
 10
26.25711250223051
 20
179.5272214835059
 30
0.0
 10
18.88441658438401
 20
180.1010260142199
 30
0.0
 10
11.51225630230458
 20
180.4877792176425
 30
0.0
 10
4.159086985293292
 20
180.687376984055
 30
0.0
 10
-3.164308931441573
 20
180.699597608765
 30
0.0
 10
-10.46859967856189
 20
180.5269980558187
 30
0.0
 10
-17.77004379973968
 20
180.1717481391298
 30
0.0
 10
-25.07758685375721
 20
179.6329450545533
 30
0.0
 10
-32.37859556457266
 20
178.9103156726004
 30
0.0
 10
-39.65501307953868
 20
178.0043199681218
 30
0.0
 10
-46.88817108632212
 20
176.9160237992859
 30
0.0
 10
-54.0589633502375
 20
175.6471134714754
 30
0.0
 10
-61.14805738344481
 20
174.1999110132921
 30
0.0
 10
-68.13593404950707
 20
172.5774086192828
 30
0.0
 10
-75.00279779069247
 20
170.7833541097326
 30
0.0
 10
-81.72940754310015
 20
168.8221190688723
 30
0.0
 10
-88.297462203857
 20
166.6985524534214
 30
0.0
 10
-94.69016951180872
 20
164.4177706976244
 30
0.0
 10
-100.8915311340922
 20
161.9851037335059
 30
0.0
 10
-106.8876389451312
 20
159.4063883793481
 30
0.0
 10
-112.6600714793254
 20
156.6874937876138
 30
0.0
 10
-117.9433171408244
 20
153.9731578119591
 30
0.0
 10
-121.2257711349155
 20
152.1389819347513
 30
0.0
 10
-122.7361670776577
 20
151.2950000211593
 30
0.0
  0
SPLINE
  5
6E
330
1F
100
AcDbEntity
  8
0
  6
Continuous
 62
     7
370
    25
100
AcDbSpline
210
0.0
220
0.0
230
1.0
 70
     8
 71
     3
 72
    32
 73
    28
 74
     0
 42
0.00000001
 43
0.00000001
 40
0.0
 40
0.0
 40
0.0
 40
0.0
 40
0.0327592787383551
 40
0.0767958543907712
 40
0.117427814044834
 40
0.160772947211847
 40
0.2023162674499261
 40
0.2432730984915349
 40
0.2841717494254187
 40
0.3252083072409153
 40
0.3664739808756221
 40
0.4079660722327305
 40
0.4496404754675906
 40
0.4914361140149306
 40
0.5332857148040591
 40
0.5751131368838533
 40
0.6168320897423598
 40
0.6583732217622038
 40
0.6996715603339576
 40
0.7406762372230989
 40
0.7813722032783054
 40
0.8218240233624301
 40
0.8622299624427184
 40
0.9029455001287845
 40
0.9448546025958592
 40
0.9896507887603011
 40
1.0
 40
1.0
 40
1.0
 40
1.0
 10
-67.34897037834791
 20
127.5790467664885
 30
0.0
 10
-67.34683211579083
 20
127.3667214081267
 30
0.0
 10
-67.3418194993259
 20
126.8689782363538
 30
0.0
 10
-67.6015523924479
 20
126.0674600723957
 30
0.0
 10
-68.11064766638815
 20
125.1222420740567
 30
0.0
 10
-68.90596910062138
 20
124.1490428298299
 30
0.0
 10
-70.00250759962167
 20
123.1747671387295
 30
0.0
 10
-71.35072629727688
 20
122.2650613347035
 30
0.0
 10
-72.93519784658785
 20
121.4399806854604
 30
0.0
 10
-74.73252366205915
 20
120.7217592574583
 30
0.0
 10
-76.71154254510962
 20
120.1310783993021
 30
0.0
 10
-78.83552968541352
 20
119.6853097632704
 30
0.0
 10
-81.06283565141355
 20
119.3978214895501
 30
0.0
 10
-83.3486146062993
 20
119.2773918144749
 30
0.0
 10
-85.64610179370914
 20
119.3279696026659
 30
0.0
 10
-87.90764688056547
 20
119.5484987810198
 30
0.0
 10
-90.08616652640947
 20
119.9327618806934
 30
0.0
 10
-92.1364453182541
 20
120.4693250176899
 30
0.0
 10
-94.01649046834545
 20
121.1415364498043
 30
0.0
 10
-95.68879828876604
 20
121.9274145188996
 30
0.0
 10
-97.12210798808371
 20
122.7998311866838
 30
0.0
 10
-98.29434523647122
 20
123.7271096218985
 30
0.0
 10
-99.19210104109385
 20
124.6744610705294
 30
0.0
 10
-99.82529034999072
 20
125.6091905761135
 30
0.0
 10
-100.1896960186554
 20
126.516551931632
 30
0.0
 10
-100.3448113329253
 20
127.151439943615
 30
0.0
 10
-100.3043354039554
 20
127.5131517748392
 30
0.0
 10
-100.2967392316772
 20
127.5810347229265
 30
0.0
  0
SPLINE
  5
6F
330
1F
100
AcDbEntity
  8
0
  6
Continuous
 62
     7
370
    25
100
AcDbSpline
210
0.0
220
0.0
230
1.0
 70
     8
 71
     3
 72
    52
 73
    48
 74
     0
 42
0.00000001
 43
0.00000001
 40
0.0
 40
0.0
 40
0.0
 40
0.0
 40
0.0624999999999994
 40
0.0624999999999994
 40
0.1249999999999989
 40
0.1249999999999989
 40
0.1874999999999983
 40
0.1874999999999983
 40
0.2031249999999981
 40
0.2031249999999981
 40
0.2187499999999979
 40
0.2187499999999979
 40
0.2499999999999976
 40
0.2499999999999976
 40
0.3124999999999972
 40
0.3124999999999972
 40
0.3749999999999967
 40
0.3749999999999967
 40
0.4062499999999965
 40
0.4062499999999965
 40
0.4218749999999966
 40
0.4218749999999966
 40
0.4374999999999967
 40
0.4374999999999967
 40
0.499999999999997
 40
0.499999999999997
 40
0.5624999999999972
 40
0.5624999999999972
 40
0.6249999999999974
 40
0.6249999999999974
 40
0.6406249999999976
 40
0.6406249999999976
 40
0.6562499999999976
 40
0.6562499999999976
 40
0.6874999999999979
 40
0.6874999999999979
 40
0.7499999999999982
 40
0.7499999999999982
 40
0.8124999999999986
 40
0.8124999999999986
 40
0.8437499999999987
 40
0.8437499999999987
 40
0.8749999999999989
 40
0.8749999999999989
 40
0.9374999999999994
 40
0.9374999999999994
 40
1.0
 40
1.0
 40
1.0
 40
1.0
 10
-120.2328320636392
 20
12.23871607479232
 30
0.0
 10
-116.2634108199914
 20
9.947783696789433
 30
0.0
 10
-112.1313436399245
 20
7.789289318324802
 30
0.0
 10
-103.5532633933713
 20
3.727937843679044
 30
0.0
 10
-99.10721821645149
 20
1.82510689411848
 30
0.0
 10
-89.90309907165495
 20
-1.726478759493694
 30
0.0
 10
-85.14503724111715
 20
-3.375243346638149
 30
0.0
 10
-78.99802582014367
 20
-5.273805490114775
 30
0.0
 10
-77.75862883638287
 20
-5.645379516796139
 30
0.0
 10
-75.25963985725934
 20
-6.372083341694881
 30
0.0
 10
-73.99841817268337
 20
-6.727653179729676
 30
0.0
 10
-70.1965130554067
 20
-7.766033150471293
 30
0.0
 10
-67.6425564955993
 20
-8.419313289881408
 30
0.0
 10
-59.92380995305823
 20
-10.26461565603313
 30
0.0
 10
-54.70227792915048
 20
-11.34237133376643
 30
0.0
 10
-44.11066537844634
 20
-13.19873721553835
 30
0.0
 10
-38.74058152865933
 20
-13.97734072777187
 30
0.0
 10
-30.57294999557958
 20
-14.91868303698557
 30
0.0
 10
-27.83162207972147
 20
-15.19463663339644
 30
0.0
 10
-23.69100651564445
 20
-15.55092492981486
 30
0.0
 10
-22.3060284738343
 20
-15.66007617057699
 30
0.0
 10
-19.52642411752232
 20
-15.85894905807278
 30
0.0
 10
-18.13020119115265
 20
-15.94874249385737
 30
0.0
 10
-11.16082377729497
 20
-16.34664951223123
 30
0.0
 10
-5.601602611998859
 20
-16.50385746581851
 30
0.0
 10
5.485300660073889
 20
-16.50615664532196
 30
0.0
 10
11.01298009924439
 20
-16.3512214720837
 30
0.0
 10
22.03688487558077
 20
-15.73007514432206
 30
0.0
 10
27.53311197131667
 20
-15.26388139295319
 30
0.0
 10
34.38322138664483
 20
-14.48148883473142
 30
0.0
 10
35.75223219571566
 20
-14.31500453593013
 30
0.0
 10
38.48820898844959
 20
-13.9617999438211
 30
0.0
 10
39.85447055418292
 20
-13.77513584425837
 30
0.0
 10
43.92743330239434
 20
-13.18793781189306
 30
0.0
 10
46.61582420105916
 20
-12.75927476910052
 30
0.0
 10
54.60174334652127
 20
-11.36376440477883
 30
0.0
 10
59.82020505007065
 20
-10.28765427445251
 30
0.0
 10
70.0494034883797
 20
-7.848376901968463
 30
0.0
 10
75.06013909757904
 20
-6.485208104388129
 30
0.0
 10
82.41837040768056
 20
-4.222289945036803
 30
0.0
 10
84.8447556097265
 20
-3.431558735894027
 30
0.0
 10
89.64387432580689
 20
-1.775954539201846
 30
0.0
 10
92.02083957102255
 20
-0.9092980433110798
 30
0.0
 10
99.00963007615417
 20
1.780836370604291
 30
0.0
 10
103.4957329280213
 20
3.699103844459484
 30
0.0
 10
112.1255672493318
 20
7.782579647784186
 30
0.0
 10
116.2693046534278
 20
9.947783696790239
 30
0.0
 10
120.2387258970756
 20
12.23871607479315
 30
0.0
  0
SPLINE
  5
71
330
1F
100
AcDbEntity
  8
0
  6
Continuous
 62
     7
370
    25
100
AcDbSpline
210
0.0
220
0.0
230
1.0
 70
     8
 71
     3
 72
    38
 73
    34
 74
     0
 42
0.00000001
 43
0.00000001
 40
0.0
 40
0.0
 40
0.0
 40
0.0
 40
0.0625
 40
0.0625
 40
0.1250000000000001
 40
0.1250000000000001
 40
0.1875000000000001
 40
0.1875000000000001
 40
0.2500000000000002
 40
0.2500000000000002
 40
0.3125000000000002
 40
0.3125000000000002
 40
0.3750000000000002
 40
0.3750000000000002
 40
0.4375000000000003
 40
0.4375000000000003
 40
0.5000000000000003
 40
0.5000000000000003
 40
0.5625000000000003
 40
0.5625000000000003
 40
0.6250000000000003
 40
0.6250000000000003
 40
0.6875000000000002
 40
0.6875000000000002
 40
0.7500000000000002
 40
0.7500000000000002
 40
0.8125000000000002
 40
0.8125000000000002
 40
0.8750000000000001
 40
0.8750000000000001
 40
0.9375000000000001
 40
0.9375000000000001
 40
1.0
 40
1.0
 40
1.0
 40
1.0
 10
123.774253964706
 20
6.107574799100638
 30
0.0
 10
120.1276068592913
 20
4.002929962447305
 30
0.0
 10
116.2524863347064
 20
1.95267032491489
 30
0.0
 10
108.0518866531585
 20
-1.996932937155443
 30
0.0
 10
103.7263489014
 20
-3.896216448427165
 30
0.0
 10
94.64591662149648
 20
-7.500207502159448
 30
0.0
 10
89.89099170822152
 20
-9.204841371954153
 30
0.0
 10
79.98872963117573
 20
-12.3764660997439
 30
0.0
 10
74.84140005059808
 20
-13.843374919159
 30
0.0
 10
64.20759374384376
 20
-16.49943409942502
 30
0.0
 10
58.72116892236043
 20
-17.68850175676222
 30
0.0
 10
47.47788581613058
 20
-19.75421815231937
 30
0.0
 10
41.72112462087041
 20
-20.63079284115095
 30
0.0
 10
30.01909323445627
 20
-22.0447064670455
 30
0.0
 10
24.07395943740462
 20
-22.58198943961073
 30
0.0
 10
12.08678604139094
 20
-23.30033270218293
 30
0.0
 10
6.044909669723893
 20
-23.48136283289211
 30
0.0
 10
-6.03901583628721
 20
-23.48136283289215
 30
0.0
 10
-12.08089220795421
 20
-23.30033270218298
 30
0.0
 10
-24.0680656039679
 20
-22.58198943961091
 30
0.0
 10
-30.01319940101962
 20
-22.04470646704569
 30
0.0
 10
-41.71523078743371
 20
-20.63079284115121
 30
0.0
 10
-47.47199198269375
 20
-19.75421815231967
 30
0.0
 10
-58.71527508892367
 20
-17.68850175676265
 30
0.0
 10
-64.20169991040713
 20
-16.49943409942552
 30
0.0
 10
-74.83550621716138
 20
-13.84337491915949
 30
0.0
 10
-79.98283579773913
 20
-12.37646609974442
 30
0.0
 10
-89.88509787478492
 20
-9.20484137195475
 30
0.0
 10
-94.64002278805991
 20
-7.500207502160045
 30
0.0
 10
-103.7204550679635
 20
-3.896216448427831
 30
0.0
 10
-108.0459928197219
 20
-1.996932937156165
 30
0.0
 10
-116.2465925012699
 20
1.952670324914072
 30
0.0
 10
-120.1217130258549
 20
4.002929962446486
 30
0.0
 10
-123.7683601312697
 20
6.107574799099819
 30
0.0
  0
SPLINE
  5
73
330
1F
100
AcDbEntity
  8
0
  6
Continuous
 62
     7
370
    25
100
AcDbSpline
210
0.0
220
0.0
230
1.0
 70
     8
 71
     3
 72
    52
 73
    48
 74
     0
 42
0.00000001
 43
0.00000001
 40
0.0
 40
0.0
 40
0.0
 40
0.0
 40
0.0624999999999998
 40
0.0624999999999998
 40
0.1249999999999997
 40
0.1249999999999997
 40
0.1874999999999995
 40
0.1874999999999995
 40
0.2031249999999994
 40
0.2031249999999994
 40
0.2187499999999994
 40
0.2187499999999994
 40
0.2499999999999994
 40
0.2499999999999994
 40
0.3124999999999996
 40
0.3124999999999996
 40
0.3749999999999997
 40
0.3749999999999997
 40
0.4062499999999997
 40
0.4062499999999997
 40
0.4218749999999999
 40
0.4218749999999999
 40
0.4375000000000001
 40
0.4375000000000001
 40
0.5000000000000001
 40
0.5000000000000001
 40
0.5625000000000001
 40
0.5625000000000001
 40
0.6250000000000002
 40
0.6250000000000002
 40
0.6406250000000002
 40
0.6406250000000002
 40
0.6562500000000001
 40
0.6562500000000001
 40
0.6875000000000001
 40
0.6875000000000001
 40
0.7500000000000002
 40
0.7500000000000002
 40
0.8125000000000001
 40
0.8125000000000001
 40
0.8437500000000001
 40
0.8437500000000001
 40
0.875
 40
0.875
 40
0.9374999999999999
 40
0.9374999999999999
 40
1.0
 40
1.0
 40
1.0
 40
1.0
 10
-120.2328320636395
 20
151.0257190925784
 30
0.0
 10
-124.2022533072872
 20
148.7347867145754
 30
0.0
 10
-127.9422036971109
 20
146.349984016689
 30
0.0
 10
-134.9791703820169
 20
141.3991862626374
 30
0.0
 10
-138.276141373732
 20
138.83317267409
 30
0.0
 10
-144.4298540181761
 20
133.5210595811411
 30
0.0
 10
-147.2866127950068
 20
130.7749670817465
 30
0.0
 10
-150.5761873704341
 20
127.2272490070277
 30
0.0
 10
-151.22000115091
 20
126.5119369993034
 30
0.0
 10
-152.4791363519705
 20
125.0696575300462
 30
0.0
 10
-153.0952202147018
 20
124.3417495012226
 30
0.0
 10
-154.8943861588461
 20
122.1474982498084
 30
0.0
 10
-156.0263026171083
 20
120.6734945057516
 30
0.0
 10
-159.2235957731557
 20
116.2186570656075
 30
0.0
 10
-161.0909866764114
 20
113.2050749733836
 30
0.0
 10
-164.3074492127313
 20
107.0921767350068
 30
0.0
 10
-165.6565092511307
 20
103.9928586710057
 30
0.0
 10
-167.2875413128429
 20
99.27894941769222
 30
0.0
 10
-167.7656767996742
 20
97.69680519673993
 30
0.0
 10
-168.3830055110083
 20
95.30706884013954
 30
0.0
 10
-168.5721281835114
 20
94.50773542500163
 30
0.0
 10
-168.9167085264283
 20
92.90350014054964
 30
0.0
 10
-169.0722905833086
 20
92.09767679437574
 30
0.0
 10
-169.7617306501109
 20
88.07533414241364
 30
0.0
 10
-170.0341195676677
 20
84.86685638650971
 30
0.0
 10
-170.0381032784274
 20
78.46810349062486
 30
0.0
 10
-169.7696523307061
 20
75.27782989024
 30
0.0
 10
-168.6934130438093
 20
68.915436273149
 30
0.0
 10
-167.8856548584923
 20
65.74331524149265
 30
0.0
 10
-166.530029667938
 20
61.78980754120728
 30
0.0
 10
-166.241567939979
 20
60.99968953764308
 30
0.0
 10
-165.6295822590687
 20
59.42063369166317
 30
0.0
 10
-165.3061556711235
 20
58.63210240066746
 30
0.0
 10
-164.288737450368
 20
56.2814115413364
 30
0.0
 10
-163.5460074576518
 20
54.72981966523213
 30
0.0
 10
-161.1280537288308
 20
50.12078484240243
 30
0.0
 10
-159.2635140100526
 20
47.10897477080537
 30
0.0
 10
-155.0370603990874
 20
41.20524209419894
 30
0.0
 10
-152.6751438118722
 20
38.31332013880126
 30
0.0
 10
-148.7542618597844
 20
34.06655233099485
 30
0.0
 10
-147.3841885700948
 20
32.66617578245651
 30
0.0
 10
-144.5155790325444
 20
29.89638749905308
 30
0.0
 10
-143.0139525599494
 20
28.52453344089119
 30
0.0
 10
-138.3528474162996
 20
24.49098661667658
 30
0.0
 10
-135.0291300797115
 20
21.9018539337092
 30
0.0
 10
-127.9538293168978
 20
16.92118656434664
 30
0.0
 10
-124.2022533072869
 20
14.52964845279524
 30
0.0
 10
-120.2328320636391
 20
12.23871607479232
 30
0.0
  0
SPLINE
  5
74
330
1F
100
AcDbEntity
  8
0
  6
Continuous
 62
     7
370
    25
100
AcDbSpline
210
0.0
220
0.0
230
1.0
 70
     8
 71
     3
 72
    52
 73
    48
 74
     0
 42
0.00000001
 43
0.00000001
 40
0.0
 40
0.0
 40
0.0
 40
0.0
 40
0.0624999999999998
 40
0.0624999999999998
 40
0.1249999999999996
 40
0.1249999999999996
 40
0.1874999999999994
 40
0.1874999999999994
 40
0.2031249999999993
 40
0.2031249999999993
 40
0.2187499999999993
 40
0.2187499999999993
 40
0.2499999999999993
 40
0.2499999999999993
 40
0.312499999999999
 40
0.312499999999999
 40
0.3749999999999988
 40
0.3749999999999988
 40
0.4062499999999987
 40
0.4062499999999987
 40
0.4218749999999988
 40
0.4218749999999988
 40
0.4374999999999989
 40
0.4374999999999989
 40
0.4999999999999992
 40
0.4999999999999992
 40
0.5624999999999994
 40
0.5624999999999994
 40
0.6249999999999997
 40
0.6249999999999997
 40
0.6406249999999998
 40
0.6406249999999998
 40
0.6562499999999998
 40
0.6562499999999998
 40
0.6874999999999998
 40
0.6874999999999998
 40
0.7499999999999997
 40
0.7499999999999997
 40
0.8124999999999998
 40
0.8124999999999998
 40
0.8437499999999998
 40
0.8437499999999998
 40
0.8749999999999998
 40
0.8749999999999998
 40
0.9374999999999999
 40
0.9374999999999999
 40
1.0
 40
1.0
 40
1.0
 40
1.0
 10
120.2387258970751
 20
151.0257190925792
 30
0.0
 10
116.2693046534274
 20
153.316651470582
 30
0.0
 10
112.1372374733604
 20
155.4751458490466
 30
0.0
 10
103.5591572268072
 20
159.5364973236923
 30
0.0
 10
99.11311204988736
 20
161.439328273253
 30
0.0
 10
89.90899290509088
 20
164.9909139268652
 30
0.0
 10
85.15093107455314
 20
166.6396785140096
 30
0.0
 10
79.00391965357971
 20
168.5382406574863
 30
0.0
 10
77.76452266981889
 20
168.9098146841676
 30
0.0
 10
75.26553369069535
 20
169.6365185090664
 30
0.0
 10
74.00431200611939
 20
169.9920883471012
 30
0.0
 10
70.20240688884272
 20
171.0304683178429
 30
0.0
 10
67.64845032903531
 20
171.6837484572529
 30
0.0
 10
59.92970378649422
 20
173.5290508234045
 30
0.0
 10
54.7081717625864
 20
174.6068065011379
 30
0.0
 10
44.11655921188229
 20
176.4631723829099
 30
0.0
 10
38.74647536209537
 20
177.2417758951435
 30
0.0
 10
30.57884382901555
 20
178.1831182043572
 30
0.0
 10
27.83751591315745
 20
178.4590718007679
 30
0.0
 10
23.69690034908043
 20
178.8153600971864
 30
0.0
 10
22.3119223072703
 20
178.9245113379486
 30
0.0
 10
19.53231795095833
 20
179.1233842254444
 30
0.0
 10
18.13609502458877
 20
179.2131776612289
 30
0.0
 10
11.16671761073109
 20
179.6110846796028
 30
0.0
 10
5.607496445434796
 20
179.7682926331902
 30
0.0
 10
-5.479406826637925
 20
179.7705918126936
 30
0.0
 10
-11.00708626580838
 20
179.6156566394552
 30
0.0
 10
-22.03099104214472
 20
178.9945103116936
 30
0.0
 10
-27.52721813788071
 20
178.5283165603248
 30
0.0
 10
-34.37732755320883
 20
177.745924002103
 30
0.0
 10
-35.74633836227963
 20
177.5794397033016
 30
0.0
 10
-38.48231515501361
 20
177.2262351111925
 30
0.0
 10
-39.84857672074686
 20
177.0395710116299
 30
0.0
 10
-43.92153946895836
 20
176.4523729792646
 30
0.0
 10
-46.60993036762319
 20
176.023709936472
 30
0.0
 10
-54.59584951308535
 20
174.6281995721504
 30
0.0
 10
-59.81431121663465
 20
173.5520894418241
 30
0.0
 10
-70.04350965494368
 20
171.1128120693401
 30
0.0
 10
-75.05424526414302
 20
169.7496432717596
 30
0.0
 10
-82.41247657424448
 20
167.4867251124083
 30
0.0
 10
-84.83886177629046
 20
166.6959939032654
 30
0.0
 10
-89.63798049237081
 20
165.0403897065733
 30
0.0
 10
-92.01494573758656
 20
164.1737332106827
 30
0.0
 10
-99.00373624271815
 20
161.4835987967673
 30
0.0
 10
-103.4898390945853
 20
159.565331322912
 30
0.0
 10
-112.1196734158957
 20
155.4818555195873
 30
0.0
 10
-116.2634108199918
 20
153.3166514705813
 30
0.0
 10
-120.2328320636395
 20
151.0257190925783
 30
0.0
  0
SPLINE
  5
75
330
1F
100
AcDbEntity
  8
0
  6
Continuous
 62
     7
370
    25
100
AcDbSpline
210
0.0
220
0.0
230
1.0
 70
     8
 71
     3
 72
    52
 73
    48
 74
     0
 42
0.00000001
 43
0.00000001
 40
0.0
 40
0.0
 40
0.0
 40
0.0
 40
0.0624999999999998
 40
0.0624999999999998
 40
0.1249999999999996
 40
0.1249999999999996
 40
0.1874999999999994
 40
0.1874999999999994
 40
0.2031249999999993
 40
0.2031249999999993
 40
0.2187499999999992
 40
0.2187499999999992
 40
0.2499999999999991
 40
0.2499999999999991
 40
0.3124999999999989
 40
0.3124999999999989
 40
0.3749999999999988
 40
0.3749999999999988
 40
0.4062499999999988
 40
0.4062499999999988
 40
0.4218749999999986
 40
0.4218749999999986
 40
0.4374999999999983
 40
0.4374999999999983
 40
0.4999999999999981
 40
0.4999999999999981
 40
0.5624999999999979
 40
0.5624999999999979
 40
0.6249999999999977
 40
0.6249999999999977
 40
0.6406249999999978
 40
0.6406249999999978
 40
0.6562499999999978
 40
0.6562499999999978
 40
0.687499999999998
 40
0.687499999999998
 40
0.7499999999999984
 40
0.7499999999999984
 40
0.812499999999999
 40
0.812499999999999
 40
0.8437499999999992
 40
0.8437499999999992
 40
0.8749999999999994
 40
0.8749999999999994
 40
0.9374999999999998
 40
0.9374999999999998
 40
1.0
 40
1.0
 40
1.0
 40
1.0
 10
120.2387258970755
 20
12.23871607479314
 30
0.0
 10
124.2081471407232
 20
14.52964845279607
 30
0.0
 10
127.9480975305469
 20
16.91445115068242
 30
0.0
 10
134.985064215453
 20
21.86524890473401
 30
0.0
 10
138.282035207168
 20
24.43126249328157
 30
0.0
 10
144.4357478516121
 20
29.74337558623046
 30
0.0
 10
147.2925066284428
 20
32.48946808562506
 30
0.0
 10
150.5820812038702
 20
36.03718616034377
 30
0.0
 10
151.225894984346
 20
36.75249816806804
 30
0.0
 10
152.4850301854067
 20
38.19477763732525
 30
0.0
 10
153.101114048138
 20
38.92268566614896
 30
0.0
 10
154.9002799922821
 20
41.11693691756316
 30
0.0
 10
156.0321964505444
 20
42.59094066161997
 30
0.0
 10
159.2294896065918
 20
47.0457781017641
 30
0.0
 10
161.0968805098476
 20
50.05936019398786
 30
0.0
 10
164.3133430461674
 20
56.17225843236478
 30
0.0
 10
165.6624030845666
 20
59.27157649636592
 30
0.0
 10
167.2934351462789
 20
63.98548574967931
 30
0.0
 10
167.7715706331102
 20
65.56762997063156
 30
0.0
 10
168.3888993444444
 20
67.95736632723192
 30
0.0
 10
168.5780220169476
 20
68.75669974236986
 30
0.0
 10
168.9226023598644
 20
70.36093502682183
 30
0.0
 10
169.0781844167446
 20
71.1667583729958
 30
0.0
 10
169.767624483547
 20
75.18910102495792
 30
0.0
 10
170.0400134011037
 20
78.39757878086174
 30
0.0
 10
170.0439971118634
 20
84.79633167674658
 30
0.0
 10
169.7755461641421
 20
87.98660527713159
 30
0.0
 10
168.6993068772453
 20
94.3489988942226
 30
0.0
 10
167.8915486919283
 20
97.52111992587884
 30
0.0
 10
166.535923501374
 20
101.4746276261642
 30
0.0
 10
166.247461773415
 20
102.2647456297285
 30
0.0
 10
165.6354760925047
 20
103.8438014757083
 30
0.0
 10
165.3120495045595
 20
104.632332766704
 30
0.0
 10
164.2946312838041
 20
106.9830236260351
 30
0.0
 10
163.5519012910879
 20
108.5346155021394
 30
0.0
 10
161.1339475622668
 20
113.1436503249691
 30
0.0
 10
159.2694078434886
 20
116.1554603965662
 30
0.0
 10
155.0429542325234
 20
122.0591930731725
 30
0.0
 10
152.6810376453082
 20
124.9511150285702
 30
0.0
 10
148.7601556932204
 20
129.1978828363766
 30
0.0
 10
147.3900824035309
 20
130.598259384915
 30
0.0
 10
144.5214728659804
 20
133.3680476683184
 30
0.0
 10
143.0198463933856
 20
134.7399017264804
 30
0.0
 10
138.3587412497357
 20
138.773448550695
 30
0.0
 10
135.0350239131476
 20
141.3625812336624
 30
0.0
 10
127.9597231503338
 20
146.3432486030249
 30
0.0
 10
124.2081471407229
 20
148.7347867145763
 30
0.0
 10
120.2387258970752
 20
151.0257190925792
 30
0.0
  0
SPLINE
  5
76
330
1F
100
AcDbEntity
  8
0
  6
Continuous
 62
     7
370
    25
100
AcDbSpline
210
0.0
220
0.0
230
1.0
 70
     8
 71
     3
 72
   130
 73
   126
 74
     0
 42
0.00000001
 43
0.00000001
 40
0.0
 40
0.0
 40
0.0
 40
0.0
 40
0.0039062500000001
 40
0.0039062500000001
 40
0.0078125000000002
 40
0.0078125000000002
 40
0.0156250000000003
 40
0.0156250000000003
 40
0.0312500000000006
 40
0.0312500000000006
 40
0.0625000000000012
 40
0.0625000000000012
 40
0.0937500000000018
 40
0.0937500000000018
 40
0.109375000000002
 40
0.109375000000002
 40
0.1250000000000023
 40
0.1250000000000023
 40
0.1562500000000029
 40
0.1562500000000029
 40
0.1875000000000035
 40
0.1875000000000035
 40
0.2187500000000041
 40
0.2187500000000041
 40
0.2343750000000043
 40
0.2343750000000043
 40
0.2500000000000046
 40
0.2500000000000046
 40
0.281250000000005
 40
0.281250000000005
 40
0.3125000000000054
 40
0.3125000000000054
 40
0.3437500000000059
 40
0.3437500000000059
 40
0.3593750000000061
 40
0.3593750000000061
 40
0.3750000000000063
 40
0.3750000000000063
 40
0.4062500000000068
 40
0.4062500000000068
 40
0.4218750000000071
 40
0.4218750000000071
 40
0.4375000000000074
 40
0.4375000000000074
 40
0.4531250000000077
 40
0.4531250000000077
 40
0.468750000000008
 40
0.468750000000008
 40
0.4765625000000082
 40
0.4765625000000082
 40
0.4843750000000083
 40
0.4843750000000083
 40
0.5000000000000085
 40
0.5000000000000085
 40
0.5312500000000091
 40
0.5312500000000091
 40
0.5625000000000095
 40
0.5625000000000095
 40
0.5781250000000098
 40
0.5781250000000098
 40
0.5859375000000099
 40
0.5859375000000099
 40
0.5937500000000101
 40
0.5937500000000101
 40
0.6093750000000103
 40
0.6093750000000103
 40
0.6250000000000107
 40
0.6250000000000107
 40
0.6328125000000109
 40
0.6328125000000109
 40
0.640625000000011
 40
0.640625000000011
 40
0.6562500000000112
 40
0.6562500000000112
 40
0.6601562500000112
 40
0.6601562500000112
 40
0.6640625000000111
 40
0.6640625000000111
 40
0.6718750000000111
 40
0.6718750000000111
 40
0.679687500000011
 40
0.679687500000011
 40
0.6875000000000109
 40
0.6875000000000109
 40
0.6914062500000108
 40
0.6914062500000108
 40
0.6953125000000107
 40
0.6953125000000107
 40
0.7031250000000104
 40
0.7031250000000104
 40
0.7187500000000101
 40
0.7187500000000101
 40
0.72265625000001
 40
0.72265625000001
 40
0.7265625000000098
 40
0.7265625000000098
 40
0.7343750000000097
 40
0.7343750000000097
 40
0.7500000000000091
 40
0.7500000000000091
 40
0.753906250000009
 40
0.753906250000009
 40
0.7578125000000089
 40
0.7578125000000089
 40
0.7656250000000085
 40
0.7656250000000085
 40
0.781250000000008
 40
0.781250000000008
 40
0.8125000000000069
 40
0.8125000000000069
 40
0.8750000000000047
 40
0.8750000000000047
 40
0.9375000000000024
 40
0.9375000000000024
 40
0.9687500000000012
 40
0.9687500000000012
 40
0.976562500000001
 40
0.976562500000001
 40
0.9843750000000007
 40
0.9843750000000007
 40
0.9921875000000004
 40
0.9921875000000004
 40
0.9960937500000002
 40
0.9960937500000002
 40
1.0
 40
1.0
 40
1.0
 40
1.0
 10
117.3932264985392
 20
13.88098124718769
 30
0.0
 10
116.9481771582858
 20
13.62412330438617
 30
0.0
 10
116.5039715861551
 20
13.3667810672063
 30
0.0
 10
115.6194521634664
 20
12.84986287622744
 30
0.0
 10
115.1774576131396
 20
12.59125173563218
 30
0.0
 10
113.8388965383281
 20
11.8226294511535
 30
0.0
 10
112.9302052387398
 20
11.3199980242244
 30
0.0
 10
110.1687193051656
 20
9.833415072285634
 30
0.0
 10
108.2854717864982
 20
8.869765376473756
 30
0.0
 10
102.5175640503502
 20
6.055980354523164
 30
0.0
 10
98.5250341965754
 20
4.29033913778365
 30
0.0
 10
90.26375952332675
 20
0.9680686848750758
 30
0.0
 10
86.01755457222349
 20
-0.5783338598369936
 30
0.0
 10
79.48031760142969
 20
-2.726307146192986
 30
0.0
 10
77.27299081836759
 20
-3.413707092477153
 30
0.0
 10
72.80151539736181
 20
-4.730994451569326
 30
0.0
 10
70.5357513155477
 20
-5.361258443016478
 30
0.0
 10
63.66285595241959
 20
-7.162821366078043
 30
0.0
 10
59.02200924285667
 20
-8.234723825895685
 30
0.0
 10
49.62624518805613
 20
-10.12849638244009
 30
0.0
 10
44.87089727721014
 20
-10.9494227188739
 30
0.0
 10
35.24330500841568
 20
-12.33504910937608
 30
0.0
 10
30.37120575781984
 20
-12.90006722544235
 30
0.0
 10
22.97480504731338
 20
-13.55415447852405
 30
0.0
 10
20.49455532934934
 20
-13.73978099046814
 30
0.0
 10
15.50428525467872
 20
-14.0457795068181
 30
0.0
 10
12.98991780778347
 20
-14.16621688514889
 30
0.0
 10
5.477617733487809
 20
-14.42688506973012
 30
0.0
 10
0.4885791046420258
 20
-14.46867933939373
 30
0.0
 10
-9.45249110459392
 20
-14.29736206513248
 30
0.0
 10
-14.4044737476358
 20
-14.08391343908136
 30
0.0
 10
-24.27155669979384
 20
-13.40296941133155
 30
0.0
 10
-29.18673837706532
 20
-12.93603447626493
 30
0.0
 10
-36.53132564212923
 20
-12.04149110330324
 30
0.0
 10
-38.97667546483413
 20
-11.71040911946222
 30
0.0
 10
-43.84966390712822
 20
-10.98181487813348
 30
0.0
 10
-46.26241524482491
 20
-10.58657840959086
 30
0.0
 10
-53.43030524628967
 20
-9.3091776709235
 30
0.0
 10
-58.11643870275744
 20
-8.337092725471548
 30
0.0
 10
-65.0164640708536
 20
-6.710637623067631
 30
0.0
 10
-67.29495350991061
 20
-6.140444494460204
 30
0.0
 10
-71.80481535338957
 20
-4.938660036449175
 30
0.0
 10
-74.03580033647226
 20
-4.306563858356164
 30
0.0
 10
-78.45001624473531
 20
-2.980143196450111
 30
0.0
 10
-80.63344096041406
 20
-2.286071241006424
 30
0.0
 10
-84.95824083203735
 20
-0.843132555109552
 30
0.0
 10
-87.09970674833211
 20
-0.0943840944550856
 30
0.0
 10
-90.27492837261059
 20
1.076923645692105
 30
0.0
 10
-91.32853717712804
 20
1.475874007507455
 30
0.0
 10
-93.41443546528858
 20
2.286043343404862
 30
0.0
 10
-94.44723074579586
 20
2.697395831084886
 30
0.0
 10
-97.51637499995911
 20
3.949503664498477
 30
0.0
 10
-99.52334151049715
 20
4.808396340988938
 30
0.0
 10
-105.4261022786107
 20
7.457999564655246
 30
0.0
 10
-109.2048003104928
 20
9.320991763891506
 30
0.0
 10
-116.4535471355253
 20
13.23750046620545
 30
0.0
 10
-119.9235912891485
 20
15.2910198331902
 30
0.0
 10
-124.8945945621295
 20
18.51578225322691
 30
0.0
 10
-126.5126288096522
 20
19.61475667738994
 30
0.0
 10
-128.8794775166363
 20
21.30038046816391
 30
0.0
 10
-129.6583764947908
 20
21.86845913619161
 30
0.0
 10
-131.1963025351074
 20
23.01688309236269
 30
0.0
 10
-131.9553194539173
 20
23.59724403216995
 30
0.0
 10
-134.193165773432
 20
25.34907435201982
 30
0.0
 10
-135.6365888475564
 20
26.53361147139619
 30
0.0
 10
-138.4178606627934
 20
28.93894887809629
 30
0.0
 10
-139.7532971339511
 20
30.1605777432381
 30
0.0
 10
-141.6982318029167
 20
32.01301873307315
 30
0.0
 10
-142.3384542543516
 20
32.6332775467716
 30
0.0
 10
-143.5937388548662
 20
33.88243735303801
 30
0.0
 10
-144.20774722666
 20
34.51170030197924
 30
0.0
 10
-145.9848773181573
 20
36.42177959651813
 30
0.0
 10
-147.0892103866855
 20
37.72278894424181
 30
0.0
 10
-148.247555885733
 20
39.4253285632628
 30
0.0
 10
-148.4685222584448
 20
39.77069397711137
 30
0.0
 10
-148.8809388591807
 20
40.46431733312697
 30
0.0
 10
-149.0722113783467
 20
40.81260479777844
 30
0.0
 10
-149.6012501973671
 20
41.86189172522463
 30
0.0
 10
-149.8952234646871
 20
42.56721832508841
 30
0.0
 10
-150.3748650157231
 20
43.9885730104679
 30
0.0
 10
-150.5605128552457
 20
44.7046031160499
 30
0.0
 10
-150.8285121185172
 20
46.14686992227978
 30
0.0
 10
-150.9107593178798
 20
46.87311692121432
 30
0.0
 10
-150.953485904647
 20
47.97045577759817
 30
0.0
 10
-150.9541913729913
 20
48.33828244888475
 30
0.0
 10
-150.9283111342669
 20
49.06993857093257
 30
0.0
 10
-150.9018030127176
 20
49.43440830802792
 30
0.0
 10
-150.7819368281804
 20
50.52377880686878
 30
0.0
 10
-150.6481556472996
 20
51.24463271723943
 30
0.0
 10
-150.0885478515913
 20
53.39135024969652
 30
0.0
 10
-149.5055424299351
 20
54.80147833964939
 30
0.0
 10
-148.5062135836598
 20
56.53705085946077
 30
0.0
 10
-148.2923008850024
 20
56.88352164410672
 30
0.0
 10
-147.8412906550234
 20
57.56762201420569
 30
0.0
 10
-147.6039365725163
 20
57.90580363646045
 30
0.0
 10
-146.8572303033893
 20
58.90903759593687
 30
0.0
 10
-146.3134998532522
 20
59.56286579308085
 30
0.0
 10
-144.5468819432257
 20
61.48013504261313
 30
0.0
 10
-143.188613706731
 20
62.69937570077035
 30
0.0
 10
-141.2254689729704
 20
64.13680579301243
 30
0.0
 10
-140.8189214124179
 20
64.42037250597748
 30
0.0
 10
-139.9893753300369
 20
64.97723214617729
 30
0.0
 10
-139.5659974308681
 20
65.2508498791941
 30
0.0
 10
-138.2776084913271
 20
66.06149421545926
 30
0.0
 10
-137.3940991938525
 20
66.58817605482115
 30
0.0
 10
-134.7370691375989
 20
68.16458537360475
 30
0.0
 10
-132.9671813057686
 20
69.21634449153666
 30
0.0
 10
-127.6530116125621
 20
72.36910184838675
 30
0.0
 10
-124.1023423219503
 20
74.46652805092789
 30
0.0
 10
-113.4291073728976
 20
80.7469358590167
 30
0.0
 10
-106.2841472650113
 20
84.91739687934549
 30
0.0
 10
-91.97576229881645
 20
93.24750575123379
 30
0.0
 10
-84.81113330618278
 20
97.40658373242536
 30
0.0
 10
-74.06297828511254
 20
103.6445069217876
 30
0.0
 10
-70.48012133977734
 20
105.7237344488167
 30
0.0
 10
-66.0032127718674
 20
108.3237242774089
 30
0.0
 10
-65.10799654400432
 20
108.8438173957446
 30
0.0
 10
-63.31645813206651
 20
109.8833677187625
 30
0.0
 10
-62.42060199862694
 20
110.4030928978536
 30
0.0
 10
-60.62054547971371
 20
111.4377453953785
 30
0.0
 10
-59.713437484042
 20
111.950992083459
 30
0.0
 10
-58.33534691392591
 20
112.7103570793344
 30
0.0
 10
-57.8733917670659
 20
112.9619272960024
 30
0.0
 10
-56.95724476682818
 20
113.4697160451658
 30
0.0
 10
-56.50476597860627
 20
113.7269726173265
 30
0.0
 10
-56.05565854467513
 20
113.9861727298168
 30
0.0
  0
SPLINE
  5
77
330
1F
100
AcDbEntity
  8
0
  6
Continuous
 62
     7
370
    25
100
AcDbSpline
210
0.0
220
0.0
230
1.0
 70
     8
 71
     3
 72
   132
 73
   128
 74
     0
 42
0.00000001
 43
0.00000001
 40
0.0
 40
0.0
 40
0.0
 40
0.0
 40
0.0039062499999999
 40
0.0039062499999999
 40
0.0078124999999998
 40
0.0078124999999998
 40
0.0156249999999997
 40
0.0156249999999997
 40
0.0234374999999995
 40
0.0234374999999995
 40
0.0312499999999993
 40
0.0312499999999993
 40
0.0624999999999986
 40
0.0624999999999986
 40
0.1249999999999973
 40
0.1249999999999973
 40
0.1874999999999959
 40
0.1874999999999959
 40
0.2187499999999953
 40
0.2187499999999953
 40
0.234374999999995
 40
0.234374999999995
 40
0.2421874999999949
 40
0.2421874999999949
 40
0.2499999999999948
 40
0.2499999999999948
 40
0.2656249999999946
 40
0.2656249999999946
 40
0.2734374999999944
 40
0.2734374999999944
 40
0.2773437499999943
 40
0.2773437499999943
 40
0.2812499999999942
 40
0.2812499999999942
 40
0.2968749999999938
 40
0.2968749999999938
 40
0.3046874999999937
 40
0.3046874999999937
 40
0.3085937499999936
 40
0.3085937499999936
 40
0.3124999999999935
 40
0.3124999999999935
 40
0.3203124999999936
 40
0.3203124999999936
 40
0.3281249999999936
 40
0.3281249999999936
 40
0.3359374999999936
 40
0.3359374999999936
 40
0.3437499999999935
 40
0.3437499999999935
 40
0.3593749999999936
 40
0.3593749999999936
 40
0.3671874999999937
 40
0.3671874999999937
 40
0.3749999999999937
 40
0.3749999999999937
 40
0.3906249999999939
 40
0.3906249999999939
 40
0.4062499999999941
 40
0.4062499999999941
 40
0.4374999999999945
 40
0.4374999999999945
 40
0.4453124999999946
 40
0.4453124999999946
 40
0.4531249999999947
 40
0.4531249999999947
 40
0.4687499999999948
 40
0.4687499999999948
 40
0.4999999999999952
 40
0.4999999999999952
 40
0.5156249999999954
 40
0.5156249999999954
 40
0.5312499999999957
 40
0.5312499999999957
 40
0.5468749999999959
 40
0.5468749999999959
 40
0.562499999999996
 40
0.562499999999996
 40
0.5703124999999962
 40
0.5703124999999962
 40
0.5781249999999963
 40
0.5781249999999963
 40
0.5937499999999967
 40
0.5937499999999967
 40
0.6249999999999972
 40
0.6249999999999972
 40
0.6562499999999979
 40
0.6562499999999979
 40
0.6718749999999981
 40
0.6718749999999981
 40
0.6796874999999981
 40
0.6796874999999981
 40
0.6874999999999981
 40
0.6874999999999981
 40
0.7187499999999983
 40
0.7187499999999983
 40
0.7499999999999986
 40
0.7499999999999986
 40
0.7812499999999988
 40
0.7812499999999988
 40
0.7968749999999989
 40
0.7968749999999989
 40
0.8046874999999989
 40
0.8046874999999989
 40
0.8124999999999989
 40
0.8124999999999989
 40
0.8437499999999991
 40
0.8437499999999991
 40
0.8749999999999993
 40
0.8749999999999993
 40
0.9062499999999996
 40
0.9062499999999996
 40
0.9140624999999996
 40
0.9140624999999996
 40
0.9218749999999997
 40
0.9218749999999997
 40
0.9374999999999997
 40
0.9374999999999997
 40
0.9687499999999998
 40
0.9687499999999998
 40
0.9843749999999999
 40
0.9843749999999999
 40
0.9921875
 40
0.9921875
 40
0.99609375
 40
0.99609375
 40
1.0
 40
1.0
 40
1.0
 40
1.0
 10
-56.05565854467488
 20
113.986172729817
 30
0.0
 10
-55.60728292560172
 20
114.244950479017
 30
0.0
 10
-55.16232217179776
 20
114.5056347952322
 30
0.0
 10
-54.28397925989819
 20
115.0334679195
 30
0.0
 10
-53.8488240588927
 20
115.2996273627762
 30
0.0
 10
-52.53536183283961
 20
116.0936376960942
 30
0.0
 10
-51.64778716953312
 20
116.6162610073246
 30
0.0
 10
-49.85830893422833
 20
117.6534190889277
 30
0.0
 10
-48.95938409337684
 20
118.1695729075799
 30
0.0
 10
-47.16132556771812
 20
119.2017595399912
 30
0.0
 10
-46.26173347853223
 20
119.7175267467849
 30
0.0
 10
-41.76459767101804
 20
122.2968406409032
 30
0.0
 10
-38.16823181954539
 20
124.3610712484785
 30
0.0
 10
-27.37875521268907
 20
130.5535430103258
 30
0.0
 10
-20.18499585419351
 20
134.6814117094478
 30
0.0
 10
-5.77689648785667
 20
142.9251742563593
 30
0.0
 10
1.436278265014647
 20
147.0416780895663
 30
0.0
 10
12.29876390411055
 20
153.1912567033565
 30
0.0
 10
15.9264765981332
 20
155.2370593854054
 30
0.0
 10
21.37950089670543
 20
158.2990127791738
 30
0.0
 10
23.19907495808096
 20
159.3185446481445
 30
0.0
 10
25.92541778339154
 20
160.849621128328
 30
0.0
 10
26.8350641901521
 20
161.3594699330588
 30
0.0
 10
28.69995068489862
 20
162.3522990029375
 30
0.0
 10
29.65428136455703
 20
162.8345966831722
 30
0.0
 10
32.60690792715344
 20
164.1931793779497
 30
0.0
 10
34.70354315755725
 20
164.9824177861314
 30
0.0
 10
38.01699180899504
 20
166.0131998898717
 30
0.0
 10
39.14947485366283
 20
166.3313562653913
 30
0.0
 10
40.89115214276185
 20
166.7695690278285
 30
0.0
 10
41.47896560779882
 20
166.9090453103343
 30
0.0
 10
42.65800655324136
 20
167.1721267204496
 30
0.0
 10
43.25060916299184
 20
167.2960909996406
 30
0.0
 10
46.22895622077303
 20
167.8782187494238
 30
0.0
 10
48.66071202288339
 20
168.2232783541321
 30
0.0
 10
52.38183991677999
 20
168.5602063297287
 30
0.0
 10
53.63450941596046
 20
168.6422960208695
 30
0.0
 10
55.53262710819524
 20
168.718446407921
 30
0.0
 10
56.16634894002508
 20
168.7358881782424
 30
0.0
 10
57.42881685426369
 20
168.7550291709309
 30
0.0
 10
58.05863997646927
 20
168.7567738788638
 30
0.0
 10
59.94396559526201
 20
168.7390229649477
 30
0.0
 10
61.19533306379958
 20
168.6965906732742
 30
0.0
 10
63.68728770069397
 20
168.5519286271591
 30
0.0
 10
64.92790550111013
 20
168.4498687863001
 30
0.0
 10
67.39775588685855
 20
168.1825962272322
 30
0.0
 10
68.62757842788169
 20
168.017290734723
 30
0.0
 10
71.07229594539805
 20
167.6174994464845
 30
0.0
 10
72.26800006842743
 20
167.3846888939528
 30
0.0
 10
75.78728251747081
 20
166.602496361564
 30
0.0
 10
78.04580512836917
 20
165.9727792787797
 30
0.0
 10
81.37092629834595
 20
164.9508235478683
 30
0.0
 10
82.46824084954427
 20
164.5965150398381
 30
0.0
 10
84.64854154471581
 20
163.8702043581688
 30
0.0
 10
85.73248257861789
 20
163.4985003631306
 30
0.0
 10
88.96533167264435
 20
162.3712011745794
 30
0.0
 10
91.09329321176348
 20
161.5989268269577
 30
0.0
 10
95.27146553976472
 20
159.9952435113182
 30
0.0
 10
97.32318167901207
 20
159.1649794624448
 30
0.0
 10
103.3771042605532
 20
156.5971983301258
 30
0.0
 10
107.2763229901521
 20
154.7813522366435
 30
0.0
 10
111.9735035172708
 20
152.3770438357442
 30
0.0
 10
112.9041995278501
 20
151.8895347317222
 30
0.0
 10
114.7479489829962
 20
150.9010981779936
 30
0.0
 10
115.6618139564586
 20
150.3997123516623
 30
0.0
 10
118.3708329883295
 20
148.8784566654986
 30
0.0
 10
120.1290919119955
 20
147.8441051684574
 30
0.0
 10
125.2639251158449
 20
144.6819096501352
 30
0.0
 10
128.500428298183
 20
142.4948707063851
 30
0.0
 10
133.0804537301149
 20
139.0982099518432
 30
0.0
 10
134.5610283181257
 20
137.9465073168954
 30
0.0
 10
137.4320593048023
 20
135.6050175362523
 30
0.0
 10
138.822620139318
 20
134.4152745258006
 30
0.0
 10
141.508536267969
 20
131.995554047767
 30
0.0
 10
142.8035302798232
 20
130.7654239000321
 30
0.0
 10
145.3096879012297
 20
128.2697363519664
 30
0.0
 10
146.520967148454
 20
127.0042278208394
 30
0.0
 10
148.265289735087
 20
125.0752853801602
 30
0.0
 10
148.835266792303
 20
124.4264139343458
 30
0.0
 10
149.9468943339361
 20
123.1218235684479
 30
0.0
 10
150.4878759551262
 20
122.4669383143782
 30
0.0
 10
152.0674322581942
 20
120.4947058043372
 30
0.0
 10
153.0630367424302
 20
119.1698548573455
 30
0.0
 10
155.8952426249731
 20
115.168303596545
 30
0.0
 10
157.5769217482237
 20
112.4645499074206
 30
0.0
 10
160.511287266301
 20
106.9821294717342
 30
0.0
 10
161.7607812286149
 20
104.2029052451396
 30
0.0
 10
163.31231180103
 20
99.97771545456935
 30
0.0
 10
163.7759202898618
 20
98.55996445608548
 30
0.0
 10
164.3904590887476
 20
96.41921530944603
 30
0.0
 10
164.5817931262007
 20
95.7032726812348
 30
0.0
 10
164.9371514770814
 20
94.26661845137974
 30
0.0
 10
165.1013525654224
 20
93.54499431916263
 30
0.0
 10
165.8504027294025
 20
89.93879541676395
 30
0.0
 10
166.2203628001164
 20
87.0590789975805
 30
0.0
 10
166.5140613016114
 20
81.30984943379177
 30
0.0
 10
166.4383186657858
 20
78.44032442328995
 30
0.0
 10
165.8408940372603
 20
72.71147122219844
 30
0.0
 10
165.3190038655688
 20
69.8521477918159
 30
0.0
 10
164.186311558428
 20
65.57116245445586
 30
0.0
 10
163.7505308606082
 20
64.14549851883292
 30
0.0
 10
163.0076726695327
 20
62.00904196275672
 30
0.0
 10
162.7449203973305
 20
61.29665839600677
 30
0.0
 10
162.1922449912291
 20
59.87992036573841
 30
0.0
 10
161.9020594362516
 20
59.17473880009067
 30
0.0
 10
160.382394665516
 20
55.66465260998605
 30
0.0
 10
158.9469182180132
 20
52.90716369837815
 30
0.0
 10
155.6582357939767
 20
47.48833737792476
 30
0.0
 10
153.8064741393227
 20
44.82666752018688
 30
0.0
 10
149.6881955131792
 20
39.59879471384947
 30
0.0
 10
147.4206692018318
 20
37.03282409152183
 30
0.0
 10
144.3185337374287
 20
33.88698539817995
 30
0.0
 10
143.6847185456549
 20
33.26089928467388
 30
0.0
 10
142.3900618776947
 20
32.01494787203985
 30
0.0
 10
141.7290642757111
 20
31.39497711329017
 30
0.0
 10
139.7132488283235
 20
29.55173891569116
 30
0.0
 10
138.3231641847995
 20
28.34266591493586
 30
0.0
 10
134.0149987752281
 20
24.77440013537149
 30
0.0
 10
130.9608022054194
 20
22.47339297932974
 30
0.0
 10
126.0889803393293
 20
19.14607425398798
 30
0.0
 10
124.4156531507956
 20
18.05647954428052
 30
0.0
 10
121.8370995482121
 20
16.460752559965
 30
0.0
 10
120.9651377905678
 20
15.93558857106515
 30
0.0
 10
119.6314179916917
 20
15.16181467443058
 30
0.0
 10
119.1826241368999
 20
14.90630259732985
 30
0.0
 10
118.2855682330646
 20
14.39500946492135
 30
0.0
 10
117.8389729570603
 20
14.1382415282198
 30
0.0
 10
117.3932264985389
 20
13.88098124718753
 30
0.0
  0
LWPOLYLINE
  5
78
330
1F
100
AcDbEntity
  8
0
  6
Continuous
 62
     7
370
    25
100
AcDbPolyline
 90
       47
 70
   128
 43
0.0
 10
-70.0310110396
 20
137.9646057864
 10
-68.2818936001
 20
136.8068683273
 10
-66.8222141071
 20
135.5224545845
 10
-65.6791636277
 20
134.1352907559
 10
-64.8740350295
 20
132.6712170788
 10
-64.421826335
 20
131.1575064758
 10
-64.3309613366
 20
129.6223565114
 10
-64.6031326773
 20
128.0943641247
 10
-65.2332703199
 20
126.6019929229
 10
-66.2096359924
 20
125.1730429579
 10
-67.5140418498
 20
123.8341328637
 10
-69.1221892789
 20
122.6102040021
 10
-71.0041215358
 20
121.524055852
 10
-73.1247817834
 20
120.5959212984
 10
-75.4446661337
 20
119.843089732
 10
-77.9205595306
 20
119.2795849804
 10
-80.5063407647
 20
118.9159040709
 10
-83.1538416241
 20
118.7588216908
 10
-85.8137441771
 20
118.8112639875
 10
-88.4364994718
 20
119.0722540604
 10
-90.9732505396
 20
119.5369301582
 10
-93.3767425077
 20
120.1966362444
 10
-95.6022028684
 20
121.0390832428
 10
-97.6081755059
 20
122.0485779598
 10
-99.3572929454
 20
123.2063154189
 10
-100.8169724384
 20
124.4907291617
 10
-101.9600229178
 20
125.8778929904
 10
-102.765151516
 20
127.3419666675
 10
-103.2173602105
 20
128.8556772705
 10
-103.3082252089
 20
130.3908272349
 10
-103.0360538682
 20
131.9188196215
 10
-102.4059162256
 20
133.4111908233
 10
-101.4295505531
 20
134.8401407884
 10
-100.1251446957
 20
136.1790508826
 10
-98.5169972666
 20
137.4029797442
 10
-96.6350650097
 20
138.4891278942
 10
-94.5144047621
 20
139.4172624478
 10
-92.1945204118
 20
140.1700940142
 10
-89.7186270149
 20
140.7335987658
 10
-87.1328457808
 20
141.0972796753
 10
-84.4853449214
 20
141.2543620555
 10
-81.8254423684
 20
141.2019197587
 10
-79.2026870736
 20
140.9409296858
 10
-76.6659360059
 20
140.476253588
 10
-74.2624440378
 20
139.8165475018
 10
-72.0369836771
 20
138.9741005034
 10
-70.0310110396
 20
137.9646057864
  0
SPLINE
  5
7B
330
1F
100
AcDbEntity
  8
0
  6
Continuous
 62
     7
370
    25
100
AcDbSpline
210
0.0
220
0.0
230
1.0
 70
     8
 71
     3
 72
    15
 73
    11
 74
     0
 42
0.00000001
 43
0.00000001
 40
-62.61572803091801
 40
-62.61572803091801
 40
-62.61572803091801
 40
-62.61572803091801
 40
-62.2152612635439
 40
-62.2152612635439
 40
-62.2152612635439
 40
-59.3712366931057
 40
-59.3712366931057
 40
-55.7703714874279
 40
-55.7703714874279
 40
-49.967047710024
 40
-49.967047710024
 40
-49.967047710024
 40
-49.967047710024
 10
113.3956354556492
 20
-67.95374902224327
 30
0.0
 10
113.6613187754773
 20
-67.27046790825894
 30
0.0
 10
113.9270020953055
 20
-66.58718679427461
 30
0.0
 10
114.1926854151336
 20
-65.90390568029025
 30
0.0
 10
116.07950837051
 20
-61.05139746985868
 30
0.0
 10
117.5862289600498
 20
-54.42843309074646
 30
0.0
 10
119.8237853418971
 20
-42.967939004638
 30
0.0
 10
120.8426217367866
 20
-36.04033247716915
 30
0.0
 10
122.8765699969914
 20
-18.46770788087176
 30
0.0
 10
123.7552238013419
 20
-5.975099700624958
 30
0.0
 10
123.7742539647061
 20
6.107574799099208
 30
0.0
  0
SPLINE
  5
7C
330
1F
100
AcDbEntity
  8
0
  6
Continuous
 62
     7
370
    25
100
AcDbSpline
210
0.0
220
0.0
230
1.0
 70
     8
 71
     3
 72
    38
 73
    34
 74
     0
 42
0.00000001
 43
0.00000001
 40
0.0
 40
0.0
 40
0.0
 40
0.0
 40
0.0625000000000001
 40
0.0625000000000001
 40
0.1250000000000002
 40
0.1250000000000002
 40
0.1875000000000002
 40
0.1875000000000002
 40
0.2500000000000003
 40
0.2500000000000003
 40
0.3125000000000003
 40
0.3125000000000003
 40
0.3750000000000003
 40
0.3750000000000003
 40
0.4375000000000004
 40
0.4375000000000004
 40
0.5000000000000003
 40
0.5000000000000003
 40
0.5625000000000002
 40
0.5625000000000002
 40
0.6250000000000002
 40
0.6250000000000002
 40
0.6875000000000002
 40
0.6875000000000002
 40
0.7500000000000001
 40
0.7500000000000001
 40
0.8125000000000001
 40
0.8125000000000001
 40
0.8750000000000001
 40
0.8750000000000001
 40
0.9375000000000001
 40
0.9375000000000001
 40
1.0
 40
1.0
 40
1.0
 40
1.0
 10
-113.393557194017
 20
-67.95154688333008
 30
0.0
 10
-110.0526930688982
 20
-69.87977542485032
 30
0.0
 10
-106.5025087747594
 20
-71.75818033371826
 30
0.0
 10
-98.98953458830827
 20
-75.37673060726341
 30
0.0
 10
-95.02669101205203
 20
-77.11682089895805
 30
0.0
 10
-86.70763820250062
 20
-80.41874214896526
 30
0.0
 10
-82.3514011295295
 20
-81.98050561143444
 30
0.0
 10
-73.27940735548006
 20
-84.88631647631004
 30
0.0
 10
-68.56365759964585
 20
-86.23028871800095
 30
0.0
 10
-58.82143686564103
 20
-88.66376441042203
 30
0.0
 10
-53.79501343838096
 20
-89.75319209085514
 30
0.0
 10
-43.49439731609446
 20
-91.6458234447487
 30
0.0
 10
-38.22029356881065
 20
-92.44895927609286
 30
0.0
 10
-27.49937219276481
 20
-93.7444376338811
 30
0.0
 10
-22.05267952163288
 20
-94.23672888655294
 30
0.0
 10
-11.07050323043743
 20
-94.89495448774937
 30
0.0
 10
-5.535169152250725
 20
-95.06086120401255
 30
0.0
 10
5.535666952293385
 20
-95.06096870260497
 30
0.0
 10
11.07101070001181
 20
-94.89516948339732
 30
0.0
 10
22.05322536074746
 20
-94.23715715797243
 30
0.0
 10
27.49994673027715
 20
-93.74497168111237
 30
0.0
 10
38.22094362901332
 20
-92.44970152584942
 30
0.0
 10
43.49509419760076
 20
-91.646668118792
 30
0.0
 10
53.7958206579283
 20
-89.75423680537497
 30
0.0
 10
58.82230759797082
 20
-88.6649067394043
 30
0.0
 10
68.56467020254792
 20
-86.23162024364947
 30
0.0
 10
73.28049831175436
 20
-84.8877395832389
 30
0.0
 10
82.35266149476058
 20
-81.98210489939564
 30
0.0
 10
86.7089896189343
 20
-80.42042603654359
 30
0.0
 10
95.02823493182932
 20
-77.11866634557418
 30
0.0
 10
98.99117995629162
 20
-75.37865301384086
 30
0.0
 10
106.5043651065944
 20
-71.76024864535319
 30
0.0
 10
110.0546589131679
 20
-69.88191268262398
 30
0.0
 10
113.3956354556491
 20
-67.95374902224366
 30
0.0
  0
SPLINE
  5
7D
330
1F
100
AcDbEntity
  8
0
  6
Continuous
 62
     7
370
    25
100
AcDbSpline
210
0.0
220
0.0
230
1.0
 70
     8
 71
     3
 72
    15
 73
    11
 74
     0
 42
0.00000001
 43
0.00000001
 40
-62.61572803091801
 40
-62.61572803091801
 40
-62.61572803091801
 40
-62.61572803091801
 40
-62.2152612635439
 40
-62.2152612635439
 40
-62.2152612635439
 40
-59.3712366931057
 40
-59.3712366931057
 40
-55.7703714874279
 40
-55.7703714874279
 40
-49.967047710024
 40
-49.967047710024
 40
-49.967047710024
 40
-49.967047710024
 10
-113.3935571940171
 20
-67.95154688332968
 30
0.0
 10
-113.6588628008103
 20
-67.2684837646067
 30
0.0
 10
-113.9241684076035
 20
-66.58542064588372
 30
0.0
 10
-114.1894740143967
 20
-65.9023575271607
 30
0.0
 10
-116.0736145370732
 20
-61.0513974698595
 30
0.0
 10
-117.580335126613
 20
-54.42843309074729
 30
0.0
 10
-119.8178915084604
 20
-42.96793900463884
 30
0.0
 10
-120.8367279033492
 20
-36.0403324771696
 30
0.0
 10
-122.8706761635541
 20
-18.46770788087223
 30
0.0
 10
-123.7493299679053
 20
-5.975099700625791
 30
0.0
 10
-123.7683601312696
 20
6.10757479909832
 30
0.0
  0
SPLINE
  5
7E
330
1F
100
AcDbEntity
  8
0
  6
Continuous
 62
     7
370
    25
100
AcDbSpline
210
0.0
220
0.0
230
1.0
 70
     8
 71
     3
 72
     9
 73
     5
 74
     0
 42
0.00000001
 43
0.00000001
 40
0.0
 40
0.0
 40
0.0
 40
0.0
 40
0.7047500038190818
 40
1.0
 40
1.0
 40
1.0
 40
1.0
 10
160.4609831779387
 20
67.77489267371843
 30
0.0
 10
160.8494058701053
 20
69.77096743401209
 30
0.0
 10
161.4005554835309
 20
72.60328350279796
 30
0.0
 10
161.3378228745311
 20
75.45276127579564
 30
0.0
 10
161.3193010719635
 20
76.29406957739081
 30
0.0
  0
SPLINE
  5
7F
330
1F
100
AcDbEntity
  8
0
  6
Continuous
 62
     7
370
    25
100
AcDbSpline
210
0.0
220
0.0
230
1.0
 70
     8
 71
     3
 72
     9
 73
     5
 74
     0
 42
0.00000001
 43
0.00000001
 40
0.0
 40
0.0
 40
0.0
 40
0.0
 40
0.7563148046636344
 40
1.0
 40
1.0
 40
1.0
 40
1.0
 10
174.7648966711843
 20
82.21130020387777
 30
0.0
 10
174.9727243979522
 20
79.8150819412696
 30
0.0
 10
175.2475143736164
 20
76.64680036350269
 30
0.0
 10
174.8200199900566
 20
73.48860522724038
 30
0.0
 10
174.7158459376936
 20
72.71899982854993
 30
0.0
  0
SPLINE
  5
80
330
1F
100
AcDbEntity
  8
0
  6
Continuous
 62
     7
370
    25
100
AcDbSpline
210
0.0
220
0.0
230
1.0
 70
     8
 71
     3
 72
     9
 73
     5
 74
     0
 42
0.00000001
 43
0.00000001
 40
0.0
 40
0.0
 40
0.0
 40
0.0
 40
0.7811850482721558
 40
1.0
 40
1.0
 40
1.0
 40
1.0
 10
-174.7502683993173
 20
72.57371081295425
 30
0.0
 10
-174.971648493049
 20
75.05889325469822
 30
0.0
 10
-175.25503857357
 20
78.24019126755799
 30
0.0
 10
-174.8319798715201
 20
81.41140700641137
 30
0.0
 10
-174.739408302053
 20
82.10531642522713
 30
0.0
  0
SPLINE
  5
81
330
1F
100
AcDbEntity
  8
0
  6
Continuous
 62
     7
370
    25
100
AcDbSpline
210
0.0
220
0.0
230
1.0
 70
     8
 71
     3
 72
     9
 73
     5
 74
     0
 42
0.00000001
 43
0.00000001
 40
0.0
 40
0.0
 40
0.0
 40
0.0
 40
0.3783551035682153
 40
1.0
 40
1.0
 40
1.0
 40
1.0
 10
149.2697142754796
 20
-36.12096492836896
 30
0.0
 10
150.1144898312839
 20
-34.92572243617278
 30
0.0
 10
152.3472482844866
 20
-31.76667295877968
 30
0.0
 10
153.8833722254664
 20
-28.46988698896304
 30
0.0
 10
154.8382958336632
 20
-26.42045681619862
 30
0.0
  0
SPLINE
  5
82
330
1F
100
AcDbEntity
  8
0
  6
Continuous
 62
     7
370
    25
100
AcDbSpline
210
0.0
220
0.0
230
1.0
 70
     8
 71
     3
 72
     9
 73
     5
 74
     0
 42
0.00000001
 43
0.00000001
 40
0.0
 40
0.0
 40
0.0
 40
0.0
 40
0.7408848150838039
 40
1.0
 40
1.0
 40
1.0
 40
1.0
 10
-154.8920079581596
 20
-26.46994854485105
 30
0.0
 10
-153.7014644834598
 20
-28.92958716104298
 30
0.0
 10
-152.0945433393611
 20
-32.24945357767848
 30
0.0
 10
-149.788086425305
 20
-35.42437008549922
 30
0.0
 10
-149.1904484155181
 20
-36.24703916351666
 30
0.0
  0
LWPOLYLINE
  5
83
330
1F
100
AcDbEntity
  8
0
  6
Continuous
 62
     7
370
    25
100
AcDbPolyline
 90
       19
 70
   128
 43
0.0
 10
4.0626175903
 20
-13.4172959325
 10
4.2591672849
 20
-13.1333545974
 10
5.4741039881
 20
-11.7114720503
 10
7.0002173215
 20
-10.3932782024
 10
8.8113950627
 20
-9.201327716
 10
10.8766474584
 20
-8.1560151943
 10
13.1606374676
 20
-7.2752262245
 10
15.6242853879
 20
-6.57403135
 10
18.2254375205
 20
-6.0644282096
 10
20.919587431
 20
-5.7551362542
 10
23.6606374676
 20
-5.6514475549
 10
26.4016875042
 20
-5.7551362542
 10
29.0958374148
 20
-6.0644282096
 10
31.6969895473
 20
-6.57403135
 10
34.1606374676
 20
-7.2752262245
 10
36.4446274768
 20
-8.1560151943
 10
38.5098798725
 20
-9.201327716
 10
40.3210576137
 20
-10.3932782024
 10
40.498558831
 20
-10.5287405153
  0
LWPOLYLINE
  5
84
330
1F
100
AcDbEntity
  8
0
  6
Continuous
 62
     7
370
    25
100
AcDbPolyline
 90
       15
 70
   128
 43
0.0
 10
-72.1523313832
 20
128.573880402
 10
-73.9754320541
 20
129.4825569734
 10
-76.0083439304
 20
130.2283494695
 10
-78.207739025
 20
130.7953626182
 10
-80.5267410499
 20
131.1715115184
 10
-82.915924503
 20
131.3487792096
 10
-85.324368087
 20
131.3233875385
 10
-87.7007400084
 20
131.0958776846
 10
-89.9943920253
 20
130.6710986255
 10
-92.1564389272
 20
130.0581037893
 10
-94.140800438
 20
129.2699580966
 10
-95.9051833373
 20
128.3234595046
 10
-97.4119828667
 20
127.2387809876
 10
-98.6290842104
 20
126.0390405848
 10
-99.3948478141
 20
124.9834430817
  0
SPLINE
  5
86
330
1F
100
AcDbEntity
  8
0
  6
Continuous
 62
     7
370
    25
100
AcDbSpline
210
0.0
220
0.0
230
1.0
 70
     8
 71
     3
 72
    22
 73
    18
 74
     0
 42
0.00000001
 43
0.00000001
 40
0.0
 40
0.0
 40
0.0
 40
0.0
 40
0.0060577477459986
 40
0.0182125247683982
 40
0.0408746900237474
 40
0.0871512219558993
 40
0.1334416043665338
 40
0.5048475231003521
 40
0.6372078929441849
 40
0.7034442489070913
 40
0.7696071333920698
 40
0.8121242659319412
 40
0.8560469061613856
 40
0.8986418367446067
 40
0.9425881858861869
 40
0.9841792800467623
 40
1.0
 40
1.0
 40
1.0
 40
1.0
 10
-52.56372487731595
 20
108.5268863683252
 30
0.0
 10
-52.78739966599767
 20
108.3983129573441
 30
0.0
 10
-53.45987445361536
 20
108.0117589887344
 30
0.0
 10
-55.00764207424834
 20
107.1999552058125
 30
0.0
 10
-58.03285415196985
 20
105.3051393547729
 30
0.0
 10
-62.25611483176012
 20
102.882804037462
 30
0.0
 10
-79.33360207230425
 20
93.02278942943425
 30
0.0
 10
-99.63667645967695
 20
81.40019199264752
 30
0.0
 10
-120.4103763013712
 20
69.39196502475492
 30
0.0
 10
-130.2287273129617
 20
63.9533806489333
 30
0.0
 10
-136.664128610754
 20
60.3848248445484
 30
0.0
 10
-141.3210978555452
 20
56.81082967452409
 30
0.0
 10
-144.1356641403703
 20
53.31911195822322
 30
0.0
 10
-145.9243839636187
 20
49.52170188262359
 30
0.0
 10
-146.4174549376923
 20
45.6208737468725
 30
0.0
 10
-146.135306074114
 20
42.4847944478221
 30
0.0
 10
-145.2984892257678
 20
40.76175971742794
 30
0.0
 10
-145.0678913041694
 20
40.28695064964218
 30
0.0
  0
SPLINE
  5
88
330
1F
100
AcDbEntity
  8
0
  6
Continuous
 62
     7
370
    25
100
AcDbSpline
210
0.0
220
0.0
230
1.0
 70
     8
 71
     3
 72
    39
 73
    35
 74
     0
 42
0.00000001
 43
0.00000001
 40
0.0
 40
0.0
 40
0.0
 40
0.0
 40
0.0269228255074708
 40
0.0668086584905704
 40
0.1054842551480536
 40
0.1444223063937958
 40
0.1841911123155212
 40
0.2242401696613432
 40
0.2631786064636188
 40
0.3023857405365596
 40
0.3424614149885143
 40
0.3828406245513846
 40
0.4100340105041623
 40
0.4372274652351352
 40
0.4647976890446344
 40
0.4923714214158439
 40
0.5154509433024115
 40
0.5271419487721436
 40
0.5388219017295742
 40
0.5577194985737088
 40
0.5771853201590893
 40
0.5961112842199245
 40
0.6156051189919483
 40
0.6346943477714326
 40
0.6445435036932616
 40
0.6543973947112371
 40
0.69704934433404
 40
0.739714342030397
 40
0.8250550306808652
 40
0.9125326586065596
 40
0.956287330585669
 40
0.9780816217556972
 40
0.9887234941567125
 40
1.0
 40
1.0
 40
1.0
 40
1.0
 10
161.3193010719635
 20
76.29406957739081
 30
0.0
 10
161.3626209719117
 20
78.07996996613824
 30
0.0
 10
161.4701187678129
 20
82.5116596911597
 30
0.0
 10
160.3339593978157
 20
89.48583928766732
 30
0.0
 10
158.1277821514396
 20
97.16699800327066
 30
0.0
 10
154.8021590968479
 20
104.7076603394887
 30
0.0
 10
150.3379919274204
 20
112.1379253636481
 30
0.0
 10
144.8449686807588
 20
119.3516273345198
 30
0.0
 10
138.3025897839778
 20
126.2108777598713
 30
0.0
 10
130.8299184294372
 20
132.7556508004729
 30
0.0
 10
122.3045270463459
 20
138.997274611364
 30
0.0
 10
113.8306414941372
 20
144.2259504898838
 30
0.0
 10
105.8222526170205
 20
148.5123041997046
 30
0.0
 10
98.54236531043495
 20
151.9892142074828
 30
0.0
 10
90.88094127366958
 20
155.2314578560737
 30
0.0
 10
83.31599742143874
 20
158.05781553625
 30
0.0
 10
77.12513324136916
 20
160.1805849582133
 30
0.0
 10
72.30787217176714
 20
161.5787823198624
 30
0.0
 10
67.75105205776897
 20
162.6285581683332
 30
0.0
 10
62.10433751021818
 20
163.3527243358585
 30
0.0
 10
55.52907282267645
 20
163.5231426885475
 30
0.0
 10
48.94758124263499
 20
162.9969399647269
 30
0.0
 10
42.67142075265958
 20
161.778390809065
 30
0.0
 10
37.73984128380572
 20
160.2273367606374
 30
0.0
 10
34.11516399226803
 20
158.6543719906259
 30
0.0
 10
28.73631346037694
 20
155.7798729368592
 30
0.0
 10
21.03154674380301
 20
151.1793504147794
 30
0.0
 10
7.242358830407701
 20
143.0370251358236
 30
0.0
 10
-10.30599920066578
 20
132.9227594386365
 30
0.0
 10
-27.84284878473182
 20
122.7391174997227
 30
0.0
 10
-40.22984606324841
 20
115.6153069292993
 30
0.0
 10
-46.4233489441563
 20
111.9817136272519
 30
0.0
 10
-49.92946680746284
 20
110.1317717477875
 30
0.0
 10
-51.66885124440783
 20
109.0720757809937
 30
0.0
 10
-52.56372487731593
 20
108.5268863683252
 30
0.0
  0
SPLINE
  5
89
330
1F
100
AcDbEntity
  8
0
  6
Continuous
 62
     7
370
    25
100
AcDbSpline
210
0.0
220
0.0
230
1.0
 70
     8
 71
     3
 72
    14
 73
    10
 74
     0
 42
0.00000001
 43
0.00000001
 40
0.0
 40
0.0
 40
0.0
 40
0.0
 40
0.1291164656693987
 40
0.2581835617138205
 40
0.443739543974046
 40
0.6295276259391674
 40
0.8097082292380163
 40
0.9898715482494134
 40
1.0
 40
1.0
 40
1.0
 40
1.0
 10
47.44287862500443
 20
8.575326523920262
 30
0.0
 10
48.34201525002248
 20
8.006954602255604
 30
0.0
 10
50.13994470163016
 20
6.870428084489493
 30
0.0
 10
52.74601093795667
 20
4.651603904166461
 30
0.0
 10
55.00895638839042
 20
1.960499778776305
 30
0.0
 10
56.63064144756463
 20
-1.126508548537207
 30
0.0
 10
57.291905781465
 20
-4.258082176394229
 30
0.0
 10
57.44073677478234
 20
-6.427029391495857
 30
0.0
 10
57.08447873140636
 20
-7.516372586212072
 30
0.0
 10
57.06551657456353
 20
-7.574353863822409
 30
0.0
  0
SPLINE
  5
8A
330
1F
100
AcDbEntity
  8
0
  6
Continuous
 62
     7
370
    25
100
AcDbSpline
210
0.0
220
0.0
230
1.0
 70
     8
 71
     3
 72
    24
 73
    20
 74
     0
 42
0.00000001
 43
0.00000001
 40
0.0
 40
0.0
 40
0.0
 40
0.0
 40
0.0502159629749758
 40
0.1106374867189242
 40
0.1710932881910517
 40
0.2315521540009709
 40
0.2925074012846673
 40
0.3534608371648415
 40
0.4144658968698856
 40
0.4754673571748551
 40
0.5359260661959168
 40
0.5963886127055805
 40
0.6573217970404468
 40
0.7182534159746429
 40
0.7794431191200011
 40
0.8406299847125175
 40
0.9014217561682517
 40
0.9622169370659586
 40
1.0
 40
1.0
 40
1.0
 40
1.0
 10
-6.735458699707687
 20
-13.39542038256784
 30
0.0
 10
-7.358391951645422
 20
-12.53364647900988
 30
0.0
 10
-8.73085929678789
 20
-10.63495743351409
 30
0.0
 10
-9.772776242988474
 20
-7.500548577100669
 30
0.0
 10
-10.00655550446591
 20
-4.150902640334777
 30
0.0
 10
-9.284981262860132
 20
-0.8287763563121289
 30
0.0
 10
-7.61827555859618
 20
2.36112088425762
 30
0.0
 10
-5.070081027879299
 20
5.342212130417849
 30
0.0
 10
-1.678326498778584
 20
8.015881957215795
 30
0.0
 10
2.424296233353011
 20
10.31795780023289
 30
0.0
 10
7.138444817633532
 20
12.16881448564561
 30
0.0
 10
12.31030751255064
 20
13.53760447930463
 30
0.0
 10
17.82856438140118
 20
14.3627649910536
 30
0.0
 10
23.53980936878177
 20
14.63629702483371
 30
0.0
 10
29.27247664782006
 20
14.31769263506284
 30
0.0
 10
34.85641628857161
 20
13.43969615934458
 30
0.0
 10
40.0976648346004
 20
11.99849725360721
 30
0.0
 10
44.30216783009529
 20
10.32732113231166
 30
0.0
 10
46.57264881835192
 20
9.060770115793794
 30
0.0
 10
47.44287862500443
 20
8.575326523920262
 30
0.0
  0
SPLINE
  5
8E
330
1F
100
AcDbEntity
  8
0
  6
Continuous
 62
     7
370
    25
100
AcDbSpline
210
0.0
220
0.0
230
1.0
 70
     8
 71
     3
 72
    16
 73
    12
 74
     0
 42
0.00000001
 43
0.00000001
 40
0.0
 40
0.0
 40
0.0
 40
0.0
 40
0.0849116774021077
 40
0.1976221230822946
 40
0.3103325687624813
 40
0.4263174967496457
 40
0.5423024247368101
 40
0.659357692954076
 40
0.7728384760142442
 40
0.8865192169398316
 40
1.0
 40
1.0
 40
1.0
 40
1.0
 10
174.7158459376936
 20
72.71899982854993
 30
0.0
 10
174.5258457814373
 20
70.61237226548528
 30
0.0
 10
174.0836423600219
 20
65.70943989747883
 30
0.0
 10
171.9428080178339
 20
58.08766730360634
 30
0.0
 10
168.5534199064692
 20
49.83273762403135
 30
0.0
 10
163.878416549251
 20
41.69788476873115
 30
0.0
 10
157.9579048215923
 20
33.72296353095713
 30
0.0
 10
150.923996451483
 20
26.12299244990671
 30
0.0
 10
142.8296374811125
 20
18.95643310347796
 30
0.0
 10
133.8859099013504
 20
12.23693026068416
 30
0.0
 10
127.1428274213516
 20
8.1494939707574
 30
0.0
 10
123.774253964706
 20
6.107574799099957
 30
0.0
  0
SPLINE
  5
8F
330
1F
100
AcDbEntity
  8
0
  6
Continuous
 62
     7
370
    25
100
AcDbSpline
210
0.0
220
0.0
230
1.0
 70
     8
 71
     3
 72
    18
 73
    14
 74
     0
 42
0.00000001
 43
0.00000001
 40
0.0
 40
0.0
 40
0.0
 40
0.0
 40
0.0746279547453608
 40
0.1492559094907216
 40
0.2248040076728773
 40
0.300352105855033
 40
0.4128809381708084
 40
0.526191077712045
 40
0.6419654170253949
 40
0.7585912438732763
 40
0.8711200761890516
 40
0.9844302157302884
 40
1.0
 40
1.0
 40
1.0
 40
1.0
 10
-123.7683601312696
 20
6.107574799099097
 30
0.0
 10
-125.9987371557057
 20
7.436419963261817
 30
0.0
 10
-130.459491204578
 20
10.09411029158722
 30
0.0
 10
-136.6831204536718
 20
14.35895797193028
 30
0.0
 10
-142.5401994436119
 20
18.81959580283118
 30
0.0
 10
-148.8604620665674
 20
24.24447851043551
 30
0.0
 10
-155.3317166700323
 20
30.72367835329971
 30
0.0
 10
-161.5857698936196
 20
38.39371176220084
 30
0.0
 10
-166.7512370380348
 20
46.4363694712444
 30
0.0
 10
-170.7316605582181
 20
54.68564134865847
 30
0.0
 10
-173.3516386251828
 20
63.03899552220488
 30
0.0
 10
-174.6666100941947
 20
68.99345882904531
 30
0.0
 10
-174.74125113109
 20
72.18780659922236
 30
0.0
 10
-174.7502683993173
 20
72.57371081295425
 30
0.0
  0
SPLINE
  5
91
330
1F
100
AcDbEntity
  8
0
  6
Continuous
 62
     7
370
    25
100
AcDbSpline
210
0.0
220
0.0
230
1.0
 70
     8
 71
     3
 72
    15
 73
    11
 74
     0
 42
0.00000001
 43
0.00000001
 40
0.0
 40
0.0
 40
0.0
 40
0.0
 40
0.000000905249683
 40
0.2203009786809793
 40
0.4424544429896232
 40
0.5565178743188908
 40
0.6705813056481584
 40
0.7856748576798736
 40
0.9007684097115887
 40
1.0
 40
1.0
 40
1.0
 40
1.0
 10
113.3956354556492
 20
-67.95374902224327
 30
0.0
 10
113.395649598021
 20
-67.95374086031406
 30
0.0
 10
116.8373280675439
 20
-65.9674590250476
 30
0.0
 10
123.4381808744369
 20
-61.79408329669945
 30
0.0
 10
130.8750994405485
 20
-56.12993634193536
 30
0.0
 10
136.317644861755
 20
-51.32188939160113
 30
0.0
 10
140.1693706977856
 20
-47.54957879239897
 30
0.0
 10
143.6929150307122
 20
-43.65904875978131
 30
0.0
 10
146.8421761515714
 20
-39.86746005200823
 30
0.0
 10
148.5014690315737
 20
-37.30662171855704
 30
0.0
 10
149.2697142754796
 20
-36.12096492836896
 30
0.0
  0
LWPOLYLINE
  5
92
330
1F
100
AcDbEntity
  8
0
  6
Continuous
 62
     7
370
    25
100
AcDbPolyline
 90
       10
 70
   128
 43
0.0
 10
-149.1904484155
 20
-36.2470391635
 10
-145.8980913293
 20
-40.9193480805
 10
-139.7023294712
 20
-47.9486785634
 10
-132.4354797203
 20
-54.6960202156
 10
-129.2807251406
 20
-57.2676055677
 10
-122.5214338552
 20
-62.22026408
 10
-115.1580445794
 20
-66.9170475237
 10
-113.3935996197
 20
-67.9515223967
 10
-113.393557194
 20
-67.9515468833
 10
-113.393557194
 20
-67.9515468833
  0
SPLINE
  5
93
330
1F
100
AcDbEntity
  8
0
  6
Continuous
 62
     7
370
    25
100
AcDbSpline
210
0.0
220
0.0
230
1.0
 70
     8
 71
     3
 72
    25
 73
    21
 74
     0
 42
0.00000001
 43
0.00000001
 40
0.0
 40
0.0
 40
0.0
 40
0.0
 40
0.0378370685237936
 40
0.0985494404373553
 40
0.1592591213772903
 40
0.1595984884637465
 40
0.2209299287834494
 40
0.2822633045557506
 40
0.3433955650647227
 40
0.404529166227842
 40
0.4652110502656271
 40
0.5258895227179619
 40
0.5871068210189149
 40
0.6483272361813738
 40
0.7094994133760855
 40
0.7706731443483551
 40
0.8313089515322876
 40
0.891942222711112
 40
0.9524776411447955
 40
1.0
 40
1.0
 40
1.0
 40
1.0
 10
46.1329826999787
 20
7.1812897434054
 30
0.0
 10
45.31137662540373
 20
7.641240765992069
 30
0.0
 10
43.17144290251558
 20
8.839217186284811
 30
0.0
 10
39.21141979258851
 20
10.42042353451613
 30
0.0
 10
35.91946824773648
 20
11.33361763806397
 30
0.0
 10
32.50843723072678
 20
12.06982957322467
 30
0.0
 10
28.97140820438971
 20
12.63282355590728
 30
0.0
 10
23.54977301657725
 20
12.94088828956783
 30
0.0
 10
18.14453631811362
 20
12.68797683002559
 30
0.0
 10
12.91903139478471
 20
11.91072463225844
 30
0.0
 10
8.02107097980571
 20
10.61673935901756
 30
0.0
 10
3.556920609846975
 20
8.864856310737201
 30
0.0
 10
-0.3274889391964764
 20
6.685302781059457
 30
0.0
 10
-3.538105878957366
 20
4.153569513048051
 30
0.0
 10
-5.948092865907096
 20
1.330073297024663
 30
0.0
 10
-7.520438767587732
 20
-1.69090743721019
 30
0.0
 10
-8.195599367618666
 20
-4.836499805503956
 30
0.0
 10
-7.963020639477936
 20
-8.00561216791066
 30
0.0
 10
-6.991178113566363
 20
-10.92295766601079
 30
0.0
 10
-5.725208225220435
 20
-12.67364282892237
 30
0.0
 10
-5.168451674759309
 20
-13.44357064570453
 30
0.0
  0
SPLINE
  5
94
330
1F
100
AcDbEntity
  8
0
  6
Continuous
 62
     7
370
    25
100
AcDbSpline
210
0.0
220
0.0
230
1.0
 70
     8
 71
     3
 72
    13
 73
     9
 74
     0
 42
0.00000001
 43
0.00000001
 40
0.0
 40
0.0
 40
0.0
 40
0.0
 40
0.1817931685998649
 40
0.3643200724161749
 40
0.5519843346451168
 40
0.7394430545874199
 40
0.8697004891808426
 40
0.9999999999999999
 40
0.9999999999999999
 40
0.9999999999999999
 40
0.9999999999999999
 10
55.31385519236383
 20
-7.932739809937868
 30
0.0
 10
55.39821464898694
 20
-6.945818169252569
 30
0.0
 10
55.56727404534727
 20
-4.967991574486755
 30
0.0
 10
54.80520752188794
 20
-1.999194524557539
 30
0.0
 10
53.28862559215345
 20
0.9213854189366391
 30
0.0
 10
51.13278158720173
 20
3.468174012754753
 30
0.0
 10
48.67612367045512
 20
5.568123577212085
 30
0.0
 10
46.98078761432497
 20
6.643509801501662
 30
0.0
 10
46.1329826999787
 20
7.1812897434054
 30
0.0
  0
SPLINE
  5
95
330
1F
100
AcDbEntity
  8
0
  6
Continuous
 62
     7
370
    25
100
AcDbSpline
210
0.0
220
0.0
230
1.0
 70
     8
 71
     3
 72
    11
 73
     7
 74
     0
 42
0.00000001
 43
0.00000001
 40
0.0
 40
0.0
 40
0.0
 40
0.0
 40
0.2785408942667214
 40
0.5626821722425412
 40
0.8916559516660136
 40
0.9999999999999999
 40
0.9999999999999999
 40
0.9999999999999999
 40
0.9999999999999999
 10
39.00271808155496
 20
-4.272513692758682
 30
0.0
 10
39.70661586460915
 20
-4.733001873330103
 30
0.0
 10
41.12856410186284
 20
-5.663236876768514
 30
0.0
 10
42.90072744411223
 20
-7.396133643921797
 30
0.0
 10
44.10867644034116
 20
-8.82275865491368
 30
0.0
 10
44.50115512559853
 20
-9.721849593704007
 30
0.0
 10
44.59839042438257
 20
-9.944596406081786
 30
0.0
  0
SPLINE
  5
96
330
1F
100
AcDbEntity
  8
0
  6
Continuous
 62
     7
370
    25
100
AcDbSpline
210
0.0
220
0.0
230
1.0
 70
     8
 71
     3
 72
    22
 73
    18
 74
     0
 42
0.00000001
 43
0.00000001
 40
0.0
 40
0.0
 40
0.0
 40
0.0
 40
0.0554992257819877
 40
0.1274090424607994
 40
0.1971493660562444
 40
0.2689164768787822
 40
0.3384859511658019
 40
0.4100721732313938
 40
0.4798159022034095
 40
0.5515876315670973
 40
0.6213946252083028
 40
0.693234267963792
 40
0.7629991211449636
 40
0.8347943596205634
 40
0.9045580854246353
 40
0.9763541579054363
 40
1.0
 40
1.0
 40
1.0
 40
1.0
 10
1.774058808381696
 20
-13.48941975465243
 30
0.0
 10
1.748235855016036
 20
-12.91021513084422
 30
0.0
 10
1.688954347653167
 20
-11.58054060893006
 30
0.0
 10
2.339848746344825
 20
-9.569357321402828
 30
0.0
 10
3.583337935476359
 20
-7.506249940533158
 30
0.0
 10
5.401090734704844
 20
-5.631397487647807
 30
0.0
 10
7.750066032241211
 20
-3.95480758951753
 30
0.0
 10
10.52940778404964
 20
-2.542081477529309
 30
0.0
 10
13.71156613822656
 20
-1.414690317677998
 30
0.0
 10
17.15102846927987
 20
-0.6339287682102999
 30
0.0
 10
20.80950956254804
 20
-0.2144070973903942
 30
0.0
 10
24.51655081796297
 20
-0.1779611021257219
 30
0.0
 10
28.23209439997488
 20
-0.5250673596962213
 30
0.0
 10
31.78523117504345
 20
-1.237826950324865
 30
0.0
 10
35.13372026177463
 20
-2.308990769219685
 30
0.0
 10
37.48747597123226
 20
-3.382650229477715
 30
0.0
 10
38.70185444386777
 20
-4.095824068847273
 30
0.0
 10
39.00271808155496
 20
-4.272513692758682
 30
0.0
  0
SPLINE
  5
97
330
1F
100
AcDbEntity
  8
0
  6
Continuous
 62
     7
370
    25
100
AcDbSpline
210
0.0
220
0.0
230
1.0
 70
     8
 71
     3
 72
    21
 73
    17
 74
     0
 42
0.00000001
 43
0.00000001
 40
0.0
 40
0.0
 40
0.0
 40
0.0
 40
0.0251669986249791
 40
0.0993224026726245
 40
0.1756251561973347
 40
0.2496773374891662
 40
0.3258716118079361
 40
0.3999403128315084
 40
0.4761578755209602
 40
0.5502482270946432
 40
0.6264895535473836
 40
0.700549752122346
 40
0.776755817154834
 40
0.8508221869023342
 40
0.9270371961724962
 40
1.0
 40
1.0
 40
1.0
 40
1.0
 10
38.26192271357794
 20
-6.455354131241258
 30
0.0
 10
37.97359428183993
 20
-6.286057716946653
 30
0.0
 10
36.835696472658
 20
-5.617923749835025
 30
0.0
 10
34.58942212106516
 20
-4.587094783417594
 30
0.0
 10
31.42442590099946
 20
-3.565697876459876
 30
0.0
 10
28.00607749124617
 20
-2.86938581349426
 30
0.0
 10
24.49789742586958
 20
-2.531191084752353
 30
0.0
 10
20.93265808718726
 20
-2.556109801815955
 30
0.0
 10
17.47545444559993
 20
-2.943736065370836
 30
0.0
 10
14.16243054497442
 20
-3.688394398452338
 30
0.0
 10
11.14747829404741
 20
-4.75018544305432
 30
0.0
 10
8.463015225577996
 20
-6.108756882360108
 30
0.0
 10
6.229018505506271
 20
-7.692252843147354
 30
0.0
 10
4.483061869811775
 20
-9.497472552108817
 30
0.0
 10
3.256399662568773
 20
-11.43363589200412
 30
0.0
 10
2.924499311637606
 20
-12.80995461610777
 30
0.0
 10
2.762166993631194
 20
-13.48311150844772
 30
0.0
  0
SPLINE
  5
98
330
1F
100
AcDbEntity
  8
0
  6
Continuous
 62
     7
370
    25
100
AcDbSpline
210
0.0
220
0.0
230
1.0
 70
     8
 71
     3
 72
    10
 73
     6
 74
     0
 42
0.00000001
 43
0.00000001
 40
0.0
 40
0.0
 40
0.0
 40
0.0
 40
0.2168787467123732
 40
0.6045733847763716
 40
1.0
 40
1.0
 40
1.0
 40
1.0
 10
42.56502294478642
 20
-10.25524676286253
 30
0.0
 10
42.34666103048249
 20
-9.958568168611112
 30
0.0
 10
41.73795315274813
 20
-9.131543922869078
 30
0.0
 10
40.29250386217318
 20
-7.799478627865529
 30
0.0
 10
38.9432237043813
 20
-6.906335049657993
 30
0.0
 10
38.26192271357794
 20
-6.455354131241258
 30
0.0
  0
LWPOLYLINE
  5
99
330
1F
100
AcDbEntity
  8
0
  6
Continuous
 62
     7
370
    25
100
AcDbPolyline
 90
       18
 70
   128
 43
0.0
 10
-72.1523313832
 20
134.2903712881
 10
-73.9754320541
 20
135.1990478595
 10
-76.0083439304
 20
135.9448403557
 10
-78.207739025
 20
136.5118535043
 10
-80.5267410499
 20
136.8880024046
 10
-82.915924503
 20
137.0652700957
 10
-85.324368087
 20
137.0398784246
 10
-87.7007400084
 20
136.8123685708
 10
-89.9943920253
 20
136.3875895116
 10
-92.1564389272
 20
135.7745946754
 10
-94.140800438
 20
134.9864489827
 10
-95.9051833373
 20
134.0399503908
 10
-97.4119828667
 20
132.9552718737
 10
-98.6290842104
 20
131.755531471
 10
-99.5305469662
 20
130.4662995663
 10
-100.0971580206
 20
129.1150538995
 10
-100.3168410427
 20
127.7305939259
 10
-100.3194819168
 20
127.5916535091
  0
LWPOLYLINE
  5
9A
330
1F
100
AcDbEntity
  8
0
  6
Continuous
 62
     7
370
    25
100
AcDbPolyline
 90
        7
 70
   128
 43
0.0
 10
-67.3197145255
 20
127.5931751293
 10
-67.3443578342
 20
128.0782152915
 10
-67.6515035823
 20
129.4571210296
 10
-68.3032440919
 20
130.7955218939
 10
-69.2856886455
 20
132.0648921937
 10
-70.5778981433
 20
133.2381775049
 10
-72.1523313832
 20
134.2903712881
  0
LINE
  5
9B
330
1F
100
AcDbEntity
  8
0
  6
Continuous
 62
     7
370
    25
100
AcDbLine
 10
-144.9247155144
 20
39.9675751759
 30
0.0
 11
-144.8238225487
 21
39.742518001
 31
0.0
  0
ARC
  5
9C
330
1F
100
AcDbEntity
  8
0
  6
Continuous
 62
     7
370
    25
100
AcDbCircle
 10
116.1006985497
 20
5.7675655863
 30
0.0
 40
7.681084491928412
100
AcDbArc
 50
2.5370715025
 51
57.4028030007
  0
ARC
  5
9D
330
1F
100
AcDbEntity
  8
0
  6
Continuous
 62
     7
370
    25
100
AcDbCircle
 10
-116.0948047163
 20
5.7675655863
 30
0.0
 40
7.681084491928661
100
AcDbArc
 50
122.5971969993
 51
177.4629284975
  0
ARC
  5
9E
330
1F
100
AcDbEntity
  8
0
  6
Continuous
 62
     7
370
    25
100
AcDbCircle
 10
-60.2973856574
 20
107.4266095382
 30
0.0
 40
7.811537503192014
100
AcDbArc
 50
8.0971963644
 51
57.1113599702
  0
ARC
  5
9F
330
1F
100
AcDbEntity
  8
0
  6
Continuous
 62
     7
370
    25
100
AcDbCircle
 10
-76.9974719755
 20
119.3770754699
 30
0.0
 40
10.39502805764106
100
AcDbArc
 50
32.7245647895
 51
62.2184523548
  0
ARC
  5
A0
330
1F
100
AcDbEntity
  8
0
  6
Continuous
 62
     7
370
    25
100
AcDbCircle
 10
115.9324956706
 20
11.8987654166
 30
0.0
 40
2.462298550308467
100
AcDbArc
 50
53.6128243259
 51
114.2248610288
  0
ARC
  5
A1
330
1F
100
AcDbEntity
  8
0
  6
Continuous
 62
     7
370
    25
100
AcDbCircle
 10
-112.3030123074
 20
-67.5674342471
 30
0.0
 40
1.156213936504456
100
AcDbArc
 50
199.4033259987
 51
239.5755378908
  0
ARC
  5
A2
330
1F
100
AcDbEntity
  8
0
  6
Continuous
 62
     7
370
    25
100
AcDbCircle
 10
112.3053896186
 20
-67.5698163682
 30
0.0
 40
1.155872081191303
100
AcDbArc
 50
300.3388825791
 51
340.6001642178
  0
ARC
  5
A3
330
1F
100
AcDbEntity
  8
0
  6
Continuous
 62
     7
370
    25
100
AcDbCircle
 10
121.6938896232
 20
149.0493916128
 30
0.0
 40
2.454255849994187
100
AcDbArc
 50
64.2224144749
 51
126.3640994289
  0
ARC
  5
A4
330
1F
100
AcDbEntity
  8
0
  6
Continuous
 62
     7
370
    25
100
AcDbCircle
 10
-121.6880687099
 20
149.049176008
 30
0.0
 40
2.454472705481983
100
AcDbArc
 50
53.6375139552
 51
115.7597324213
  0
ENDSEC
  0
SECTION
  2
OBJECTS
  0
DICTIONARY
  5
C
330
0
100
AcDbDictionary
281
     1
  3
ACAD_GROUP
350
D
  3
ACAD_LAYOUT
350
1A
  3
ACAD_MLINESTYLE
350
17
  3
ACAD_PLOTSETTINGS
350
19
  3
ACAD_PLOTSTYLENAME
350
E
  3
ACAD_SCALELIST
350
47
  3
DWGPROPS
350
A5
  0
DICTIONARY
  5
D
102
{ACAD_REACTORS
330
C
102
}
330
C
100
AcDbDictionary
281
     1
  0
DICTIONARY
  5
1A
102
{ACAD_REACTORS
330
C
102
}
330
C
100
AcDbDictionary
281
     1
  3
Layout1
350
1E
  3
Layout2
350
26
  3
Model
350
22
  0
DICTIONARY
  5
17
102
{ACAD_REACTORS
330
C
102
}
330
C
100
AcDbDictionary
281
     1
  3
Standard
350
18
  0
DICTIONARY
  5
19
102
{ACAD_REACTORS
330
C
102
}
330
C
100
AcDbDictionary
281
     1
  0
ACDBDICTIONARYWDFLT
  5
E
102
{ACAD_REACTORS
330
C
102
}
330
C
100
AcDbDictionary
281
     1
  3
Normal
350
F
100
AcDbDictionaryWithDefault
340
F
  0
DICTIONARY
  5
47
102
{ACAD_REACTORS
330
C
102
}
330
C
100
AcDbDictionary
281
     1
  3
A0
350
48
  3
A1
350
49
  3
A2
350
4A
  3
A3
350
4B
  3
A4
350
4C
  3
A5
350
4D
  3
A6
350
4E
  3
A7
350
4F
  3
A8
350
50
  3
A9
350
51
  3
B0
350
52
  3
B1
350
53
  3
B2
350
54
  3
B3
350
55
  3
B4
350
56
  3
B5
350
57
  3
B6
350
58
  0
XRECORD
  5
A5
102
{ACAD_REACTORS
330
C
102
}
330
C
100
AcDbXrecord
280
     1
  1
DWGPROPS COOKIE
  2

  3

  4

  6

  7

  8
Alan Ramirez
  9

300
=
301
=
302
=
303
=
304
=
305
=
306
=
307
=
308
=
309
=
 40
0.0
 41
2460517.003353796
 42
2460517.00338287
  1

 90
        0
  0
LAYOUT
  5
1E
102
{ACAD_REACTORS
330
1A
102
}
330
1A
100
AcDbPlotSettings
  1

  2
none_device
  4

  6

 40
0.0
 41
0.0
 42
0.0
 43
0.0
 44
0.0
 45
0.0
 46
0.0
 47
0.0
 48
0.0
 49
0.0
140
0.0
141
0.0
142
1.0
143
1.0
 70
   688
 72
     1
 73
     0
 74
     5
  7

 75
    16
147
1.0
148
0.0
149
0.0
100
AcDbLayout
  1
Layout1
 70
     1
 71
     1
 10
0.0
 20
0.0
 11
420.0
 21
297.0
 12
0.0
 22
0.0
 32
0.0
 14
1.0000000000E+20
 24
1.0000000000E+20
 34
1.0000000000E+20
 15
-1.0000000000E+20
 25
-1.0000000000E+20
 35
-1.0000000000E+20
146
0.0
 13
0.0
 23
0.0
 33
0.0
 16
1.0
 26
0.0
 36
0.0
 17
0.0
 27
1.0
 37
0.0
 76
     0
330
1B
  0
LAYOUT
  5
26
102
{ACAD_REACTORS
330
1A
102
}
330
1A
100
AcDbPlotSettings
  1

  2
none_device
  4

  6

 40
0.0
 41
0.0
 42
0.0
 43
0.0
 44
0.0
 45
0.0
 46
0.0
 47
0.0
 48
0.0
 49
0.0
140
0.0
141
0.0
142
1.0
143
1.0
 70
   688
 72
     1
 73
     0
 74
     5
  7

 75
    16
147
1.0
148
0.0
149
0.0
100
AcDbLayout
  1
Layout2
 70
     1
 71
     2
 10
0.0
 20
0.0
 11
0.0
 21
0.0
 12
0.0
 22
0.0
 32
0.0
 14
0.0
 24
0.0
 34
0.0
 15
0.0
 25
0.0
 35
0.0
146
0.0
 13
0.0
 23
0.0
 33
0.0
 16
1.0
 26
0.0
 36
0.0
 17
0.0
 27
1.0
 37
0.0
 76
     0
330
23
  0
LAYOUT
  5
22
102
{ACAD_REACTORS
330
1A
102
}
330
1A
100
AcDbPlotSettings
  1

  2
none_device
  4
ANSI_A_(11.00_x_8.50_Inches)
  6

 40
6.35
 41
19.05
 42
6.35000508
 43
19.05000254
 44
279.4
 45
215.9
 46
133.3505006364
 47
55.9836680121
 48
0.0
 49
0.0
140
0.0
141
0.0
142
0.0304584358
143
1.0
 70
  1696
 72
     0
 73
     0
 74
     0
  7

 75
     0
147
0.0179189148
148
-1300.4909072572
149
0.0
100
AcDbLayout
  1
Model
 70
     1
 71
     0
 10
0.0
 20
0.0
 11
420.0
 21
297.0
 12
0.0
 22
0.0
 32
0.0
 14
-175.0623123168
 24
-95.5919562935
 34
0.0
 15
175.0610115216
 25
180.6861836474
 35
0.0
146
0.0
 13
0.0
 23
0.0
 33
0.0
 16
1.0
 26
0.0
 36
0.0
 17
0.0
 27
1.0
 37
0.0
 76
     0
330
1F
331
29
  0
MLINESTYLE
  5
18
102
{ACAD_REACTORS
330
17
102
}
330
17
100
AcDbMlineStyle
  2
Standard
 70
     0
  3

 62
   256
 51
90.0
 52
90.0
 71
     2
 49
0.5
 62
   256
  6
BYLAYER
 49
-0.5
 62
   256
  6
BYLAYER
  0
ACDBPLACEHOLDER
  5
F
102
{ACAD_REACTORS
330
E
102
}
330
E
  0
SCALE
  5
48
102
{ACAD_REACTORS
330
47
102
}
330
47
100
AcDbScale
 70
     0
300
1:1
140
1.0
141
1.0
290
     1
  0
SCALE
  5
49
102
{ACAD_REACTORS
330
47
102
}
330
47
100
AcDbScale
 70
     0
300
1:2
140
1.0
141
2.0
290
     0
  0
SCALE
  5
4A
102
{ACAD_REACTORS
330
47
102
}
330
47
100
AcDbScale
 70
     0
300
1:4
140
1.0
141
4.0
290
     0
  0
SCALE
  5
4B
102
{ACAD_REACTORS
330
47
102
}
330
47
100
AcDbScale
 70
     0
300
1:5
140
1.0
141
5.0
290
     0
  0
SCALE
  5
4C
102
{ACAD_REACTORS
330
47
102
}
330
47
100
AcDbScale
 70
     0
300
1:8
140
1.0
141
8.0
290
     0
  0
SCALE
  5
4D
102
{ACAD_REACTORS
330
47
102
}
330
47
100
AcDbScale
 70
     0
300
1:10
140
1.0
141
10.0
290
     0
  0
SCALE
  5
4E
102
{ACAD_REACTORS
330
47
102
}
330
47
100
AcDbScale
 70
     0
300
1:16
140
1.0
141
16.0
290
     0
  0
SCALE
  5
4F
102
{ACAD_REACTORS
330
47
102
}
330
47
100
AcDbScale
 70
     0
300
1:20
140
1.0
141
20.0
290
     0
  0
SCALE
  5
50
102
{ACAD_REACTORS
330
47
102
}
330
47
100
AcDbScale
 70
     0
300
1:30
140
1.0
141
30.0
290
     0
  0
SCALE
  5
51
102
{ACAD_REACTORS
330
47
102
}
330
47
100
AcDbScale
 70
     0
300
1:40
140
1.0
141
40.0
290
     0
  0
SCALE
  5
52
102
{ACAD_REACTORS
330
47
102
}
330
47
100
AcDbScale
 70
     0
300
1:50
140
1.0
141
50.0
290
     0
  0
SCALE
  5
53
102
{ACAD_REACTORS
330
47
102
}
330
47
100
AcDbScale
 70
     0
300
1:100
140
1.0
141
100.0
290
     0
  0
SCALE
  5
54
102
{ACAD_REACTORS
330
47
102
}
330
47
100
AcDbScale
 70
     0
300
2:1
140
2.0
141
1.0
290
     0
  0
SCALE
  5
55
102
{ACAD_REACTORS
330
47
102
}
330
47
100
AcDbScale
 70
     0
300
4:1
140
4.0
141
1.0
290
     0
  0
SCALE
  5
56
102
{ACAD_REACTORS
330
47
102
}
330
47
100
AcDbScale
 70
     0
300
8:1
140
8.0
141
1.0
290
     0
  0
SCALE
  5
57
102
{ACAD_REACTORS
330
47
102
}
330
47
100
AcDbScale
 70
     0
300
10:1
140
10.0
141
1.0
290
     0
  0
SCALE
  5
58
102
{ACAD_REACTORS
330
47
102
}
330
47
100
AcDbScale
 70
     0
300
100:1
140
100.0
141
1.0
290
     0
  0
ENDSEC
  0
EOF
