  0
SECTION
  2
HEADER
  9
$ACADVER
  1
AC1015
  9
$ACADMAINTVER
 70
     6
  9
$DWGCODEPAGE
  3
ANSI_1252
  9
$INSBASE
 10
0.0
 20
0.0
 30
0.0
  9
$EXTMIN
 10
-0.0008563937
 20
-1.3129513461
 30
0.0
  9
$EXTMAX
 10
5.4911260977
 20
2.0333232684
 30
0.0
  9
$LIMMIN
 10
0.0
 20
0.0
  9
$LIMMAX
 10
12.0
 20
9.0
  9
$ORTHOMODE
 70
     0
  9
$REGENMODE
 70
     1
  9
$FILLMODE
 70
     1
  9
$QTEXTMODE
 70
     0
  9
$MIRRTEXT
 70
     1
  9
$LTSCALE
 40
1.0
  9
$ATTMODE
 70
     1
  9
$TEXTSIZE
 40
0.125
  9
$TRACEWID
 40
0.05
  9
$TEXTSTYLE
  7
Standard
  9
$CLAYER
  8
0
  9
$CELTYPE
  6
ByLayer
  9
$CECOLOR
 62
   256
  9
$CELTSCALE
 40
1.0
  9
$DISPSILH
 70
     0
  9
$DIMSCALE
 40
1.0
  9
$DIMASZ
 40
0.13
  9
$DIMEXO
 40
0.0
  9
$DIMDLI
 40
0.38
  9
$DIMRND
 40
0.0
  9
$DIMDLE
 40
0.0
  9
$DIMEXE
 40
0.125
  9
$DIMTP
 40
0.0
  9
$DIMTM
 40
0.0
  9
$DIMTXT
 40
0.125
  9
$DIMCEN
 40
0.09
  9
$DIMTSZ
 40
0.0
  9
$DIMTOL
 70
     0
  9
$DIMLIM
 70
     0
  9
$DIMTIH
 70
     1
  9
$DIMTOH
 70
     1
  9
$DIMSE1
 70
     0
  9
$DIMSE2
 70
     0
  9
$DIMTAD
 70
     0
  9
$DIMZIN
 70
     1
  9
$DIMBLK
  1

  9
$DIMASO
 70
     1
  9
$DIMSHO
 70
     1
  9
$DIMPOST
  1

  9
$DIMAPOST
  1

  9
$DIMALT
 70
     0
  9
$DIMALTD
 70
     2
  9
$DIMALTF
 40
25.4
  9
$DIMLFAC
 40
1.0
  9
$DIMTOFL
 70
     0
  9
$DIMTVP
 40
0.0
  9
$DIMTIX
 70
     0
  9
$DIMSOXD
 70
     0
  9
$DIMSAH
 70
     0
  9
$DIMBLK1
  1

  9
$DIMBLK2
  1

  9
$DIMSTYLE
  2
Standard
  9
$DIMCLRD
 70
     0
  9
$DIMCLRE
 70
     0
  9
$DIMCLRT
 70
     0
  9
$DIMTFAC
 40
1.0
  9
$DIMGAP
 40
0.06
  9
$DIMJUST
 70
     0
  9
$DIMSD1
 70
     0
  9
$DIMSD2
 70
     0
  9
$DIMTOLJ
 70
     1
  9
$DIMTZIN
 70
     1
  9
$DIMALTZ
 70
     0
  9
$DIMALTTZ
 70
     0
  9
$DIMUPT
 70
     0
  9
$DIMDEC
 70
     3
  9
$DIMTDEC
 70
     3
  9
$DIMALTU
 70
     2
  9
$DIMALTTD
 70
     2
  9
$DIMTXSTY
  7
Standard
  9
$DIMAUNIT
 70
     0
  9
$DIMADEC
 70
     2
  9
$DIMALTRND
 40
0.0
  9
$DIMAZIN
 70
     0
  9
$DIMDSEP
 70
    46
  9
$DIMATFIT
 70
     3
  9
$DIMFRAC
 70
     0
  9
$DIMLDRBLK
  1

  9
$DIMLUNIT
 70
     2
  9
$DIMLWD
 70
    -2
  9
$DIMLWE
 70
    -2
  9
$DIMTMOVE
 70
     0
  9
$LUNITS
 70
     2
  9
$LUPREC
 70
     3
  9
$SKETCHINC
 40
0.1
  9
$FILLETRAD
 40
0.0
  9
$AUNITS
 70
     0
  9
$AUPREC
 70
     2
  9
$MENU
  1
.
  9
$ELEVATION
 40
0.0
  9
$PELEVATION
 40
0.0
  9
$THICKNESS
 40
0.0
  9
$LIMCHECK
 70
     0
  9
$CHAMFERA
 40
0.0
  9
$CHAMFERB
 40
0.0
  9
$CHAMFERC
 40
0.0
  9
$CHAMFERD
 40
0.0
  9
$SKPOLY
 70
     0
  9
$TDCREATE
 40
2460425.425695556
  9
$TDUCREATE
 40
2460425.675695556
  9
$TDUPDATE
 40
2460425.425724294
  9
$TDUUPDATE
 40
2460425.675724294
  9
$TDINDWG
 40
0.0000000116
  9
$TDUSRTIMER
 40
0.0000000116
  9
$USRTIMER
 70
     1
  9
$ANGBASE
 50
0.0
  9
$ANGDIR
 70
     0
  9
$PDMODE
 70
     0
  9
$PDSIZE
 40
-1.0
  9
$PLINEWID
 40
0.0
  9
$SPLFRAME
 70
     0
  9
$SPLINETYPE
 70
     6
  9
$SPLINESEGS
 70
     8
  9
$HANDSEED
  5
22A
  9
$SURFTAB1
 70
     6
  9
$SURFTAB2
 70
     6
  9
$SURFTYPE
 70
     6
  9
$SURFU
 70
     6
  9
$SURFV
 70
     6
  9
$UCSBASE
  2

  9
$UCSNAME
  2

  9
$UCSORG
 10
0.0
 20
0.0
 30
0.0
  9
$UCSXDIR
 10
1.0
 20
0.0
 30
0.0
  9
$UCSYDIR
 10
0.0
 20
1.0
 30
0.0
  9
$UCSORTHOREF
  2

  9
$UCSORTHOVIEW
 70
     0
  9
$UCSORGTOP
 10
0.0
 20
0.0
 30
0.0
  9
$UCSORGBOTTOM
 10
0.0
 20
0.0
 30
0.0
  9
$UCSORGLEFT
 10
0.0
 20
0.0
 30
0.0
  9
$UCSORGRIGHT
 10
0.0
 20
0.0
 30
0.0
  9
$UCSORGFRONT
 10
0.0
 20
0.0
 30
0.0
  9
$UCSORGBACK
 10
0.0
 20
0.0
 30
0.0
  9
$PUCSBASE
  2

  9
$PUCSNAME
  2

  9
$PUCSORG
 10
0.0
 20
0.0
 30
0.0
  9
$PUCSXDIR
 10
1.0
 20
0.0
 30
0.0
  9
$PUCSYDIR
 10
0.0
 20
1.0
 30
0.0
  9
$PUCSORTHOREF
  2

  9
$PUCSORTHOVIEW
 70
     0
  9
$PUCSORGTOP
 10
0.0
 20
0.0
 30
0.0
  9
$PUCSORGBOTTOM
 10
0.0
 20
0.0
 30
0.0
  9
$PUCSORGLEFT
 10
0.0
 20
0.0
 30
0.0
  9
$PUCSORGRIGHT
 10
0.0
 20
0.0
 30
0.0
  9
$PUCSORGFRONT
 10
0.0
 20
0.0
 30
0.0
  9
$PUCSORGBACK
 10
0.0
 20
0.0
 30
0.0
  9
$USERI1
 70
     0
  9
$USERI2
 70
     0
  9
$USERI3
 70
     0
  9
$USERI4
 70
     0
  9
$USERI5
 70
     0
  9
$USERR1
 40
0.0
  9
$USERR2
 40
0.0
  9
$USERR3
 40
0.0
  9
$USERR4
 40
0.0
  9
$USERR5
 40
0.0
  9
$WORLDVIEW
 70
     1
  9
$SHADEDGE
 70
     3
  9
$SHADEDIF
 70
    70
  9
$TILEMODE
 70
     1
  9
$MAXACTVP
 70
    64
  9
$PINSBASE
 10
0.0
 20
0.0
 30
0.0
  9
$PLIMCHECK
 70
     0
  9
$PEXTMIN
 10
1.0000000000E+20
 20
1.0000000000E+20
 30
1.0000000000E+20
  9
$PEXTMAX
 10
-1.0000000000E+20
 20
-1.0000000000E+20
 30
-1.0000000000E+20
  9
$PLIMMIN
 10
0.0
 20
0.0
  9
$PLIMMAX
 10
12.0
 20
9.0
  9
$UNITMODE
 70
     0
  9
$VISRETAIN
 70
     1
  9
$PLINEGEN
 70
     0
  9
$PSLTSCALE
 70
     1
  9
$TREEDEPTH
 70
  3020
  9
$CMLSTYLE
  2
Standard
  9
$CMLJUST
 70
     0
  9
$CMLSCALE
 40
1.0
  9
$PROXYGRAPHICS
 70
     1
  9
$MEASUREMENT
 70
     0
  9
$CELWEIGHT
370
    -1
  9
$ENDCAPS
280
     0
  9
$JOINSTYLE
280
     0
  9
$LWDISPLAY
290
     1
  9
$INSUNITS
 70
     1
  9
$HYPERLINKBASE
  1

  9
$STYLESHEET
  1

  9
$XEDIT
290
     1
  9
$CEPSNTYPE
380
     0
  9
$PSTYLEMODE
290
     1
  9
$FINGERPRINTGUID
  2
{8b2eda2b-4afd-4347-98b2-0980c94a6f2b}
  9
$VERSIONGUID
  2
{FAEB1C32-E019-11D5-929B-00C0DF256EC4}
  9
$EXTNAMES
290
     1
  9
$PSVPSCALE
 40
0.0
  9
$OLESTARTUP
290
     0
  0
ENDSEC
  0
SECTION
  2
CLASSES
  0
CLASS
  1
ACDBDICTIONARYWDFLT
  2
AcDbDictionaryWithDefault
  3
ObjectDBX Classes
 90
        0
280
     0
281
     0
  0
CLASS
  1
VISUALSTYLE
  2
AcDbVisualStyle
  3
ObjectDBX Classes
 90
     4095
280
     0
281
     0
  0
CLASS
  1
MATERIAL
  2
AcDbMaterial
  3
ObjectDBX Classes
 90
     1153
280
     0
281
     0
  0
CLASS
  1
SCALE
  2
AcDbScale
  3
ObjectDBX Classes
 90
     1153
280
     0
281
     0
  0
CLASS
  1
TABLESTYLE
  2
AcDbTableStyle
  3
ObjectDBX Classes
 90
     4095
280
     0
281
     0
  0
CLASS
  1
MLEADERSTYLE
  2
AcDbMLeaderStyle
  3
ACDB_MLEADERSTYLE_CLASS
 90
     4095
280
     0
281
     0
  0
CLASS
  1
SUN
  2
AcDbSun
  3
SCENEOE
 90
     1153
280
     0
281
     0
  0
CLASS
  1
ACDBPLACEHOLDER
  2
AcDbPlaceHolder
  3
ObjectDBX Classes
 90
        0
280
     0
281
     0
  0
CLASS
  1
LAYOUT
  2
AcDbLayout
  3
ObjectDBX Classes
 90
        0
280
     0
281
     0
  0
ENDSEC
  0
SECTION
  2
TABLES
  0
TABLE
  2
VPORT
  5
8
330
0
100
AcDbSymbolTable
 70
     1
  0
VPORT
  5
29
330
8
100
AcDbSymbolTableRecord
100
AcDbViewportTableRecord
  2
*Active
 70
     0
 10
0.0
 20
0.0
 11
1.0
 21
1.0
 12
2.745134852
 22
0.3601859611
 13
0.0
 23
0.0
 14
0.5
 24
0.5
 15
0.5
 25
0.5
 16
0.0
 26
0.0
 36
1.0
 17
0.0
 27
0.0
 37
0.0
 40
3.4132001068
 41
1.6412228893
 42
50.0
 43
0.0
 44
0.0
 50
0.0
 51
0.0
 71
     0
 72
   100
 73
     1
 74
     3
 75
     0
 76
     0
 77
     0
 78
     0
281
     0
 65
     1
110
0.0
120
0.0
130
0.0
111
1.0
121
0.0
131
0.0
112
0.0
122
1.0
132
0.0
 79
     0
146
0.0
  0
ENDTAB
  0
TABLE
  2
LTYPE
  5
5
330
0
100
AcDbSymbolTable
 70
     6
  0
LTYPE
  5
14
330
5
100
AcDbSymbolTableRecord
100
AcDbLinetypeTableRecord
  2
ByBlock
 70
     0
  3

 72
    65
 73
     0
 40
0.0
  0
LTYPE
  5
15
330
5
100
AcDbSymbolTableRecord
100
AcDbLinetypeTableRecord
  2
ByLayer
 70
     0
  3

 72
    65
 73
     0
 40
0.0
  0
LTYPE
  5
16
330
5
100
AcDbSymbolTableRecord
100
AcDbLinetypeTableRecord
  2
Continuous
 70
     0
  3
Solid line
 72
    65
 73
     0
 40
0.0
  0
LTYPE
  5
5E
330
5
100
AcDbSymbolTableRecord
100
AcDbLinetypeTableRecord
  2
HIDDEN
 70
     0
  3
Hidden __ __ __ __ __ __ __ __ __ __ __ __ __ __
 72
    65
 73
     2
 40
0.075
 49
0.05
 74
     0
 49
-0.025
 74
     0
  0
LTYPE
  5
5F
330
5
100
AcDbSymbolTableRecord
100
AcDbLinetypeTableRecord
  2
PHANTOM
 70
     0
  3
Phantom ______  __  __  ______  __  __  ______
 72
    65
 73
     6
 40
0.5
 49
0.25
 74
     0
 49
-0.05
 74
     0
 49
0.05
 74
     0
 49
-0.05
 74
     0
 49
0.05
 74
     0
 49
-0.05
 74
     0
  0
LTYPE
  5
60
330
5
100
AcDbSymbolTableRecord
100
AcDbLinetypeTableRecord
  2
CENTER
 70
     0
  3
Center ____ _ ____ _ ____ _ ____ _ ____ _ ____
 72
    65
 73
     4
 40
0.4
 49
0.25
 74
     0
 49
-0.05
 74
     0
 49
0.05
 74
     0
 49
-0.05
 74
     0
  0
LTYPE
  5
61
330
5
100
AcDbSymbolTableRecord
100
AcDbLinetypeTableRecord
  2
CENTERX2
 70
     0
  3
Center (2x) ________  __  ________  __  _____
 72
    65
 73
     4
 40
0.8
 49
0.5
 74
     0
 49
-0.1
 74
     0
 49
0.1
 74
     0
 49
-0.1
 74
     0
  0
LTYPE
  5
62
330
5
100
AcDbSymbolTableRecord
100
AcDbLinetypeTableRecord
  2
DOT2
 70
     0
  3
Dot (.5x) ........................................
 72
    65
 73
     2
 40
0.025
 49
0.0
 74
     0
 49
-0.025
 74
     0
  0
ENDTAB
  0
TABLE
  2
LAYER
  5
2
330
0
100
AcDbSymbolTable
 70
     1
  0
LAYER
  5
10
330
2
100
AcDbSymbolTableRecord
100
AcDbLayerTableRecord
  2
0
 70
     0
 62
     7
  6
Continuous
370
    -3
390
F
  0
ENDTAB
  0
TABLE
  2
STYLE
  5
3
330
0
100
AcDbSymbolTable
 70
     1
  0
STYLE
  5
11
330
3
100
AcDbSymbolTableRecord
100
AcDbTextStyleTableRecord
  2
Standard
 70
     0
 40
0.0
 41
1.0
 50
0.0
 71
     0
 42
0.125
  3
txt
  4

  0
ENDTAB
  0
TABLE
  2
VIEW
  5
6
330
0
100
AcDbSymbolTable
 70
     0
  0
ENDTAB
  0
TABLE
  2
UCS
  5
7
330
0
100
AcDbSymbolTable
 70
     0
  0
ENDTAB
  0
TABLE
  2
APPID
  5
9
330
0
100
AcDbSymbolTable
 70
     1
  0
APPID
  5
12
330
9
100
AcDbSymbolTableRecord
100
AcDbRegAppTableRecord
  2
ACAD
 70
     0
  0
ENDTAB
  0
TABLE
  2
DIMSTYLE
  5
A
330
0
100
AcDbSymbolTable
 70
     1
100
AcDbDimStyleTable
  0
DIMSTYLE
105
27
330
A
100
AcDbSymbolTableRecord
100
AcDbDimStyleTableRecord
  2
Standard
 70
     0
178
     0
340
11
  0
ENDTAB
  0
TABLE
  2
BLOCK_RECORD
  5
1
330
0
100
AcDbSymbolTable
 70
     1
  0
BLOCK_RECORD
  5
1F
330
1
100
AcDbSymbolTableRecord
100
AcDbBlockTableRecord
  2
*Model_Space
340
22
  0
BLOCK_RECORD
  5
1B
330
1
100
AcDbSymbolTableRecord
100
AcDbBlockTableRecord
  2
*Paper_Space
340
1E
  0
BLOCK_RECORD
  5
23
330
1
100
AcDbSymbolTableRecord
100
AcDbBlockTableRecord
  2
*Paper_Space0
340
26
  0
ENDTAB
  0
ENDSEC
  0
SECTION
  2
BLOCKS
  0
BLOCK
  5
20
330
1F
100
AcDbEntity
  8
0
100
AcDbBlockBegin
  2
*Model_Space
 70
     0
 10
0.0
 20
0.0
 30
0.0
  3
*Model_Space
  1

  0
ENDBLK
  5
21
330
1F
100
AcDbEntity
  8
0
100
AcDbBlockEnd
  0
BLOCK
  5
1C
330
1B
100
AcDbEntity
 67
     1
  8
0
100
AcDbBlockBegin
  2
*Paper_Space
 70
     0
 10
0.0
 20
0.0
 30
0.0
  3
*Paper_Space
  1

  0
ENDBLK
  5
1D
330
1B
100
AcDbEntity
 67
     1
  8
0
100
AcDbBlockEnd
  0
BLOCK
  5
24
330
23
100
AcDbEntity
  8
0
100
AcDbBlockBegin
  2
*Paper_Space0
 70
     0
 10
0.0
 20
0.0
 30
0.0
  3
*Paper_Space0
  1

  0
ENDBLK
  5
25
330
23
100
AcDbEntity
  8
0
100
AcDbBlockEnd
  0
ENDSEC
  0
SECTION
  2
ENTITIES
  0
SPLINE
  5
63
330
1F
100
AcDbEntity
  8
0
  6
Continuous
 62
     7
370
    25
100
AcDbSpline
210
0.0
220
0.0
230
1.0
 70
     8
 71
     3
 72
    14
 73
    10
 74
     0
 42
0.00000001
 43
0.00000001
 40
0.0
 40
0.0
 40
0.0
 40
0.0
 40
0.0731357845602083
 40
0.2420305969822834
 40
0.4009077072699696
 40
0.5625909311017631
 40
0.7258526101548964
 40
0.8888124975145026
 40
1.0
 40
1.0
 40
1.0
 40
1.0
 10
1.80089882384793
 20
-1.294846493250199
 30
0.0
 10
1.803985018911541
 20
-1.296944335297807
 30
0.0
 10
1.814198263196009
 20
-1.303886791254359
 30
0.0
 10
1.8340118327678
 20
-1.31019347939457
 30
0.0
 10
1.859221072677133
 20
-1.313699262832166
 30
0.0
 10
1.88519536188411
 20
-1.312133366767965
 30
0.0
 10
1.91175358133631
 20
-1.305861922585707
 30
0.0
 10
1.935694878761092
 20
-1.296825686010135
 30
0.0
 10
1.950489374159097
 20
-1.288318098103645
 30
0.0
 10
1.956489661065957
 20
-1.284867627712397
 30
0.0
  0
SPLINE
  5
65
330
1F
100
AcDbEntity
  8
0
  6
Continuous
 62
     7
370
    25
100
AcDbSpline
210
0.0
220
0.0
230
1.0
 70
     8
 71
     3
 72
    39
 73
    35
 74
     0
 42
0.00000001
 43
0.00000001
 40
0.0
 40
0.0
 40
0.0
 40
0.0
 40
0.0450457846523308
 40
0.0860388477663696
 40
0.1229793643470031
 40
0.1558676241504532
 40
0.1847040336196789
 40
0.2094891326494533
 40
0.2339950101043814
 40
0.2577676282578298
 40
0.2818434094277392
 40
0.3062216496754546
 40
0.3505002058955146
 40
0.3952841350285028
 40
0.4402369399919455
 40
0.4853391329363026
 40
0.5110283739646201
 40
0.5367508634998348
 40
0.562498290727227
 40
0.5882676810889165
 40
0.6138794807663688
 40
0.6386579163177581
 40
0.6625624022130023
 40
0.6856043374732081
 40
0.7022482172352903
 40
0.7187122416157848
 40
0.7379693767134554
 40
0.7607777670422259
 40
0.7871434968175768
 40
0.8170702903650008
 40
0.8569144009277384
 40
0.9017066322594335
 40
0.9514448831790466
 40
1.0
 40
1.0
 40
1.0
 40
1.0
 10
4.420187477584007
 20
1.075779742238327
 30
0.0
 10
4.368117190839333
 20
1.045773913853284
 30
0.0
 10
4.268661325902048
 20
0.9884618496845664
 30
0.0
 10
4.125824314044194
 20
0.9069423019702617
 30
0.0
 10
3.996544331328697
 20
0.8338161915995568
 30
0.0
 10
3.880850301694395
 20
0.7690687543556987
 30
0.0
 10
3.778854010864929
 20
0.7126359143455374
 30
0.0
 10
3.686220922192014
 20
0.661992019022148
 30
0.0
 10
3.599075738805288
 20
0.6149559225508309
 30
0.0
 10
3.512195285808333
 20
0.5687517248560437
 30
0.0
 10
3.424800581657432
 20
0.523062024730234
 30
0.0
 10
3.311575226563097
 20
0.4650717454228653
 30
0.0
 10
3.170995823149017
 20
0.3955045858308155
 30
0.0
 10
3.000677837859956
 20
0.3162932572856513
 30
0.0
 10
2.823428487760563
 20
0.2410207420592715
 30
0.0
 10
2.66423972425487
 20
0.1822016247428206
 30
0.0
 10
2.52521997110244
 20
0.1393484344565135
 30
0.0
 10
2.409858693962576
 20
0.109938729700483
 30
0.0
 10
2.289881390838939
 20
0.0870101012975184
 30
0.0
 10
2.165981001011741
 20
0.0726605057958674
 30
0.0
 10
2.041232673542854
 20
0.0688740986721076
 30
0.0
 10
1.920025572399714
 20
0.0760858127787883
 30
0.0
 10
1.806103204265674
 20
0.0926868143252977
 30
0.0
 10
1.709074942605757
 20
0.114324897038936
 30
0.0
 10
1.626627030595586
 20
0.1374586850878156
 30
0.0
 10
1.552127531740092
 20
0.1615862894830171
 30
0.0
 10
1.47142327918268
 20
0.191059533912222
 30
0.0
 10
1.380131725029843
 20
0.2281812888440618
 30
0.0
 10
1.277970782196788
 20
0.2737293190935339
 30
0.0
 10
1.157369946709805
 20
0.3316563062246793
 30
0.0
 10
1.017377964909632
 20
0.4032058017875637
 30
0.0
 10
0.8563268880259017
 20
0.4891456101737834
 30
0.0
 10
0.6866951625747533
 20
0.5818189850097635
 30
0.0
 10
0.570387835247622
 20
0.6456326144006371
 30
0.0
 10
0.5129341535261127
 20
0.6771553742883737
 30
0.0
  0
SPLINE
  5
72
330
1F
100
AcDbEntity
  8
0
  6
Continuous
 62
     7
370
    25
100
AcDbSpline
210
0.0
220
0.0
230
1.0
 70
     8
 71
     3
 72
    17
 73
    13
 74
     0
 42
0.00000001
 43
0.00000001
 40
0.0
 40
0.0
 40
0.0
 40
0.0
 40
0.1134224025018859
 40
0.2184797256030762
 40
0.3226430308164104
 40
0.4260559955648885
 40
0.5289079150928324
 40
0.6313702261532987
 40
0.7335775908187596
 40
0.8356246096741398
 40
0.9375665310802981
 40
0.9999999999999999
 40
0.9999999999999999
 40
0.9999999999999999
 40
0.9999999999999999
 10
5.251154879123288
 20
1.729246464814496
 30
0.0
 10
5.248014587546867
 20
1.715203139746589
 30
0.0
 10
5.241965605804312
 20
1.688152206776445
 30
0.0
 10
5.226182328393289
 20
1.648585249121232
 30
0.0
 10
5.206442070681808
 20
1.610702959637089
 30
0.0
 10
5.181993205083736
 20
1.573749561363484
 30
0.0
 10
5.153099350301197
 20
1.537852473494401
 30
0.0
 10
5.119839796266105
 20
1.503161141408214
 30
0.0
 10
5.082421068379627
 20
1.46979841697727
 30
0.0
 10
5.040816477317376
 20
1.438027221832916
 30
0.0
 10
5.001724618301263
 20
1.411542398347298
 30
0.0
 10
4.975107347416888
 20
1.39647864443397
 30
0.0
 10
4.964997509495333
 20
1.390757092017289
 30
0.0
  0
SPLINE
  5
73
330
1F
100
AcDbEntity
  8
0
  6
Continuous
 62
     7
370
    25
100
AcDbSpline
210
0.0
220
0.0
230
1.0
 70
     8
 71
     3
 72
    10
 73
     6
 74
     0
 42
0.00000001
 43
0.00000001
 40
0.0
 40
0.0
 40
0.0
 40
0.0
 40
0.2448841925150956
 40
0.9724474960298551
 40
1.0
 40
1.0
 40
1.0
 40
1.0
 10
5.256133456411103
 20
1.787833066605557
 30
0.0
 10
5.256279227938223
 20
1.783047249892466
 30
0.0
 10
5.256858094034421
 20
1.764042530023437
 30
0.0
 10
5.255044972104405
 20
1.74445958444483
 30
0.0
 10
5.251291823216638
 20
1.72978201676272
 30
0.0
 10
5.251154879123288
 20
1.729246464814496
 30
0.0
  0
SPLINE
  5
74
330
1F
100
AcDbEntity
  8
0
  6
Continuous
 62
     7
370
    25
100
AcDbSpline
210
0.0
220
0.0
230
1.0
 70
     8
 71
     3
 72
    10
 73
     6
 74
     0
 42
0.00000001
 43
0.00000001
 40
0.0
 40
0.0
 40
0.0
 40
0.0
 40
0.0088533472488513
 40
0.7134254404691669
 40
1.0
 40
1.0
 40
1.0
 40
1.0
 10
5.485706201762827
 20
0.9427380685932358
 30
0.0
 10
5.485748623539462
 20
0.9429178214537803
 30
0.0
 10
5.4891670791621
 20
0.9574027682321004
 30
0.0
 10
5.491090392112937
 20
0.9780357947457092
 30
0.0
 10
5.490598984534078
 20
0.9984142073724036
 30
0.0
 10
5.490456901715079
 20
1.004306306797067
 30
0.0
  0
SPLINE
  5
75
330
1F
100
AcDbEntity
  8
0
  6
Continuous
 62
     7
370
    25
100
AcDbSpline
210
0.0
220
0.0
230
1.0
 70
     8
 71
     3
 72
    18
 73
    14
 74
     0
 42
0.00000001
 43
0.00000001
 40
0.0
 40
0.0
 40
0.0
 40
0.0
 40
0.0075679600801732
 40
0.104808608645443
 40
0.2024484308600434
 40
0.3004547373294479
 40
0.398827238515387
 40
0.4975956954906272
 40
0.5968225495803327
 40
0.6966114112574935
 40
0.7971205675464551
 40
0.8985806760424825
 40
1.0
 40
1.0
 40
1.0
 40
1.0
 10
5.192006939141986
 20
0.5826574525962251
 30
0.0
 10
5.19327081590474
 20
0.5833442269767061
 30
0.0
 10
5.21077423341756
 20
0.5928553589738322
 30
0.0
 10
5.241755624276061
 20
0.6130098692803401
 30
0.0
 10
5.284499001863876
 20
0.6431847547140533
 30
0.0
 10
5.32358125426145
 20
0.6753793109838248
 30
0.0
 10
5.359193947515061
 20
0.70923109194712
 30
0.0
 10
5.391023492376764
 20
0.744716708459348
 30
0.0
 10
5.418894312856021
 20
0.7817277434369143
 30
0.0
 10
5.442635639620276
 20
0.8201816864153721
 30
0.0
 10
5.46192241973073
 20
0.8600079588490664
 30
0.0
 10
5.476942170271259
 20
0.9009156261388687
 30
0.0
 10
5.48278524947403
 20
0.928799122900522
 30
0.0
 10
5.485706201762828
 20
0.942738068593236
 30
0.0
  0
SPLINE
  5
7C
330
1F
100
AcDbEntity
  8
0
  6
Continuous
 62
     7
370
    25
100
AcDbSpline
210
0.0
220
0.0
230
1.0
 70
     8
 71
     3
 72
    10
 73
     6
 74
     0
 42
0.00000001
 43
0.00000001
 40
0.0
 40
0.0
 40
0.0
 40
0.0
 40
0.5
 40
0.5
 40
1.0
 40
1.0
 40
1.0
 40
1.0
 10
1.962638900537468
 20
-0.5442665304135519
 30
0.0
 10
1.916494444086189
 20
-0.5709051581037414
 30
0.0
 10
1.872236462545342
 20
-0.6176241598295845
 30
0.0
 10
1.80697834640361
 20
-0.7306545322615644
 30
0.0
 10
1.788646090206132
 20
-0.7923450020381463
 30
0.0
 10
1.788646090206132
 20
-0.8456309171746506
 30
0.0
  0
SPLINE
  5
84
330
1F
100
AcDbEntity
  8
0
  6
Continuous
 62
     7
370
    25
100
AcDbSpline
210
0.0
220
0.0
230
1.0
 70
     8
 71
     3
 72
    10
 73
     6
 74
     0
 42
0.00000001
 43
0.00000001
 40
0.0
 40
0.0
 40
0.0
 40
0.0
 40
0.5
 40
0.5
 40
1.0
 40
1.0
 40
1.0
 40
1.0
 10
1.788646090206132
 20
-1.171282823647196
 30
0.0
 10
1.788646090206132
 20
-1.224568738783701
 30
0.0
 10
1.80697834640361
 20
-1.265093236085067
 30
0.0
 10
1.872236462545342
 20
-1.3027781913921
 30
0.0
 10
1.91649444408619
 20
-1.298398015307463
 30
0.0
 10
1.962638900537468
 20
-1.271759387617273
 30
0.0
  0
SPLINE
  5
86
330
1F
100
AcDbEntity
  8
0
  6
Continuous
 62
     7
370
    25
100
AcDbSpline
210
0.0
220
0.0
230
1.0
 70
     8
 71
     3
 72
     8
 73
     4
 74
     0
 42
0.00000001
 43
0.00000001
 40
-0.9411764705882354
 40
-0.9411764705882354
 40
-0.9411764705882354
 40
-0.9411764705882354
 40
-0.8823529411764707
 40
-0.8823529411764707
 40
-0.8823529411764707
 40
-0.8823529411764707
 10
2.051681153602907
 20
-1.023514531484067
 30
0.0
 10
2.051681153602907
 20
-1.034735616774512
 30
0.0
 10
2.058197535428642
 20
-1.037640391714523
 30
0.0
 10
2.066175271268837
 20
-1.033034942843714
 30
0.0
  0
SPLINE
  5
87
330
1F
100
AcDbEntity
  8
0
  6
Continuous
 62
     7
370
    25
100
AcDbSpline
210
0.0
220
0.0
230
1.0
 70
     8
 71
     3
 72
     8
 73
     4
 74
     0
 42
0.00000001
 43
0.00000001
 40
-0.8823529411764707
 40
-0.8823529411764707
 40
-0.8823529411764707
 40
-0.8823529411764707
 40
-0.823529411764706
 40
-0.823529411764706
 40
-0.823529411764706
 40
-0.823529411764706
 10
2.066175271268837
 20
-1.033034942843714
 30
0.0
 10
2.071131304130754
 20
-1.030173885971836
 30
0.0
 10
2.07394873181667
 20
-1.026896192613896
 30
0.0
 10
2.076967292098125
 20
-1.021364865488078
 30
0.0
  0
SPLINE
  5
8A
330
1F
100
AcDbEntity
  8
0
  6
Continuous
 62
     7
370
    25
100
AcDbSpline
210
0.0
220
0.0
230
1.0
 70
     8
 71
     3
 72
     8
 73
     4
 74
     0
 42
0.00000001
 43
0.00000001
 40
-0.7058823529411765
 40
-0.7058823529411765
 40
-0.7058823529411765
 40
-0.7058823529411765
 40
-0.6470588235294118
 40
-0.6470588235294118
 40
-0.6470588235294118
 40
-0.6470588235294118
 10
2.077129140983643
 20
-1.02339988183158
 30
0.0
 10
2.077129140983643
 20
-1.030427576419198
 30
0.0
 10
2.07269793848822
 20
-1.036444159141697
 30
0.0
 10
2.06758477078598
 20
-1.039395928026033
 30
0.0
  0
SPLINE
  5
8B
330
1F
100
AcDbEntity
  8
0
  6
Continuous
 62
     7
370
    25
100
AcDbSpline
210
0.0
220
0.0
230
1.0
 70
     8
 71
     3
 72
     8
 73
     4
 74
     0
 42
0.00000001
 43
0.00000001
 40
-0.6470588235294118
 40
-0.6470588235294118
 40
-0.6470588235294118
 40
-0.6470588235294118
 40
-0.5882352941176471
 40
-0.5882352941176471
 40
-0.5882352941176471
 40
-0.5882352941176471
 10
2.06758477078598
 20
-1.039395928026033
 30
0.0
 10
2.064266082959631
 20
-1.041311765728432
 30
0.0
 10
2.061803780012673
 20
-1.041158206463788
 30
0.0
 10
2.059385474821009
 20
-1.039923188385588
 30
0.0
  0
SPLINE
  5
8D
330
1F
100
AcDbEntity
  8
0
  6
Continuous
 62
     7
370
    25
100
AcDbSpline
210
0.0
220
0.0
230
1.0
 70
     8
 71
     3
 72
     8
 73
     4
 74
     0
 42
0.00000001
 43
0.00000001
 40
-0.5294117647058824
 40
-0.5294117647058824
 40
-0.5294117647058824
 40
-0.5294117647058824
 40
-0.4705882352941177
 40
-0.4705882352941177
 40
-0.4705882352941177
 40
-0.4705882352941177
 10
2.052876949737295
 20
-1.048126091027144
 30
0.0
 10
2.056326059481083
 20
-1.050569686230549
 30
0.0
 10
2.059970016426842
 20
-1.051857440834403
 30
0.0
 10
2.068032605080726
 20
-1.047203007476916
 30
0.0
  0
SPLINE
  5
8E
330
1F
100
AcDbEntity
  8
0
  6
Continuous
 62
     7
370
    25
100
AcDbSpline
210
0.0
220
0.0
230
1.0
 70
     8
 71
     3
 72
     8
 73
     4
 74
     0
 42
0.00000001
 43
0.00000001
 40
-0.4705882352941177
 40
-0.4705882352941177
 40
-0.4705882352941177
 40
-0.4705882352941177
 40
-0.411764705882353
 40
-0.411764705882353
 40
-0.411764705882353
 40
-0.411764705882353
 10
2.068032605080726
 20
-1.047203007476916
 30
0.0
 10
2.074690408262745
 20
-1.043359539510453
 30
0.0
 10
2.084373057119785
 20
-1.032407913973493
 30
0.0
 10
2.084373057119785
 20
-1.020226939595292
 30
0.0
  0
SPLINE
  5
92
330
1F
100
AcDbEntity
  8
0
  6
Continuous
 62
     7
370
    25
100
AcDbSpline
210
0.0
220
0.0
230
1.0
 70
     8
 71
     3
 72
     8
 73
     4
 74
     0
 42
0.00000001
 43
0.00000001
 40
-0.2352941176470588
 40
-0.2352941176470588
 40
-0.2352941176470588
 40
-0.2352941176470588
 40
-0.1764705882352941
 40
-0.1764705882352941
 40
-0.1764705882352941
 40
-0.1764705882352941
 10
2.076671878598424
 20
-1.008581437724655
 30
0.0
 10
2.076671878598424
 20
-1.014763558938217
 30
0.0
 10
2.0737931683248
 20
-1.020571615795082
 30
0.0
 10
2.067820473046425
 20
-1.02401957938732
 30
0.0
  0
SPLINE
  5
93
330
1F
100
AcDbEntity
  8
0
  6
Continuous
 62
     7
370
    25
100
AcDbSpline
210
0.0
220
0.0
230
1.0
 70
     8
 71
     3
 72
     8
 73
     4
 74
     0
 42
0.00000001
 43
0.00000001
 40
-0.1764705882352941
 40
-0.1764705882352941
 40
-0.1764705882352941
 40
-0.1764705882352941
 40
-0.1176470588235294
 40
-0.1176470588235294
 40
-0.1176470588235294
 40
-0.1176470588235294
 10
2.067820473046425
 20
-1.02401957938732
 30
0.0
 10
2.063075000870437
 20
-1.026759082162561
 30
0.0
 10
2.059385474821009
 20
-1.02607828528627
 30
0.0
 10
2.059385474821009
 20
-1.019411683191006
 30
0.0
  0
SPLINE
  5
99
330
1F
100
AcDbEntity
  8
0
  6
Continuous
 62
     7
370
    25
100
AcDbSpline
210
0.0
220
0.0
230
1.0
 70
     8
 71
     3
 72
     8
 73
     4
 74
     0
 42
0.00000001
 43
0.00000001
 40
-0.7272727272727274
 40
-0.7272727272727274
 40
-0.7272727272727274
 40
-0.7272727272727274
 40
-0.6363636363636365
 40
-0.6363636363636365
 40
-0.6363636363636365
 40
-0.6363636363636365
 10
1.999755945637759
 20
-1.043920457674512
 30
0.0
 10
1.999755945637759
 20
-1.040300460075147
 30
0.0
 10
2.00224339015915
 20
-1.036467488001787
 30
0.0
 10
2.005057675148321
 20
-1.034842835859232
 30
0.0
  0
SPLINE
  5
9A
330
1F
100
AcDbEntity
  8
0
  6
Continuous
 62
     7
370
    25
100
AcDbSpline
210
0.0
220
0.0
230
1.0
 70
     8
 71
     3
 72
     8
 73
     4
 74
     0
 42
0.00000001
 43
0.00000001
 40
-0.6363636363636365
 40
-0.6363636363636365
 40
-0.6363636363636365
 40
-0.6363636363636365
 40
-0.5454545454545455
 40
-0.5454545454545455
 40
-0.5454545454545455
 40
-0.5454545454545455
 10
2.005057675148321
 20
-1.034842835859232
 30
0.0
 10
2.005797780245943
 20
-1.034415582280723
 30
0.0
 10
2.007218279201931
 20
-1.034099986456642
 30
0.0
 10
2.00796309834475
 20
-1.034328687772696
 30
0.0
  0
SPLINE
  5
9C
330
1F
100
AcDbEntity
  8
0
  6
Continuous
 62
     7
370
    25
100
AcDbSpline
210
0.0
220
0.0
230
1.0
 70
     8
 71
     3
 72
     8
 73
     4
 74
     0
 42
0.00000001
 43
0.00000001
 40
-0.4545454545454546
 40
-0.4545454545454546
 40
-0.4545454545454546
 40
-0.4545454545454546
 40
-0.3636363636363636
 40
-0.3636363636363636
 40
-0.3636363636363636
 40
-0.3636363636363636
 10
2.010676817036112
 20
-1.024277325015048
 30
0.0
 10
2.009644441135613
 20
-1.024136601670813
 30
0.0
 10
2.008168944985485
 20
-1.024493019374964
 30
0.0
 10
2.006454603878248
 20
-1.025482687430495
 30
0.0
  0
SPLINE
  5
9D
330
1F
100
AcDbEntity
  8
0
  6
Continuous
 62
     7
370
    25
100
AcDbSpline
210
0.0
220
0.0
230
1.0
 70
     8
 71
     3
 72
     8
 73
     4
 74
     0
 42
0.00000001
 43
0.00000001
 40
-0.3636363636363636
 40
-0.3636363636363636
 40
-0.3636363636363636
 40
-0.3636363636363636
 40
-0.2727272727272727
 40
-0.2727272727272727
 40
-0.2727272727272727
 40
-0.2727272727272727
 10
2.006454603878248
 20
-1.025482687430495
 30
0.0
 10
2.003370046963889
 20
-1.027263364234383
 30
0.0
 10
2.000709754118216
 20
-1.030956600883254
 30
0.0
 10
1.99944639000247
 20
-1.034968419526965
 30
0.0
  0
SPLINE
  5
A2
330
1F
100
AcDbEntity
  8
0
  6
Continuous
 62
     7
370
    25
100
AcDbSpline
210
0.0
220
0.0
230
1.0
 70
     8
 71
     3
 72
     8
 73
     4
 74
     0
 42
0.00000001
 43
0.00000001
 40
-0.8888888888888891
 40
-0.8888888888888891
 40
-0.8888888888888891
 40
-0.8888888888888891
 40
-0.7777777777777779
 40
-0.7777777777777779
 40
-0.7777777777777779
 40
-0.7777777777777779
 10
2.117882061806033
 20
-0.9894292571576533
 30
0.0
 10
2.115210769521516
 20
-0.9949052735470301
 30
0.0
 10
2.111668950222018
 20
-0.9991763569207944
 30
0.0
 10
2.107522161787452
 20
-1.001570246928688
 30
0.0
  0
SPLINE
  5
A3
330
1F
100
AcDbEntity
  8
0
  6
Continuous
 62
     7
370
    25
100
AcDbSpline
210
0.0
220
0.0
230
1.0
 70
     8
 71
     3
 72
     8
 73
     4
 74
     0
 42
0.00000001
 43
0.00000001
 40
-0.7777777777777779
 40
-0.7777777777777779
 40
-0.7777777777777779
 40
-0.7777777777777779
 40
-0.6666666666666667
 40
-0.6666666666666667
 40
-0.6666666666666667
 40
-0.6666666666666667
 10
2.107522161787452
 20
-1.001570246928688
 30
0.0
 10
2.102127722721181
 20
-1.00468439031524
 30
0.0
 10
2.097036553896629
 20
-1.003274018793191
 30
0.0
 10
2.0966012903891
 20
-0.9974266384703607
 30
0.0
  0
SPLINE
  5
A6
330
1F
100
AcDbEntity
  8
0
  6
Continuous
 62
     7
370
    25
100
AcDbSpline
210
0.0
220
0.0
230
1.0
 70
     8
 71
     3
 72
     8
 73
     4
 74
     0
 42
0.00000001
 43
0.00000001
 40
-0.4444444444444444
 40
-0.4444444444444444
 40
-0.4444444444444444
 40
-0.4444444444444444
 40
-0.3333333333333333
 40
-0.3333333333333333
 40
-0.3333333333333333
 40
-0.3333333333333333
 10
2.126320202728193
 20
-0.9786898154556546
 30
0.0
 10
2.126320202728193
 20
-0.9631338057216856
 30
0.0
 10
2.115210769521516
 20
-0.9626990893910966
 30
0.0
 10
2.107751578654248
 20
-0.9670051886208708
 30
0.0
  0
SPLINE
  5
A7
330
1F
100
AcDbEntity
  8
0
  6
Continuous
 62
     7
370
    25
100
AcDbSpline
210
0.0
220
0.0
230
1.0
 70
     8
 71
     3
 72
     8
 73
     4
 74
     0
 42
0.00000001
 43
0.00000001
 40
-0.3333333333333333
 40
-0.3333333333333333
 40
-0.3333333333333333
 40
-0.3333333333333333
 40
-0.2222222222222222
 40
-0.2222222222222222
 40
-0.2222222222222222
 40
-0.2222222222222222
 10
2.107751578654248
 20
-0.9670051886208708
 30
0.0
 10
2.095267215595253
 20
-0.9742122580080441
 30
0.0
 10
2.088015442717092
 20
-0.9888612269844452
 30
0.0
 10
2.088015442717092
 20
-0.9994200069496659
 30
0.0
  0
SPLINE
  5
A8
330
1F
100
AcDbEntity
  8
0
  6
Continuous
 62
     7
370
    25
100
AcDbSpline
210
0.0
220
0.0
230
1.0
 70
     8
 71
     3
 72
     8
 73
     4
 74
     0
 42
0.00000001
 43
0.00000001
 40
-0.2222222222222222
 40
-0.2222222222222222
 40
-0.2222222222222222
 40
-0.2222222222222222
 40
-0.1111111111111111
 40
-0.1111111111111111
 40
-0.1111111111111111
 40
-0.1111111111111111
 10
2.088015442717092
 20
-0.9994200069496659
 30
0.0
 10
2.088015442717092
 20
-1.009949754352742
 30
0.0
 10
2.095267215595253
 20
-1.016240520863397
 30
0.0
 10
2.107751578654248
 20
-1.009033451476224
 30
0.0
  0
SPLINE
  5
A9
330
1F
100
AcDbEntity
  8
0
  6
Continuous
 62
     7
370
    25
100
AcDbSpline
210
0.0
220
0.0
230
1.0
 70
     8
 71
     3
 72
     8
 73
     4
 74
     0
 42
0.00000001
 43
0.00000001
 40
-0.1111111111111111
 40
-0.1111111111111111
 40
-0.1111111111111111
 40
-0.1111111111111111
 40
0.0
 40
0.0
 40
0.0
 40
0.0
 10
2.107751578654248
 20
-1.009033451476224
 30
0.0
 10
2.114179964969391
 20
-1.005249841642434
 30
0.0
 10
2.120111805189373
 20
-0.9982018365037689
 30
0.0
 10
2.124392158238121
 20
-0.9897083991639085
 30
0.0
  0
SPLINE
  5
AB
330
1F
100
AcDbEntity
  8
0
  6
Continuous
 62
     7
370
    25
100
AcDbSpline
210
0.0
220
0.0
230
1.0
 70
     8
 71
     3
 72
     8
 73
     4
 74
     0
 42
0.00000001
 43
0.00000001
 40
-0.875
 40
-0.875
 40
-0.875
 40
-0.875
 40
-0.75
 40
-0.75
 40
-0.75
 40
-0.75
 10
2.148873766351184
 20
-0.9432658549693547
 30
0.0
 10
2.136379975201877
 20
-0.9504783670772124
 30
0.0
 10
2.129129773672087
 20
-0.9651264289335078
 30
0.0
 10
2.129129773672087
 20
-0.9756852088987291
 30
0.0
  0
SPLINE
  5
AC
330
1F
100
AcDbEntity
  8
0
  6
Continuous
 62
     7
370
    25
100
AcDbSpline
210
0.0
220
0.0
230
1.0
 70
     8
 71
     3
 72
     8
 73
     4
 74
     0
 42
0.00000001
 43
0.00000001
 40
-0.75
 40
-0.75
 40
-0.75
 40
-0.75
 40
-0.625
 40
-0.625
 40
-0.625
 40
-0.625
 10
2.129129773672087
 20
-0.9756852088987291
 30
0.0
 10
2.129129773672087
 20
-0.9862149563018048
 30
0.0
 10
2.136379975201877
 20
-0.9925066299325654
 30
0.0
 10
2.148873766351184
 20
-0.9852941178247078
 30
0.0
  0
SPLINE
  5
AD
330
1F
100
AcDbEntity
  8
0
  6
Continuous
 62
     7
370
    25
100
AcDbSpline
210
0.0
220
0.0
230
1.0
 70
     8
 71
     3
 72
     8
 73
     4
 74
     0
 42
0.00000001
 43
0.00000001
 40
-0.625
 40
-0.625
 40
-0.625
 40
-0.625
 40
-0.5
 40
-0.5
 40
-0.5
 40
-0.5
 10
2.148873766351184
 20
-0.9852941178247078
 30
0.0
 10
2.155683990328247
 20
-0.981362659206199
 30
0.0
 10
2.161728967633176
 20
-0.973826554731538
 30
0.0
 10
2.164926661632561
 20
-0.9663809098442813
 30
0.0
  0
SPLINE
  5
AF
330
1F
100
AcDbEntity
  8
0
  6
Continuous
 62
     7
370
    25
100
AcDbSpline
210
0.0
220
0.0
230
1.0
 70
     8
 71
     3
 72
     8
 73
     4
 74
     0
 42
0.00000001
 43
0.00000001
 40
-0.375
 40
-0.375
 40
-0.375
 40
-0.375
 40
-0.25
 40
-0.25
 40
-0.25
 40
-0.25
 10
2.158182434288402
 20
-0.9658250292603988
 30
0.0
 10
2.156120825184149
 20
-0.9706333539276232
 30
0.0
 10
2.153075551979891
 20
-0.9748028699261465
 30
0.0
 10
2.148873766351184
 20
-0.9772285091384172
 30
0.0
  0
SPLINE
  5
B0
330
1F
100
AcDbEntity
  8
0
  6
Continuous
 62
     7
370
    25
100
AcDbSpline
210
0.0
220
0.0
230
1.0
 70
     8
 71
     3
 72
     8
 73
     4
 74
     0
 42
0.00000001
 43
0.00000001
 40
-0.25
 40
-0.25
 40
-0.25
 40
-0.25
 40
-0.125
 40
-0.125
 40
-0.125
 40
-0.125
 10
2.148873766351184
 20
-0.9772285091384172
 30
0.0
 10
2.142126396310281
 20
-0.9811236829519243
 30
0.0
 10
2.137247359520114
 20
-0.9781555529192749
 30
0.0
 10
2.137247359520114
 20
-0.9709990263368637
 30
0.0
  0
SPLINE
  5
B1
330
1F
100
AcDbEntity
  8
0
  6
Continuous
 62
     7
370
    25
100
AcDbSpline
210
0.0
220
0.0
230
1.0
 70
     8
 71
     3
 72
     8
 73
     4
 74
     0
 42
0.00000001
 43
0.00000001
 40
-0.125
 40
-0.125
 40
-0.125
 40
-0.125
 40
0.0
 40
0.0
 40
0.0
 40
0.0
 10
2.137247359520114
 20
-0.9709990263368637
 30
0.0
 10
2.137247359520114
 20
-0.9638279834734026
 30
0.0
 10
2.142060399677377
 20
-0.9552719946549609
 30
0.0
 10
2.148798341627886
 20
-0.9513822635621866
 30
0.0
  0
SPLINE
  5
B5
330
1F
100
AcDbEntity
  8
0
  6
Continuous
 62
     7
370
    25
100
AcDbSpline
210
0.0
220
0.0
230
1.0
 70
     8
 71
     3
 72
     8
 73
     4
 74
     0
 42
0.00000001
 43
0.00000001
 40
-0.7999999999999999
 40
-0.7999999999999999
 40
-0.7999999999999999
 40
-0.7999999999999999
 40
-0.7333333333333333
 40
-0.7333333333333333
 40
-0.7333333333333333
 40
-0.7333333333333333
 10
2.172429850255125
 20
-0.9551142579554108
 30
0.0
 10
2.172429850255125
 20
-0.9634157562096027
 30
0.0
 10
2.176117804956102
 20
-0.964335164309003
 30
0.0
 10
2.184034258208588
 20
-0.9639639274312706
 30
0.0
  0
SPLINE
  5
B8
330
1F
100
AcDbEntity
  8
0
  6
Continuous
 62
     7
370
    25
100
AcDbSpline
210
0.0
220
0.0
230
1.0
 70
     8
 71
     3
 72
     8
 73
     4
 74
     0
 42
0.00000001
 43
0.00000001
 40
-0.6
 40
-0.6
 40
-0.6
 40
-0.6
 40
-0.5333333333333333
 40
-0.5333333333333333
 40
-0.5333333333333333
 40
-0.5333333333333333
 10
2.183302009852987
 20
-0.9550127568887464
 30
0.0
 10
2.180995270397898
 20
-0.9548456032075208
 30
0.0
 10
2.180116886640818
 20
-0.9533802836624883
 30
0.0
 10
2.180116886640818
 20
-0.9490943516676934
 30
0.0
  0
SPLINE
  5
C7
330
1F
100
AcDbEntity
  8
0
  6
Continuous
 62
     7
370
    25
100
AcDbSpline
210
0.0
220
0.0
230
1.0
 70
     8
 71
     3
 72
     8
 73
     4
 74
     0
 42
0.00000001
 43
0.00000001
 40
-0.4545454545454546
 40
-0.4545454545454546
 40
-0.4545454545454546
 40
-0.4545454545454546
 40
-0.3636363636363636
 40
-0.3636363636363636
 40
-0.3636363636363636
 40
-0.3636363636363636
 10
2.219543589411381
 20
-0.9083989353309082
 30
0.0
 10
2.217563690424075
 20
-0.9061577986559414
 30
0.0
 10
2.213484469970865
 20
-0.9059668897005119
 30
0.0
 10
2.208179597763559
 20
-0.9090293272399739
 30
0.0
  0
SPLINE
  5
C8
330
1F
100
AcDbEntity
  8
0
  6
Continuous
 62
     7
370
    25
100
AcDbSpline
210
0.0
220
0.0
230
1.0
 70
     8
 71
     3
 72
     8
 73
     4
 74
     0
 42
0.00000001
 43
0.00000001
 40
-0.3636363636363636
 40
-0.3636363636363636
 40
-0.3636363636363636
 40
-0.3636363636363636
 40
-0.2727272727272727
 40
-0.2727272727272727
 40
-0.2727272727272727
 40
-0.2727272727272727
 10
2.208179597763559
 20
-0.9090293272399739
 30
0.0
 10
2.196551619584036
 20
-0.9157420161594111
 30
0.0
 10
2.189238564118165
 20
-0.9311866530432528
 30
0.0
 10
2.189238564118165
 20
-0.9409851427858833
 30
0.0
  0
SPLINE
  5
C9
330
1F
100
AcDbEntity
  8
0
  6
Continuous
 62
     7
370
    25
100
AcDbSpline
210
0.0
220
0.0
230
1.0
 70
     8
 71
     3
 72
     8
 73
     4
 74
     0
 42
0.00000001
 43
0.00000001
 40
-0.2727272727272727
 40
-0.2727272727272727
 40
-0.2727272727272727
 40
-0.2727272727272727
 40
-0.1818181818181818
 40
-0.1818181818181818
 40
-0.1818181818181818
 40
-0.1818181818181818
 10
2.189238564118165
 20
-0.9409851427858833
 30
0.0
 10
2.189238564118165
 20
-0.9512753715508091
 30
0.0
 10
2.196033074611189
 20
-0.9580696286557526
 30
0.0
 10
2.207782046617677
 20
-0.9512870914867697
 30
0.0
  0
SPLINE
  5
CA
330
1F
100
AcDbEntity
  8
0
  6
Continuous
 62
     7
370
    25
100
AcDbSpline
210
0.0
220
0.0
230
1.0
 70
     8
 71
     3
 72
     8
 73
     4
 74
     0
 42
0.00000001
 43
0.00000001
 40
-0.1818181818181818
 40
-0.1818181818181818
 40
-0.1818181818181818
 40
-0.1818181818181818
 40
-0.0909090909090909
 40
-0.0909090909090909
 40
-0.0909090909090909
 40
-0.0909090909090909
 10
2.207782046617677
 20
-0.9512870914867697
 30
0.0
 10
2.212683082285453
 20
-0.9484577838192695
 30
0.0
 10
2.217106428038937
 20
-0.9436015955799728
 30
0.0
 10
2.219543589411381
 20
-0.93857102559763
 30
0.0
  0
SPLINE
  5
CC
330
1F
100
AcDbEntity
  8
0
  6
Continuous
 62
     7
370
    25
100
AcDbSpline
210
0.0
220
0.0
230
1.0
 70
     8
 71
     3
 72
     8
 73
     4
 74
     0
 42
0.00000001
 43
0.00000001
 40
-0.25
 40
-0.25
 40
-0.25
 40
-0.25
 40
0.0
 40
0.0
 40
0.0
 40
0.0
 10
2.048639023095391
 20
-1.022151530143198
 30
0.0
 10
2.048639023095391
 20
-1.011592750177977
 30
0.0
 10
2.041373108081641
 20
-1.005324664029469
 30
0.0
 10
2.028898173113119
 20
-1.012526290695863
 30
0.0
  0
SPLINE
  5
CD
330
1F
100
AcDbEntity
  8
0
  6
Continuous
 62
     7
370
    25
100
AcDbSpline
210
0.0
220
0.0
230
1.0
 70
     8
 71
     3
 72
     8
 73
     4
 74
     0
 42
0.00000001
 43
0.00000001
 40
-1.0
 40
-1.0
 40
-1.0
 40
-1.0
 40
-0.75
 40
-0.75
 40
-0.75
 40
-0.75
 10
2.028898173113119
 20
-1.012526290695863
 30
0.0
 10
2.016387097131319
 20
-1.019748781125124
 30
0.0
 10
2.00914475234355
 20
-1.034392307380794
 30
0.0
 10
2.00914475234355
 20
-1.044951087346015
 30
0.0
  0
SPLINE
  5
CE
330
1F
100
AcDbEntity
  8
0
  6
Continuous
 62
     7
370
    25
100
AcDbSpline
210
0.0
220
0.0
230
1.0
 70
     8
 71
     3
 72
     8
 73
     4
 74
     0
 42
0.00000001
 43
0.00000001
 40
-0.75
 40
-0.75
 40
-0.75
 40
-0.75
 40
-0.5
 40
-0.5
 40
-0.5
 40
-0.5
 10
2.00914475234355
 20
-1.044951087346015
 30
0.0
 10
2.00914475234355
 20
-1.055480834749091
 30
0.0
 10
2.016387097131319
 20
-1.061777043980477
 30
0.0
 10
2.028898173113119
 20
-1.054554553551216
 30
0.0
  0
SPLINE
  5
CF
330
1F
100
AcDbEntity
  8
0
  6
Continuous
 62
     7
370
    25
100
AcDbSpline
210
0.0
220
0.0
230
1.0
 70
     8
 71
     3
 72
     8
 73
     4
 74
     0
 42
0.00000001
 43
0.00000001
 40
-0.5
 40
-0.5
 40
-0.5
 40
-0.5
 40
-0.25
 40
-0.25
 40
-0.25
 40
-0.25
 10
2.028898173113119
 20
-1.054554553551216
 30
0.0
 10
2.041373108081641
 20
-1.047352926884822
 30
0.0
 10
2.048639023095391
 20
-1.032681277546274
 30
0.0
 10
2.048639023095391
 20
-1.022151530143198
 30
0.0
  0
SPLINE
  5
D4
330
1F
100
AcDbEntity
  8
0
  6
Continuous
 62
     7
370
    25
100
AcDbSpline
210
0.0
220
0.0
230
1.0
 70
     8
 71
     3
 72
     8
 73
     4
 74
     0
 42
0.00000001
 43
0.00000001
 40
-0.6363636363636365
 40
-0.6363636363636365
 40
-0.6363636363636365
 40
-0.6363636363636365
 40
-0.5454545454545455
 40
-0.5454545454545455
 40
-0.5454545454545455
 40
-0.5454545454545455
 10
1.972202351397552
 20
-1.070015423850392
 30
0.0
 10
1.982549680628918
 20
-1.064042037832221
 30
0.0
 10
1.988912070311154
 20
-1.052773464363484
 30
0.0
 10
1.988912070311154
 20
-1.042661060042082
 30
0.0
  0
SPLINE
  5
D5
330
1F
100
AcDbEntity
  8
0
  6
Continuous
 62
     7
370
    25
100
AcDbSpline
210
0.0
220
0.0
230
1.0
 70
     8
 71
     3
 72
     8
 73
     4
 74
     0
 42
0.00000001
 43
0.00000001
 40
-0.5454545454545455
 40
-0.5454545454545455
 40
-0.5454545454545455
 40
-0.5454545454545455
 40
-0.4545454545454546
 40
-0.4545454545454546
 40
-0.4545454545454546
 40
-0.4545454545454546
 10
1.988912070311154
 20
-1.042661060042082
 30
0.0
 10
1.988912070311154
 20
-1.032519623158443
 30
0.0
 10
1.982549680628918
 20
-1.028622311947755
 30
0.0
 10
1.972202351397552
 20
-1.034595697965926
 30
0.0
  0
SPLINE
  5
DF
330
1F
100
AcDbEntity
  8
0
  6
Continuous
 62
     7
370
    25
100
AcDbSpline
210
0.0
220
0.0
230
1.0
 70
     8
 71
     3
 72
    26
 73
    22
 74
     0
 42
0.00000001
 43
0.00000001
 40
0.0
 40
0.0
 40
0.0
 40
0.0
 40
0.0248157666586623
 40
0.049594570822399
 40
0.0743457525111315
 40
0.0990786830384473
 40
0.1238027544714765
 40
0.1485273689731905
 40
0.1732619280872622
 40
0.1980158220264588
 40
0.2227984190254566
 40
0.2476190548181344
 40
0.3737987824431256
 40
0.5000057676712137
 40
0.6261854959537367
 40
0.7523924818509601
 40
0.8019847892245524
 40
0.8514665724936735
 40
0.9009129074621662
 40
0.9503990312708546
 40
1.0
 40
1.0
 40
1.0
 40
1.0
 10
5.177353741597917
 20
1.359765840968473
 30
0.0
 10
5.181786238451854
 20
1.362353349876252
 30
0.0
 10
5.190644630060961
 20
1.367524513658758
 30
0.0
 10
5.203590978274168
 20
1.375462914742659
 30
0.0
 10
5.216272179285709
 20
1.383525608185879
 30
0.0
 10
5.22866478570501
 20
1.39172612374437
 30
0.0
 10
5.240775063899696
 20
1.400060838559857
 30
0.0
 10
5.252601327332506
 20
1.408530713900896
 30
0.0
 10
5.26414402896169
 20
1.417135503128665
 30
0.0
 10
5.275403013366979
 20
1.425875209243786
 30
0.0
 10
5.286378423064922
 20
1.434750043471331
 30
0.0
 10
5.311614559229906
 20
1.456015232153699
 30
0.0
 10
5.347992912939158
 20
1.490908970549645
 30
0.0
 10
5.389181335204812
 20
1.54116877806344
 30
0.0
 10
5.421622829665485
 20
1.593525647507574
 30
0.0
 10
5.440159830982901
 20
1.636578380413768
 30
0.0
 10
5.45013078073347
 20
1.669113626012305
 30
0.0
 10
5.455262311689244
 20
1.69069652456043
 30
0.0
 10
5.458900433733109
 20
1.712362413833787
 30
0.0
 10
5.46117780417318
 20
1.734111827716027
 30
0.0
 10
5.461458185464084
 20
1.748642746988892
 30
0.0
 10
5.461598538594708
 20
1.755916627511563
 30
0.0
  0
SPLINE
  5
E1
330
1F
100
AcDbEntity
  8
0
  6
Continuous
 62
     7
370
    25
100
AcDbSpline
210
0.0
220
0.0
230
1.0
 70
     8
 71
     3
 72
    46
 73
    42
 74
     0
 42
0.00000001
 43
0.00000001
 40
0.0
 40
0.0
 40
0.0
 40
0.0
 40
0.1249999999999996
 40
0.1249999999999996
 40
0.2499999999999991
 40
0.2499999999999991
 40
0.3124999999999991
 40
0.3124999999999991
 40
0.374999999999999
 40
0.374999999999999
 40
0.4374999999999989
 40
0.4374999999999989
 40
0.4687499999999989
 40
0.4687499999999989
 40
0.4999999999999989
 40
0.4999999999999989
 40
0.5312499999999989
 40
0.5312499999999989
 40
0.5624999999999989
 40
0.5624999999999989
 40
0.5937499999999989
 40
0.5937499999999989
 40
0.6249999999999989
 40
0.6249999999999989
 40
0.6562499999999989
 40
0.6562499999999989
 40
0.6874999999999989
 40
0.6874999999999989
 40
0.7187499999999989
 40
0.7187499999999989
 40
0.7499999999999989
 40
0.7499999999999989
 40
0.781249999999999
 40
0.781249999999999
 40
0.8124999999999991
 40
0.8124999999999991
 40
0.8749999999999994
 40
0.8749999999999994
 40
0.9374999999999998
 40
0.9374999999999998
 40
1.0
 40
1.0
 40
1.0
 40
1.0
 10
4.434950008770256
 20
1.074317888571091
 30
0.0
 10
4.290107099603792
 20
0.990701850741478
 30
0.0
 10
4.144662924095304
 20
0.9074209401368337
 30
0.0
 10
3.85107470485387
 20
0.742414686311008
 30
0.0
 10
3.702983816133258
 20
0.6606482258906752
 30
0.0
 10
3.476512324188783
 20
0.5406302835270962
 30
0.0
 10
3.400285145190618
 20
0.5010718236801714
 30
0.0
 10
3.245605701809545
 20
0.4233821430124767
 30
0.0
 10
3.167162565580875
 20
0.3852392781907651
 30
0.0
 10
3.006866228825816
 20
0.3113187713378023
 30
0.0
 10
2.925024234194015
 20
0.2755144838483075
 30
0.0
 10
2.798260059462246
 20
0.2249739983202624
 30
0.0
 10
2.755330783159745
 20
0.2086647211749448
 30
0.0
 10
2.667794481719993
 20
0.177542528129517
 30
0.0
 10
2.623185229932586
 20
0.1627260074781647
 30
0.0
 10
2.53193222884215
 20
0.1352110999886883
 30
0.0
 10
2.485281795619826
 20
0.1225114544775364
 30
0.0
 10
2.389689029441123
 20
0.1001383840794481
 30
0.0
 10
2.340734908856173
 20
0.0904707185665667
 30
0.0
 10
2.240711468218074
 20
0.0753633712226819
 30
0.0
 10
2.189631299461351
 20
0.0699434723479778
 30
0.0
 10
2.086457092723269
 20
0.0644903423559382
 30
0.0
 10
2.034385137068153
 20
0.0644847986532584
 30
0.0
 10
1.931187596188514
 20
0.0701930479460183
 30
0.0
 10
1.880107671654969
 20
0.0759042880952825
 30
0.0
 10
1.780495074415414
 20
0.0921786548398891
 30
0.0
 10
1.731970797525909
 20
0.1027163394348781
 30
0.0
 10
1.637867789087362
 20
0.1272692742319668
 30
0.0
 10
1.592272314030633
 20
0.1412708941816427
 30
0.0
 10
1.50363923221533
 20
0.1715848279595696
 30
0.0
 10
1.460588593160105
 20
0.1878975022156616
 30
0.0
 10
1.376455321327067
 20
0.2220295754578062
 30
0.0
 10
1.335368473252768
 20
0.2398539000748966
 30
0.0
 10
1.254627326241703
 20
0.2764898900095391
 30
0.0
 10
1.214971923776024
 20
0.2953035449779647
 30
0.0
 10
1.097516011454922
 20
0.3527138417174184
 30
0.0
 10
1.021187794369503
 20
0.3922499068760003
 30
0.0
 10
0.8702185041092895
 20
0.4722888790136461
 30
0.0
 10
0.795597648949461
 20
0.5128148562760726
 30
0.0
 10
0.6468153302330036
 20
0.5941069972365041
 30
0.0
 10
0.5726643116960329
 20
0.634881523135307
 30
0.0
 10
0.498395282714806
 20
0.6755743582919835
 30
0.0
  0
SPLINE
  5
E3
330
1F
100
AcDbEntity
  8
0
  6
Continuous
 62
     7
370
    25
100
AcDbSpline
210
0.0
220
0.0
230
1.0
 70
     8
 71
     3
 72
    26
 73
    22
 74
     0
 42
0.00000001
 43
0.00000001
 40
0.0
 40
0.0
 40
0.0
 40
0.0
 40
0.0248129113394653
 40
0.0495882318013321
 40
0.074335448311792
 40
0.0990640801425769
 40
0.1237836680357563
 40
0.148503763204953
 40
0.1732339162760336
 40
0.1979836662312036
 40
0.2227625294203627
 40
0.2475799887026927
 40
0.3737801921728688
 40
0.5000058642260491
 40
0.6262060670912196
 40
0.752431741031194
 40
0.8020176671980163
 40
0.8514911475213335
 40
0.9009284423349073
 40
0.9504059792922904
 40
1.0
 40
1.0
 40
1.0
 40
1.0
 10
5.286278656706133
 20
1.811943481988257
 30
0.0
 10
5.286240795098218
 20
1.808052245334748
 30
0.0
 10
5.286165129241685
 20
1.800275667144136
 30
0.0
 10
5.285551797152015
 20
1.78862259140826
 30
0.0
 10
5.284572335380469
 20
1.776991638526945
 30
0.0
 10
5.283191018733072
 20
1.765382813282329
 30
0.0
 10
5.281417403817127
 20
1.753796119876296
 30
0.0
 10
5.279248936830266
 20
1.74223156788191
 30
0.0
 10
5.276686288423513
 20
1.73068914595249
 30
0.0
 10
5.273729336459757
 20
1.719168920865747
 30
0.0
 10
5.270377910116241
 20
1.70767066692773
 30
0.0
 10
5.261536175115759
 20
1.680578416915693
 30
0.0
 10
5.243192336495313
 20
1.638324377770805
 30
0.0
 10
5.208226656029275
 20
1.582382555540468
 30
0.0
 10
5.163834448477199
 20
1.528709506594335
 30
0.0
 10
5.121139822391907
 20
1.48816332391657
 30
0.0
 10
5.085811620234074
 20
1.45930759411759
 30
0.0
 10
5.061254664154967
 20
1.440823726967434
 30
0.0
 10
5.035455859968468
 20
1.422937736995746
 30
0.0
 10
5.008514944687874
 20
1.405590489291941
 30
0.0
 10
4.9895751380679
 20
1.394549802241161
 30
0.0
 10
4.980094100484074
 20
1.389022968151454
 30
0.0
  0
LWPOLYLINE
  5
E9
330
1F
100
AcDbEntity
  8
0
  6
Continuous
 62
     7
370
    25
100
AcDbPolyline
 90
        3
 70
   128
 43
0.0
 10
1.803975686
 20
-1.2974605262
 10
1.8039644877
 20
-1.2974540605
 10
1.8011526599
 20
-1.2957626467
  0
SPLINE
  5
EB
330
1F
100
AcDbEntity
  8
0
  6
Continuous
 62
     7
370
    25
100
AcDbSpline
210
0.0
220
0.0
230
1.0
 70
     8
 71
     3
 72
     9
 73
     5
 74
     0
 42
0.00000001
 43
0.00000001
 40
0.0
 40
0.0
 40
0.0
 40
0.0
 40
0.5895322430277065
 40
0.9999999999999999
 40
0.9999999999999999
 40
0.9999999999999999
 40
0.9999999999999999
 10
1.986149934447144
 20
-1.041066512948678
 30
0.0
 10
1.985951519724091
 20
-1.038424441857242
 30
0.0
 10
1.985614956753363
 20
-1.033942802179882
 30
0.0
 10
1.982835567324014
 20
-1.032210809799881
 30
0.0
 10
1.981694717579197
 20
-1.031499882772569
 30
0.0
  0
SPLINE
  5
EC
330
1F
100
AcDbEntity
  8
0
  6
Continuous
 62
     7
370
    25
100
AcDbSpline
210
0.0
220
0.0
230
1.0
 70
     8
 71
     3
 72
     8
 73
     4
 74
     0
 42
0.00000001
 43
0.00000001
 40
-0.6363636363636365
 40
-0.6363636363636365
 40
-0.6363636363636365
 40
-0.6363636363636365
 40
-0.5454545454545455
 40
-0.5454545454545455
 40
-0.5454545454545455
 40
-0.5454545454545455
 10
1.969440215533542
 20
-1.068420876756988
 30
0.0
 10
1.979787544764908
 20
-1.062447490738817
 30
0.0
 10
1.986149934447144
 20
-1.05117891727008
 30
0.0
 10
1.986149934447144
 20
-1.041066512948678
 30
0.0
  0
SPLINE
  5
F2
330
1F
100
AcDbEntity
  8
0
  6
Continuous
 62
     7
370
    25
100
AcDbSpline
210
0.0
220
0.0
230
1.0
 70
     8
 71
     3
 72
    10
 73
     6
 74
     0
 42
0.00000001
 43
0.00000001
 40
0.0
 40
0.0
 40
0.0
 40
0.0
 40
0.1196519245034139
 40
0.5151395335113539
 40
1.0
 40
1.0
 40
1.0
 40
1.0
 10
1.975450364279343
 20
-1.041437008976945
 30
0.0
 10
1.975277362301564
 20
-1.041260837984471
 30
0.0
 10
1.974532533846029
 20
-1.040502365914272
 30
0.0
 10
1.972080532822723
 20
-1.040842206451151
 30
0.0
 10
1.969950334461399
 20
-1.041878580040517
 30
0.0
 10
1.968777106507668
 20
-1.042449373112011
 30
0.0
  0
SPLINE
  5
F4
330
1F
100
AcDbEntity
  8
0
  6
Continuous
 62
     7
370
    25
100
AcDbSpline
210
0.0
220
0.0
230
1.0
 70
     8
 71
     3
 72
    10
 73
     6
 74
     0
 42
0.00000001
 43
0.00000001
 40
0.0
 40
0.0
 40
0.0
 40
0.0
 40
0.4380911559559733
 40
0.8761846464467551
 40
1.0
 40
1.0
 40
1.0
 40
1.0
 10
0.4983952827098909
 20
0.6755743582948239
 30
0.0
 10
0.5007193717453211
 20
0.6766232635012525
 30
0.0
 10
0.5053675622009712
 20
0.6787210795035993
 30
0.0
 10
0.5104122133222702
 20
0.678766521714791
 30
0.0
 10
0.5123395238508822
 20
0.677214750880465
 30
0.0
 10
0.5127642024033491
 20
0.6768728216573853
 30
0.0
  0
SPLINE
  5
F5
330
1F
100
AcDbEntity
  8
0
  6
Continuous
 62
     7
370
    25
100
AcDbSpline
210
0.0
220
0.0
230
1.0
 70
     8
 71
     3
 72
     8
 73
     4
 74
     0
 42
0.00000001
 43
0.00000001
 40
0.2
 40
0.2
 40
0.2
 40
0.2
 40
0.4
 40
0.4
 40
0.4
 40
0.4
 10
1.971539242371679
 20
-1.061338254601121
 30
0.0
 10
1.97760936125104
 20
-1.057834049561168
 30
0.0
 10
1.980343507471638
 20
-1.05221106172343
 30
0.0
 10
1.980343507471638
 20
-1.047607586079567
 30
0.0
  0
SPLINE
  5
F9
330
1F
100
AcDbEntity
  8
0
  6
Continuous
 62
     7
370
    25
100
AcDbSpline
210
0.0
220
0.0
230
1.0
 70
     8
 71
     3
 72
     8
 73
     4
 74
     0
 42
0.00000001
 43
0.00000001
 40
0.4
 40
0.4
 40
0.4
 40
0.4
 40
0.6000000000000001
 40
0.6000000000000001
 40
0.6000000000000001
 40
0.6000000000000001
 10
1.980343507471638
 20
-1.047607586079567
 30
0.0
 10
1.980343507471638
 20
-1.042987779619414
 30
0.0
 10
1.97760936125104
 20
-1.040539715165462
 30
0.0
 10
1.971539242371679
 20
-1.044043920205415
 30
0.0
  0
SPLINE
  5
104
330
1F
100
AcDbEntity
  8
0
  6
Continuous
 62
     7
370
    25
100
AcDbSpline
210
0.0
220
0.0
230
1.0
 70
     8
 71
     3
 72
     8
 73
     4
 74
     0
 42
0.00000001
 43
0.00000001
 40
-0.6363636363636365
 40
-0.6363636363636365
 40
-0.6363636363636365
 40
-0.6363636363636365
 40
-0.5454545454545455
 40
-0.5454545454545455
 40
-0.5454545454545455
 40
-0.5454545454545455
 10
2.002295539284311
 20
-1.033248288765828
 30
0.0
 10
2.003035644381932
 20
-1.032821035187319
 30
0.0
 10
2.00445614333792
 20
-1.032505439363238
 30
0.0
 10
2.00520096248074
 20
-1.032734140679292
 30
0.0
  0
SPLINE
  5
105
330
1F
100
AcDbEntity
  8
0
  6
Continuous
 62
     7
370
    25
100
AcDbSpline
210
0.0
220
0.0
230
1.0
 70
     8
 71
     3
 72
     8
 73
     4
 74
     0
 42
0.00000001
 43
0.00000001
 40
-0.7272727272727274
 40
-0.7272727272727274
 40
-0.7272727272727274
 40
-0.7272727272727274
 40
-0.6363636363636365
 40
-0.6363636363636365
 40
-0.6363636363636365
 40
-0.6363636363636365
 10
1.996993809773749
 20
-1.042325910581108
 30
0.0
 10
1.996993809773749
 20
-1.038705912981744
 30
0.0
 10
1.99948125429514
 20
-1.034872940908383
 30
0.0
 10
2.002295539284311
 20
-1.033248288765828
 30
0.0
  0
SPLINE
  5
10C
330
1F
100
AcDbEntity
  8
0
  6
Continuous
 62
     7
370
    25
100
AcDbSpline
210
0.0
220
0.0
230
1.0
 70
     8
 71
     3
 72
    10
 73
     6
 74
     0
 42
0.00000001
 43
0.00000001
 40
0.0
 40
0.0
 40
0.0
 40
0.0
 40
0.1023090535992977
 40
0.5229768581245352
 40
1.0
 40
1.0
 40
1.0
 40
1.0
 10
2.011858779091993
 20
-1.054519629654692
 30
0.0
 10
2.012175402172188
 20
-1.054847062010517
 30
0.0
 10
2.013793895725438
 20
-1.056520809725635
 30
0.0
 10
2.018935578189866
 20
-1.056276415338197
 30
0.0
 10
2.023637491818696
 20
-1.054110793954177
 30
0.0
 10
2.026136037249109
 20
-1.052960006457812
 30
0.0
  0
SPLINE
  5
10D
330
1F
100
AcDbEntity
  8
0
  6
Continuous
 62
     7
370
    25
100
AcDbSpline
210
0.0
220
0.0
230
1.0
 70
     8
 71
     3
 72
     9
 73
     5
 74
     0
 42
0.00000001
 43
0.00000001
 40
0.0
 40
0.0
 40
0.0
 40
0.0
 40
0.5501216196671393
 40
1.0
 40
1.0
 40
1.0
 40
1.0
 10
2.045876887231382
 20
-1.020556983049794
 30
0.0
 10
2.045597736771783
 20
-1.017696119695282
 30
0.0
 10
2.045090302688812
 20
-1.012495699911302
 30
0.0
 10
2.041852377557368
 20
-1.010348091526455
 30
0.0
 10
2.040395705043596
 20
-1.009381928944691
 30
0.0
  0
SPLINE
  5
10E
330
1F
100
AcDbEntity
  8
0
  6
Continuous
 62
     7
370
    25
100
AcDbSpline
210
0.0
220
0.0
230
1.0
 70
     8
 71
     3
 72
     8
 73
     4
 74
     0
 42
0.00000001
 43
0.00000001
 40
-0.5
 40
-0.5
 40
-0.5
 40
-0.5
 40
-0.25
 40
-0.25
 40
-0.25
 40
-0.25
 10
2.026136037249109
 20
-1.052960006457812
 30
0.0
 10
2.038610972217631
 20
-1.045758379791418
 30
0.0
 10
2.045876887231382
 20
-1.03108673045287
 30
0.0
 10
2.045876887231382
 20
-1.020556983049794
 30
0.0
  0
SPLINE
  5
10F
330
1F
100
AcDbEntity
  8
0
  6
Continuous
 62
     7
370
    25
100
AcDbSpline
210
0.0
220
0.0
230
1.0
 70
     8
 71
     3
 72
    10
 73
     6
 74
     0
 42
0.00000001
 43
0.00000001
 40
0.0
 40
0.0
 40
0.0
 40
0.0
 40
0.1206191238398934
 40
0.5443639598707095
 40
1.0
 40
1.0
 40
1.0
 40
1.0
 10
2.034361551230421
 20
-1.018245318608195
 30
0.0
 10
2.034143263591051
 20
-1.018024065887187
 30
0.0
 10
2.033158113641568
 20
-1.017025534282033
 30
0.0
 10
2.030189755547215
 20
-1.017159429492102
 30
0.0
 10
2.02751955541327
 20
-1.018374857408757
 30
0.0
 10
2.026136037249109
 20
-1.019004610429344
 30
0.0
  0
SPLINE
  5
110
330
1F
100
AcDbEntity
  8
0
  6
Continuous
 62
     7
370
    25
100
AcDbSpline
210
0.0
220
0.0
230
1.0
 70
     8
 71
     3
 72
     8
 73
     4
 74
     0
 42
0.00000001
 43
0.00000001
 40
0.5
 40
0.5
 40
0.5
 40
0.5
 40
0.75
 40
0.75
 40
0.75
 40
0.75
 10
2.026136037249109
 20
-1.019004610429344
 30
0.0
 10
2.019401237995342
 20
-1.022892527281906
 30
0.0
 10
2.014517487159977
 20
-1.031489336505929
 30
0.0
 10
2.014517487159977
 20
-1.03866037936939
 30
0.0
  0
SPLINE
  5
111
330
1F
100
AcDbEntity
  8
0
  6
Continuous
 62
     7
370
    25
100
AcDbSpline
210
0.0
220
0.0
230
1.0
 70
     8
 71
     3
 72
     9
 73
     5
 74
     0
 42
0.00000001
 43
0.00000001
 40
0.0
 40
0.0
 40
0.0
 40
0.0
 40
0.573417873019303
 40
1.0
 40
1.0
 40
1.0
 40
1.0
 10
2.014517487159977
 20
-1.03866037936939
 30
0.0
 10
2.014688030030891
 20
-1.040530282462609
 30
0.0
 10
2.014985444672007
 20
-1.04379126050533
 30
0.0
 10
2.017017779391768
 20
-1.04509845836966
 30
0.0
 10
2.017884737059261
 20
-1.04565608561501
 30
0.0
  0
SPLINE
  5
113
330
1F
100
AcDbEntity
  8
0
  6
Continuous
 62
     7
370
    25
100
AcDbSpline
210
0.0
220
0.0
230
1.0
 70
     8
 71
     3
 72
     8
 73
     4
 74
     0
 42
0.00000001
 43
0.00000001
 40
0.25
 40
0.25
 40
0.25
 40
0.25
 40
0.5
 40
0.5
 40
0.5
 40
0.5
 10
2.040491581627738
 20
-1.02685494798741
 30
0.0
 10
2.040491581627738
 20
-1.019683905123949
 30
0.0
 10
2.035617258882765
 20
-1.016720311871482
 30
0.0
 10
2.028898173113119
 20
-1.020599157522747
 30
0.0
  0
SPLINE
  5
114
330
1F
100
AcDbEntity
  8
0
  6
Continuous
 62
     7
370
    25
100
AcDbSpline
210
0.0
220
0.0
230
1.0
 70
     8
 71
     3
 72
     8
 73
     4
 74
     0
 42
0.00000001
 43
0.00000001
 40
0.0
 40
0.0
 40
0.0
 40
0.0
 40
0.25
 40
0.25
 40
0.25
 40
0.25
 10
2.028898173113119
 20
-1.046488944864925
 30
0.0
 10
2.035617258882765
 20
-1.04261009921366
 30
0.0
 10
2.040491581627738
 20
-1.034011474569821
 30
0.0
 10
2.040491581627738
 20
-1.02685494798741
 30
0.0
  0
SPLINE
  5
115
330
1F
100
AcDbEntity
  8
0
  6
Continuous
 62
     7
370
    25
100
AcDbSpline
210
0.0
220
0.0
230
1.0
 70
     8
 71
     3
 72
     8
 73
     4
 74
     0
 42
0.00000001
 43
0.00000001
 40
0.75
 40
0.75
 40
0.75
 40
0.75
 40
1.0
 40
1.0
 40
1.0
 40
1.0
 10
2.017279623023987
 20
-1.040254926462794
 30
0.0
 10
2.017279623023987
 20
-1.047411453045205
 30
0.0
 10
2.022163373859353
 20
-1.050376861717487
 30
0.0
 10
2.028898173113119
 20
-1.046488944864925
 30
0.0
  0
SPLINE
  5
116
330
1F
100
AcDbEntity
  8
0
  6
Continuous
 62
     7
370
    25
100
AcDbSpline
210
0.0
220
0.0
230
1.0
 70
     8
 71
     3
 72
     8
 73
     4
 74
     0
 42
0.00000001
 43
0.00000001
 40
0.5
 40
0.5
 40
0.5
 40
0.5
 40
0.75
 40
0.75
 40
0.75
 40
0.75
 10
2.028898173113119
 20
-1.020599157522747
 30
0.0
 10
2.022163373859353
 20
-1.02448707437531
 30
0.0
 10
2.017279623023987
 20
-1.033083883599333
 30
0.0
 10
2.017279623023987
 20
-1.040254926462794
 30
0.0
  0
SPLINE
  5
11C
330
1F
100
AcDbEntity
  8
0
  6
Continuous
 62
     7
370
    25
100
AcDbSpline
210
0.0
220
0.0
230
1.0
 70
     8
 71
     3
 72
    10
 73
     6
 74
     0
 42
0.00000001
 43
0.00000001
 40
0.0
 40
0.0
 40
0.0
 40
0.0
 40
0.0461134477821855
 40
0.4790896849611747
 40
0.9999999999999999
 40
0.9999999999999999
 40
0.9999999999999999
 40
0.9999999999999999
 10
2.058791748820952
 20
-1.023403646477986
 30
0.0
 10
2.058707104858051
 20
-1.023391334537477
 30
0.0
 10
2.057827707383552
 20
-1.023263421228374
 30
0.0
 10
2.056906840557561
 20
-1.021267150880712
 30
0.0
 10
2.056723474040916
 20
-1.019035709534703
 30
0.0
 10
2.056623338956999
 20
-1.017817136097602
 30
0.0
  0
SPLINE
  5
11E
330
1F
100
AcDbEntity
  8
0
  6
Continuous
 62
     7
370
    25
100
AcDbSpline
210
0.0
220
0.0
230
1.0
 70
     8
 71
     3
 72
     8
 73
     4
 74
     0
 42
0.00000001
 43
0.00000001
 40
-0.4705882352941177
 40
-0.4705882352941177
 40
-0.4705882352941177
 40
-0.4705882352941177
 40
-0.411764705882353
 40
-0.411764705882353
 40
-0.411764705882353
 40
-0.411764705882353
 10
2.065270469216716
 20
-1.045608460383512
 30
0.0
 10
2.071928272398734
 20
-1.041764992417049
 30
0.0
 10
2.081610921255774
 20
-1.030813366880089
 30
0.0
 10
2.081610921255774
 20
-1.018632392501888
 30
0.0
  0
SPLINE
  5
11F
330
1F
100
AcDbEntity
  8
0
  6
Continuous
 62
     7
370
    25
100
AcDbSpline
210
0.0
220
0.0
230
1.0
 70
     8
 71
     3
 72
     8
 73
     4
 74
     0
 42
0.00000001
 43
0.00000001
 40
-0.4964705882352942
 40
-0.4964705882352942
 40
-0.4964705882352942
 40
-0.4964705882352942
 40
-0.4705882352941177
 40
-0.4705882352941177
 40
-0.4705882352941177
 40
-0.4705882352941177
 10
2.056834394630296
 20
-1.048708809861115
 30
0.0
 10
2.059030838299991
 20
-1.048553954148785
 30
0.0
 10
2.061722930209007
 20
-1.047656411060806
 30
0.0
 10
2.065270469216716
 20
-1.045608460383512
 30
0.0
  0
SPLINE
  5
121
330
1F
100
AcDbEntity
  8
0
  6
Continuous
 62
     7
370
    25
100
AcDbSpline
210
0.0
220
0.0
230
1.0
 70
     8
 71
     3
 72
     8
 73
     4
 74
     0
 42
0.00000001
 43
0.00000001
 40
-0.8823529411764707
 40
-0.8823529411764707
 40
-0.8823529411764707
 40
-0.8823529411764707
 40
-0.823529411764706
 40
-0.823529411764706
 40
-0.823529411764706
 40
-0.823529411764706
 10
2.063413135404827
 20
-1.03144039575031
 30
0.0
 10
2.068369168266744
 20
-1.028579338878433
 30
0.0
 10
2.07118659595266
 20
-1.025301645520492
 30
0.0
 10
2.074205156234114
 20
-1.019770318394674
 30
0.0
  0
SPLINE
  5
122
330
1F
100
AcDbEntity
  8
0
  6
Continuous
 62
     7
370
    25
100
AcDbSpline
210
0.0
220
0.0
230
1.0
 70
     8
 71
     3
 72
    10
 73
     6
 74
     0
 42
0.00000001
 43
0.00000001
 40
0.0
 40
0.0
 40
0.0
 40
0.0
 40
0.1117295065164682
 40
0.547198218867534
 40
1.0
 40
1.0
 40
1.0
 40
1.0
 10
2.05333516466236
 20
-1.032483545704832
 30
0.0
 10
2.053602093676994
 20
-1.03270024620135
 30
0.0
 10
2.054909385599481
 20
-1.033761542625366
 30
0.0
 10
2.058435248196542
 20
-1.03374332211041
 30
0.0
 10
2.061732393630612
 20
-1.032217959478535
 30
0.0
 10
2.063413135404827
 20
-1.03144039575031
 30
0.0
  0
SPLINE
  5
126
330
1F
100
AcDbEntity
  8
0
  6
Continuous
 62
     7
370
    25
100
AcDbSpline
210
0.0
220
0.0
230
1.0
 70
     8
 71
     3
 72
    10
 73
     6
 74
     0
 42
0.00000001
 43
0.00000001
 40
0.0
 40
0.0
 40
0.0
 40
0.0
 40
0.1022502147705353
 40
0.5231667601016836
 40
1.0
 40
1.0
 40
1.0
 40
1.0
 10
2.090732219200896
 20
-1.008989675910998
 30
0.0
 10
2.091048264190978
 20
-1.009316471193773
 30
0.0
 10
2.092665319312857
 20
-1.010988530560003
 30
0.0
 10
2.097798814605378
 20
-1.010748735153254
 30
0.0
 10
2.102495064152053
 20
-1.008587061533702
 30
0.0
 10
2.104989442790238
 20
-1.00743890438282
 30
0.0
  0
SPLINE
  5
127
330
1F
100
AcDbEntity
  8
0
  6
Continuous
 62
     7
370
    25
100
AcDbSpline
210
0.0
220
0.0
230
1.0
 70
     8
 71
     3
 72
    10
 73
     6
 74
     0
 42
0.00000001
 43
0.00000001
 40
0.0
 40
0.0
 40
0.0
 40
0.0
 40
0.4532738130565311
 40
0.8475366763434229
 40
1.0
 40
1.0
 40
1.0
 40
1.0
 10
2.123558066864183
 20
-0.9770952683622511
 30
0.0
 10
2.123353448620892
 20
-0.9745802859757282
 30
0.0
 10
2.122970851036734
 20
-0.9698777424986137
 30
0.0
 10
2.120657139546965
 20
-0.9657596182518888
 30
0.0
 10
2.118590625329962
 20
-0.9648373806273739
 30
0.0
 10
2.118014344856425
 20
-0.964580199945723
 30
0.0
  0
SPLINE
  5
12A
330
1F
100
AcDbEntity
  8
0
  6
Continuous
 62
     7
370
    25
100
AcDbSpline
210
0.0
220
0.0
230
1.0
 70
     8
 71
     3
 72
     9
 73
     5
 74
     0
 42
0.00000001
 43
0.00000001
 40
0.0
 40
0.0
 40
0.0
 40
0.0
 40
0.4765871586627375
 40
1.0
 40
1.0
 40
1.0
 40
1.0
 10
2.096595144725225
 20
-1.000819647859868
 30
0.0
 10
2.09590237970733
 20
-1.000320081042007
 30
0.0
 10
2.094448784063168
 20
-0.9992718639241491
 30
0.0
 10
2.094048610504474
 20
-0.997013925397011
 30
0.0
 10
2.093839154525089
 20
-0.9958320913769569
 30
0.0
  0
SPLINE
  5
12B
330
1F
100
AcDbEntity
  8
0
  6
Continuous
 62
     7
370
    25
100
AcDbSpline
210
0.0
220
0.0
230
1.0
 70
     8
 71
     3
 72
     8
 73
     4
 74
     0
 42
0.00000001
 43
0.00000001
 40
-0.1111111111111111
 40
-0.1111111111111111
 40
-0.1111111111111111
 40
-0.1111111111111111
 40
0.0
 40
0.0
 40
0.0
 40
0.0
 10
2.104989442790238
 20
-1.00743890438282
 30
0.0
 10
2.11141782910538
 20
-1.00365529454903
 30
0.0
 10
2.117349669325362
 20
-0.9966072894103652
 30
0.0
 10
2.121630022374111
 20
-0.9881138520705051
 30
0.0
  0
SPLINE
  5
12C
330
1F
100
AcDbEntity
  8
0
  6
Continuous
 62
     7
370
    25
100
AcDbSpline
210
0.0
220
0.0
230
1.0
 70
     8
 71
     3
 72
    10
 73
     6
 74
     0
 42
0.00000001
 43
0.00000001
 40
0.0
 40
0.0
 40
0.0
 40
0.0
 40
0.2744062033658985
 40
0.6301250518690218
 40
1.0
 40
1.0
 40
1.0
 40
1.0
 10
2.11148118260605
 20
-0.9729024259114037
 30
0.0
 10
2.1109467700517
 20
-0.9725621883953733
 30
0.0
 10
2.109719586648414
 20
-0.9717808934399148
 30
0.0
 10
2.107023018711095
 20
-0.9720998229972595
 30
0.0
 10
2.104993298125814
 20
-0.9730907718417728
 30
0.0
 10
2.103958638238032
 20
-0.973595912809302
 30
0.0
  0
SPLINE
  5
12D
330
1F
100
AcDbEntity
  8
0
  6
Continuous
 62
     7
370
    25
100
AcDbSpline
210
0.0
220
0.0
230
1.0
 70
     8
 71
     3
 72
     8
 73
     4
 74
     0
 42
0.00000001
 43
0.00000001
 40
0.3333333333333333
 40
0.3333333333333333
 40
0.3333333333333333
 40
0.3333333333333333
 40
0.6666666666666666
 40
0.6666666666666666
 40
0.6666666666666666
 40
0.6666666666666666
 10
2.103958638238031
 20
-0.973595912809302
 30
0.0
 10
2.099082744144686
 20
-0.9764107065548201
 30
0.0
 10
2.095077377066402
 20
-0.9820834748261792
 30
0.0
 10
2.093839154525089
 20
-0.9887463316649149
 30
0.0
  0
SPLINE
  5
132
330
1F
100
AcDbEntity
  8
0
  6
Continuous
 62
     7
370
    25
100
AcDbSpline
210
0.0
220
0.0
230
1.0
 70
     8
 71
     3
 72
     8
 73
     4
 74
     0
 42
0.00000001
 43
0.00000001
 40
0.3333333333333333
 40
0.3333333333333333
 40
0.3333333333333333
 40
0.3333333333333333
 40
0.6666666666666666
 40
0.6666666666666666
 40
0.6666666666666666
 40
0.6666666666666666
 10
2.106720774102041
 20
-0.9751904599027055
 30
0.0
 10
2.101844880008696
 20
-0.9780052536482241
 30
0.0
 10
2.097839512930412
 20
-0.983678021919583
 30
0.0
 10
2.0966012903891
 20
-0.9903408787583187
 30
0.0
  0
SPLINE
  5
134
330
1F
100
AcDbEntity
  8
0
  6
Continuous
 62
     7
370
    25
100
AcDbSpline
210
0.0
220
0.0
230
1.0
 70
     8
 71
     3
 72
     8
 73
     4
 74
     0
 42
0.00000001
 43
0.00000001
 40
0.0
 40
0.0
 40
0.0
 40
0.0
 40
0.3333333333333333
 40
0.3333333333333333
 40
0.3333333333333333
 40
0.3333333333333333
 10
2.117286520761437
 20
-0.9783995494427093
 30
0.0
 10
2.115668031906734
 20
-0.9732370451086256
 30
0.0
 10
2.11159981089229
 20
-0.9723738519168814
 30
0.0
 10
2.106720774102041
 20
-0.9751904599027055
 30
0.0
  0
SPLINE
  5
13A
330
1F
100
AcDbEntity
  8
0
  6
Continuous
 62
     7
370
    25
100
AcDbSpline
210
0.0
220
0.0
230
1.0
 70
     8
 71
     3
 72
    10
 73
     6
 74
     0
 42
0.00000001
 43
0.00000001
 40
0.0
 40
0.0
 40
0.0
 40
0.0
 40
0.1071128853643825
 40
0.5456052019254786
 40
1.0
 40
1.0
 40
1.0
 40
1.0
 10
2.137801736523048
 20
-0.9764111870440809
 30
0.0
 10
2.137548064738972
 20
-0.9763508843842755
 30
0.0
 10
2.136255926594225
 20
-0.9760437183064713
 30
0.0
 10
2.134923562122498
 20
-0.9735944835955178
 30
0.0
 10
2.13463306110352
 20
-0.970817632766508
 30
0.0
 10
2.134485223656103
 20
-0.9694044792434602
 30
0.0
  0
SPLINE
  5
13B
330
1F
100
AcDbEntity
  8
0
  6
Continuous
 62
     7
370
    25
100
AcDbSpline
210
0.0
220
0.0
230
1.0
 70
     8
 71
     3
 72
     8
 73
     4
 74
     0
 42
0.00000001
 43
0.00000001
 40
-0.625
 40
-0.625
 40
-0.625
 40
-0.625
 40
-0.5
 40
-0.5
 40
-0.5
 40
-0.5
 10
2.146111630487173
 20
-0.983699570731304
 30
0.0
 10
2.152921854464236
 20
-0.979768112112795
 30
0.0
 10
2.158966831769166
 20
-0.9722320076381342
 30
0.0
 10
2.162164525768551
 20
-0.9647863627508778
 30
0.0
  0
SPLINE
  5
13C
330
1F
100
AcDbEntity
  8
0
  6
Continuous
 62
     7
370
    25
100
AcDbSpline
210
0.0
220
0.0
230
1.0
 70
     8
 71
     3
 72
    10
 73
     6
 74
     0
 42
0.00000001
 43
0.00000001
 40
0.0
 40
0.0
 40
0.0
 40
0.0
 40
0.1023386459077548
 40
0.5231439473384976
 40
1.0
 40
1.0
 40
1.0
 40
1.0
 10
2.131845750015101
 20
-0.9852533010244497
 30
0.0
 10
2.1321622710214
 20
-0.9855805443139048
 30
0.0
 10
2.133780291732754
 20
-0.9872533761621962
 30
0.0
 10
2.138917215086947
 20
-0.9870118806171964
 30
0.0
 10
2.143615699542901
 20
-0.9848486976973342
 30
0.0
 10
2.146111630487173
 20
-0.983699570731304
 30
0.0
  0
SPLINE
  5
13E
330
1F
100
AcDbEntity
  8
0
  6
Continuous
 62
     7
370
    25
100
AcDbSpline
210
0.0
220
0.0
230
1.0
 70
     8
 71
     3
 72
     8
 73
     4
 74
     0
 42
0.00000001
 43
0.00000001
 40
-0.125
 40
-0.125
 40
-0.125
 40
-0.125
 40
0.0
 40
0.0
 40
0.0
 40
0.0
 10
2.134485223656103
 20
-0.9694044792434602
 30
0.0
 10
2.134485223656103
 20
-0.9622334363799986
 30
0.0
 10
2.139298263813367
 20
-0.9536774475615575
 30
0.0
 10
2.146036205763876
 20
-0.9497877164687825
 30
0.0
  0
SPLINE
  5
143
330
1F
100
AcDbEntity
  8
0
  6
Continuous
 62
     7
370
    25
100
AcDbSpline
210
0.0
220
0.0
230
1.0
 70
     8
 71
     3
 72
    11
 73
     7
 74
     0
 42
0.00000001
 43
0.00000001
 40
0.0
 40
0.0
 40
0.0
 40
0.0
 40
0.0272222281728101
 40
0.346085938018842
 40
0.637081400802078
 40
1.0
 40
1.0
 40
1.0
 40
1.0
 10
2.179056448473483
 20
-0.9529777571136581
 30
0.0
 10
2.179012505455691
 20
-0.9529657411520457
 30
0.0
 10
2.178453842129703
 20
-0.952812977927837
 30
0.0
 10
2.177862725771405
 20
-0.9517409668157428
 30
0.0
 10
2.177397147509789
 20
-0.9498394000766276
 30
0.0
 10
2.177369882630388
 20
-0.9483348315701906
 30
0.0
 10
2.177354750776808
 20
-0.9474998045742896
 30
0.0
  0
SPLINE
  5
145
330
1F
100
AcDbEntity
  8
0
  6
Continuous
 62
     7
370
    25
100
AcDbSpline
210
0.0
220
0.0
230
1.0
 70
     8
 71
     3
 72
     9
 73
     5
 74
     0
 42
0.00000001
 43
0.00000001
 40
0.0
 40
0.0
 40
0.0
 40
0.0
 40
0.0711569066614798
 40
0.9999999999999999
 40
0.9999999999999999
 40
0.9999999999999999
 40
0.9999999999999999
 10
2.172768903317089
 20
-0.9612323565662705
 30
0.0
 10
2.172921549811767
 20
-0.9613554203217025
 30
0.0
 10
2.175066759628224
 20
-0.9630848906037303
 30
0.0
 10
2.178283901933777
 20
-0.9627139375343313
 30
0.0
 10
2.181272122344577
 20
-0.9623693803378668
 30
0.0
  0
SPLINE
  5
151
330
1F
100
AcDbEntity
  8
0
  6
Continuous
 62
     7
370
    25
100
AcDbSpline
210
0.0
220
0.0
230
1.0
 70
     8
 71
     3
 72
     8
 73
     4
 74
     0
 42
0.00000001
 43
0.00000001
 40
-0.1818181818181818
 40
-0.1818181818181818
 40
-0.1818181818181818
 40
-0.1818181818181818
 40
-0.0909090909090909
 40
-0.0909090909090909
 40
-0.0909090909090909
 40
-0.0909090909090909
 10
2.205019910753667
 20
-0.9496925443933659
 30
0.0
 10
2.209920946421443
 20
-0.9468632367258657
 30
0.0
 10
2.214344292174926
 20
-0.9420070484865694
 30
0.0
 10
2.21678145354737
 20
-0.9369764785042263
 30
0.0
  0
SPLINE
  5
152
330
1F
100
AcDbEntity
  8
0
  6
Continuous
 62
     7
370
    25
100
AcDbSpline
210
0.0
220
0.0
230
1.0
 70
     8
 71
     3
 72
    10
 73
     6
 74
     0
 42
0.00000001
 43
0.00000001
 40
0.0
 40
0.0
 40
0.0
 40
0.0
 40
0.0658721600757264
 40
0.5075748122683121
 40
1.0
 40
1.0
 40
1.0
 40
1.0
 10
2.191988491691879
 20
-0.9510473586584901
 30
0.0
 10
2.19216869308555
 20
-0.9512465796475332
 30
0.0
 10
2.193557226397017
 20
-0.9527816675510927
 30
0.0
 10
2.19821895184626
 20
-0.9527406157069495
 30
0.0
 10
2.202672319460661
 20
-0.950744693917227
 30
0.0
 10
2.205019910753667
 20
-0.9496925443933659
 30
0.0
  0
SPLINE
  5
156
330
1F
100
AcDbEntity
  8
0
  6
Continuous
 62
     7
370
    25
100
AcDbSpline
210
0.0
220
0.0
230
1.0
 70
     8
 71
     3
 72
    10
 73
     6
 74
     0
 42
0.00000001
 43
0.00000001
 40
0.0
 40
0.0
 40
0.0
 40
0.0
 40
0.1242293801615564
 40
0.5571435388537983
 40
1.0
 40
1.0
 40
1.0
 40
1.0
 10
2.213800613893066
 20
-0.9146383504719755
 30
0.0
 10
2.21358464796228
 20
-0.9144230088940138
 30
0.0
 10
2.212616084625704
 20
-0.9134572456530482
 30
0.0
 10
2.209822692801923
 20
-0.9134871536612393
 30
0.0
 10
2.207283081896496
 20
-0.9146061583555407
 30
0.0
 10
2.205998860808476
 20
-0.915172012527511
 30
0.0
  0
SPLINE
  5
157
330
1F
100
AcDbEntity
  8
0
  6
Continuous
 62
     7
370
    25
100
AcDbSpline
210
0.0
220
0.0
230
1.0
 70
     8
 71
     3
 72
     8
 73
     4
 74
     0
 42
0.00000001
 43
0.00000001
 40
0.5
 40
0.5
 40
0.5
 40
0.5
 40
0.75
 40
0.75
 40
0.75
 40
0.75
 10
2.205998860808476
 20
-0.915172012527511
 30
0.0
 10
2.199788891921285
 20
-0.9187569512585196
 30
0.0
 10
2.194603442192573
 20
-0.9275279275464211
 30
0.0
 10
2.194603442192573
 20
-0.9346989704098825
 30
0.0
  0
SPLINE
  5
158
330
1F
100
AcDbEntity
  8
0
  6
Continuous
 62
     7
370
    25
100
AcDbSpline
210
0.0
220
0.0
230
1.0
 70
     8
 71
     3
 72
     9
 73
     5
 74
     0
 42
0.00000001
 43
0.00000001
 40
0.0
 40
0.0
 40
0.0
 40
0.0
 40
0.5744846715226093
 40
0.9999999999999999
 40
0.9999999999999999
 40
0.9999999999999999
 40
0.9999999999999999
 10
2.194603442192573
 20
-0.9346989704098825
 30
0.0
 10
2.194790450696625
 20
-0.936560861383104
 30
0.0
 10
2.195115974619754
 20
-0.939801837279444
 30
0.0
 10
2.197160272540256
 20
-0.9410883131734232
 30
0.0
 10
2.198030152641405
 20
-0.9416357283860283
 30
0.0
  0
SPLINE
  5
15A
330
1F
100
AcDbEntity
  8
0
  6
Continuous
 62
     7
370
    25
100
AcDbSpline
210
0.0
220
0.0
230
1.0
 70
     8
 71
     3
 72
     8
 73
     4
 74
     0
 42
0.00000001
 43
0.00000001
 40
0.25
 40
0.25
 40
0.25
 40
0.25
 40
0.5
 40
0.5
 40
0.5
 40
0.5
 10
2.2200008517966
 20
-0.9232264521134823
 30
0.0
 10
2.2200008517966
 20
-0.9160554092500209
 30
0.0
 10
2.214827972855105
 20
-0.9132641688211733
 30
0.0
 10
2.208760996672486
 20
-0.9167665596209148
 30
0.0
  0
SPLINE
  5
15B
330
1F
100
AcDbEntity
  8
0
  6
Continuous
 62
     7
370
    25
100
AcDbSpline
210
0.0
220
0.0
230
1.0
 70
     8
 71
     3
 72
     8
 73
     4
 74
     0
 42
0.00000001
 43
0.00000001
 40
0.0
 40
0.0
 40
0.0
 40
0.0
 40
0.25
 40
0.25
 40
0.25
 40
0.25
 10
2.208760996672486
 20
-0.9426563469630924
 30
0.0
 10
2.214827972855105
 20
-0.9391539561633511
 30
0.0
 10
2.2200008517966
 20
-0.9303829786958933
 30
0.0
 10
2.2200008517966
 20
-0.9232264521134823
 30
0.0
  0
SPLINE
  5
15C
330
1F
100
AcDbEntity
  8
0
  6
Continuous
 62
     7
370
    25
100
AcDbSpline
210
0.0
220
0.0
230
1.0
 70
     8
 71
     3
 72
     8
 73
     4
 74
     0
 42
0.00000001
 43
0.00000001
 40
0.75
 40
0.75
 40
0.75
 40
0.75
 40
1.0
 40
1.0
 40
1.0
 40
1.0
 10
2.197365578056584
 20
-0.9362935175032863
 30
0.0
 10
2.197365578056584
 20
-0.9434500440856972
 30
0.0
 10
2.202551027785296
 20
-0.946241285694101
 30
0.0
 10
2.208760996672486
 20
-0.9426563469630924
 30
0.0
  0
SPLINE
  5
15D
330
1F
100
AcDbEntity
  8
0
  6
Continuous
 62
     7
370
    25
100
AcDbSpline
210
0.0
220
0.0
230
1.0
 70
     8
 71
     3
 72
     8
 73
     4
 74
     0
 42
0.00000001
 43
0.00000001
 40
0.5
 40
0.5
 40
0.5
 40
0.5
 40
0.75
 40
0.75
 40
0.75
 40
0.75
 10
2.208760996672486
 20
-0.9167665596209148
 30
0.0
 10
2.202551027785296
 20
-0.9203514983519234
 30
0.0
 10
2.197365578056584
 20
-0.9291224746398249
 30
0.0
 10
2.197365578056584
 20
-0.9362935175032863
 30
0.0
  0
LWPOLYLINE
  5
168
330
1F
100
AcDbEntity
  8
0
  6
Continuous
 62
     7
370
    25
100
AcDbPolyline
 90
        3
 70
   128
 43
0.0
 10
5.4911260977
 20
1.0043133133
 10
5.4873207957
 20
0.9539993739
 10
5.4860311749
 20
0.946113414
  0
SPLINE
  5
16E
330
1F
100
AcDbEntity
  8
0
  6
Continuous
 62
     7
370
    25
100
AcDbSpline
210
0.0
220
0.0
230
1.0
 70
    24
 71
     3
 72
    11
 73
     7
 74
     0
 42
0.00000001
 43
0.00000001
 40
0.0
 40
0.0
 40
0.0
 40
0.0
 40
0.0589921452324858
 40
0.3873371095216097
 40
0.7025763354958975
 40
1.0
 40
1.0
 40
1.0
 40
1.0
 10
5.256751097651639
 20
2.003037564143879
 30
0.0
 10
5.256751097651639
 20
2.003277832207488
 30
0.0
 10
5.256751097651639
 20
2.004855410661396
 30
0.0
 10
5.25675109765164
 20
1.997907850752124
 30
0.0
 10
5.256751097651645
 20
1.983296906517872
 30
0.0
 10
5.256751097651648
 20
1.966706958089728
 30
0.0
 10
5.256751097651648
 20
1.958653192581619
 30
0.0
  0
SPLINE
  5
16F
330
1F
100
AcDbEntity
  8
0
  6
Continuous
 62
     7
370
    25
100
AcDbSpline
210
0.0
220
0.0
230
1.0
 70
    24
 71
     3
 72
    11
 73
     7
 74
     0
 42
0.00000001
 43
0.00000001
 40
0.0
 40
0.0
 40
0.0
 40
0.0
 40
0.0589921452318845
 40
0.3873371095207284
 40
0.7025763354952058
 40
1.0
 40
1.0
 40
1.0
 40
1.0
 10
5.491126097651779
 20
2.003037564144257
 30
0.0
 10
5.491126097651779
 20
2.003277832207875
 30
0.0
 10
5.491126097651777
 20
2.004855410661853
 30
0.0
 10
5.491126097651778
 20
1.997907850752658
 30
0.0
 10
5.49112609765178
 20
1.98329690651848
 30
0.0
 10
5.491126097651779
 20
1.966706958090364
 30
0.0
 10
5.491126097651779
 20
1.958653192582262
 30
0.0
  0
SPLINE
  5
174
330
1F
100
AcDbEntity
  8
0
  6
Continuous
 62
     7
370
    25
100
AcDbSpline
210
0.0
220
0.0
230
1.0
 70
     8
 71
     3
 72
     9
 73
     5
 74
     0
 42
0.00000001
 43
0.00000001
 40
0.0
 40
0.0
 40
0.0
 40
0.0
 40
0.500052642565364
 40
1.0
 40
1.0
 40
1.0
 40
1.0
 10
4.980094100484074
 20
1.389022968151154
 30
0.0
 10
4.977334894777667
 20
1.390293056846193
 30
0.0
 10
4.971817064310359
 20
1.392832966821519
 30
0.0
 10
4.967515529428362
 20
1.391279916993226
 30
0.0
 10
4.965364988431196
 20
1.390503473835606
 30
0.0
  0
LWPOLYLINE
  5
175
330
1F
100
AcDbEntity
  8
0
  6
Continuous
 62
     7
370
    25
100
AcDbPolyline
 90
       10
 70
   128
 43
0.0
 10
5.1982328788
 20
1.3236021146
 10
5.2571705408
 20
1.3607327819
 10
5.3102781419
 20
1.4006875418
 10
5.3571515014
 20
1.4431623144
 10
5.3974338847
 20
1.4878338411
 10
5.4308187184
 20
1.5343621444
 10
5.4570519239
 20
1.5823931161
 10
5.4759338507
 20
1.6315612113
 10
5.4873207957
 20
1.6814922311
 10
5.4911052352
 20
1.7280772132
  0
LINE
  5
179
330
1F
100
AcDbEntity
  8
0
  6
Continuous
 62
     7
370
    25
100
AcDbLine
 10
0.0570878702
 20
-0.2890036558
 30
0.0
 11
1.803975686
 21
-1.2974605262
 31
0.0
  0
LINE
  5
17A
330
1F
100
AcDbEntity
  8
0
  6
Continuous
 62
     7
370
    25
100
AcDbLine
 10
1.9786825456
 20
-1.0430442063
 30
0.0
 11
1.9752298757
 21
-1.0410510224
 31
0.0
  0
LINE
  5
17B
330
1F
100
AcDbEntity
  8
0
  6
Continuous
 62
     7
370
    25
100
AcDbLine
 10
2.0173884371
 20
-1.0456814368
 30
0.0
 11
2.0208411069
 21
-1.0476746207
 31
0.0
  0
LINE
  5
17C
330
1F
100
AcDbEntity
  8
0
  6
Continuous
 62
     7
370
    25
100
AcDbLine
 10
2.0376189935
 20
-1.0198163155
 30
0.0
 11
2.0341663236
 21
-1.0178231317
 31
0.0
  0
LINE
  5
17D
330
1F
100
AcDbEntity
  8
0
  6
Continuous
 62
     7
370
    25
100
AcDbLine
 10
2.0584082684
 20
-1.0232938069
 30
0.0
 11
2.0618609383
 21
-1.0252869908
 31
0.0
  0
LINE
  5
17E
330
1F
100
AcDbEntity
  8
0
  6
Continuous
 62
     7
370
    25
100
AcDbLine
 10
2.1147081406
 20
-0.9744783119
 30
0.0
 11
2.1112554707
 21
-0.972485128
 31
0.0
  0
LINE
  5
17F
330
1F
100
AcDbEntity
  8
0
  6
Continuous
 62
     7
370
    25
100
AcDbLine
 10
2.0962182079
 20
-1.0006660057
 30
0.0
 11
2.0996708777
 21
-1.0026591896
 31
0.0
  0
LINE
  5
180
330
1F
100
AcDbEntity
  8
0
  6
Continuous
 62
     7
370
    25
100
AcDbLine
 10
1.956522343
 20
-1.2852784272
 30
0.0
 11
5.1921163213
 21
0.5825902178
 31
0.0
  0
LINE
  5
181
330
1F
100
AcDbEntity
  8
0
  6
Continuous
 62
     7
370
    25
100
AcDbLine
 10
2.1373546953
 20
-0.9764256047
 30
0.0
 11
2.1408073651
 21
-0.9784187886
 31
0.0
  0
LINE
  5
182
330
1F
100
AcDbEntity
  8
0
  6
Continuous
 62
     7
370
    25
100
AcDbLine
 10
2.1786959342
 20
-0.9528104984
 30
0.0
 11
2.182148604
 21
-0.9548036823
 31
0.0
  0
LINE
  5
183
330
1F
100
AcDbEntity
  8
0
  6
Continuous
 62
     7
370
    25
100
AcDbLine
 10
2.1975369828
 20
-0.9416582085
 30
0.0
 11
2.2009896526
 21
-0.9436513923
 31
0.0
  0
LINE
  5
184
330
1F
100
AcDbEntity
  8
0
  6
Continuous
 62
     7
370
    25
100
AcDbLine
 10
2.2170497282
 20
-0.9162209084
 30
0.0
 11
2.2135970584
 21
-0.9142277246
 31
0.0
  0
LINE
  5
185
330
1F
100
AcDbEntity
  8
0
  6
Continuous
 62
     7
370
    25
100
AcDbLine
 10
4.9654328896
 20
1.3905432186
 30
0.0
 11
4.4201874518
 21
1.0757797273
 31
0.0
  0
LINE
  5
186
330
1F
100
AcDbEntity
  8
0
  6
Continuous
 62
     7
370
    25
100
AcDbLine
 10
5.4615985386
 20
2.0333232684
 30
0.0
 11
5.2862786567
 21
2.0333232684
 31
0.0
  0
LINE
  5
187
330
1F
100
AcDbEntity
  8
0
  6
Continuous
 62
     7
370
    25
100
AcDbLine
 10
0.0
 20
0.1628259532
 30
0.0
 11
1.7468878157
 21
-0.8456309172
 31
0.0
  0
LINE
  5
188
330
1F
100
AcDbEntity
  8
0
  6
Continuous
 62
     7
370
    25
100
AcDbLine
 10
0.1948719476
 20
0.5003540664
 30
0.0
 11
1.9417597633
 21
-0.508102804
 31
0.0
  0
LINE
  5
189
330
1F
100
AcDbEntity
  8
0
  6
Continuous
 62
     7
370
    25
100
AcDbLine
 10
1.7886460902
 20
-1.1712828236
 30
0.0
 11
1.7886460902
 21
-0.8456309172
 31
0.0
  0
LINE
  5
18A
330
1F
100
AcDbEntity
  8
0
  6
Continuous
 62
     7
370
    25
100
AcDbLine
 10
1.9626389005
 20
-0.5442665304
 30
0.0
 11
5.1982328788
 21
1.3236021146
 31
0.0
  0
LINE
  5
18B
330
1F
100
AcDbEntity
  8
0
  6
Continuous
 62
     7
370
    25
100
AcDbLine
 10
5.1982328788
 20
0.5961092574
 30
0.0
 11
5.1982328788
 21
1.3236021146
 31
0.0
  0
LINE
  5
18C
330
1F
100
AcDbEntity
  8
0
  6
Continuous
 62
     7
370
    25
100
AcDbLine
 10
5.1982328788
 20
0.5961092574
 30
0.0
 11
1.9626389005
 21
-1.2717593876
 31
0.0
  0
LINE
  5
18D
330
1F
100
AcDbEntity
  8
0
  6
Continuous
 62
     7
370
    25
100
AcDbLine
 10
2.0516811536
 20
-1.0004445317
 30
0.0
 11
2.0516811536
 21
-1.0235145315
 31
0.0
  0
LINE
  5
18E
330
1F
100
AcDbEntity
  8
0
  6
Continuous
 62
     7
370
    25
100
AcDbLine
 10
2.0769672921
 20
-1.0213648655
 30
0.0
 11
2.077129141
 21
-1.0212714321
 31
0.0
  0
LINE
  5
18F
330
1F
100
AcDbEntity
  8
0
  6
Continuous
 62
     7
370
    25
100
AcDbLine
 10
2.077129141
 20
-1.0212714321
 30
0.0
 11
2.077129141
 21
-1.0233998818
 31
0.0
  0
LINE
  5
190
330
1F
100
AcDbEntity
  8
0
  6
Continuous
 62
     7
370
    25
100
AcDbLine
 10
2.0593854748
 20
-1.0399231884
 30
0.0
 11
2.0528769497
 21
-1.048126091
 31
0.0
  0
LINE
  5
191
330
1F
100
AcDbEntity
  8
0
  6
Continuous
 62
     7
370
    25
100
AcDbLine
 10
2.0843730571
 20
-1.0202269396
 30
0.0
 11
2.0843730571
 21
-0.9815718976
 31
0.0
  0
LINE
  5
192
330
1F
100
AcDbEntity
  8
0
  6
Continuous
 62
     7
370
    25
100
AcDbLine
 10
2.0843730571
 20
-0.9815718976
 30
0.0
 11
2.0766718786
 21
-0.9860176933
 31
0.0
  0
LINE
  5
193
330
1F
100
AcDbEntity
  8
0
  6
Continuous
 62
     7
370
    25
100
AcDbLine
 10
2.0766718786
 20
-0.9860176933
 30
0.0
 11
2.0766718786
 21
-1.0085814377
 31
0.0
  0
LINE
  5
194
330
1F
100
AcDbEntity
  8
0
  6
Continuous
 62
     7
370
    25
100
AcDbLine
 10
2.0593854748
 20
-1.0194116832
 30
0.0
 11
2.0593854748
 21
-0.9959969218
 31
0.0
  0
LINE
  5
195
330
1F
100
AcDbEntity
  8
0
  6
Continuous
 62
     7
370
    25
100
AcDbLine
 10
2.0593854748
 20
-0.9959969218
 30
0.0
 11
2.0516811536
 21
-1.0004445317
 31
0.0
  0
LINE
  5
196
330
1F
100
AcDbEntity
  8
0
  6
Continuous
 62
     7
370
    25
100
AcDbLine
 10
1.9920594812
 20
-1.0348633906
 30
0.0
 11
1.9920594812
 21
-1.074750502
 31
0.0
  0
LINE
  5
197
330
1F
100
AcDbEntity
  8
0
  6
Continuous
 62
     7
370
    25
100
AcDbLine
 10
1.9920594812
 20
-1.074750502
 30
0.0
 11
1.9997559456
 21
-1.0703074276
 31
0.0
  0
LINE
  5
198
330
1F
100
AcDbEntity
  8
0
  6
Continuous
 62
     7
370
    25
100
AcDbLine
 10
1.9997559456
 20
-1.0703074276
 30
0.0
 11
1.9997559456
 21
-1.0439204577
 31
0.0
  0
LINE
  5
199
330
1F
100
AcDbEntity
  8
0
  6
Continuous
 62
     7
370
    25
100
AcDbLine
 10
2.0079630983
 20
-1.0343286878
 30
0.0
 11
2.010676817
 21
-1.024277325
 31
0.0
  0
LINE
  5
19A
330
1F
100
AcDbEntity
  8
0
  6
Continuous
 62
     7
370
    25
100
AcDbLine
 10
1.99944639
 20
-1.0349684195
 30
0.0
 11
1.9992829698
 21
-1.03506276
 31
0.0
  0
LINE
  5
19B
330
1F
100
AcDbEntity
  8
0
  6
Continuous
 62
     7
370
    25
100
AcDbLine
 10
1.9992829698
 20
-1.03506276
 30
0.0
 11
1.9992829698
 21
-1.0306933594
 31
0.0
  0
LINE
  5
19C
330
1F
100
AcDbEntity
  8
0
  6
Continuous
 62
     7
370
    25
100
AcDbLine
 10
1.9992829698
 20
-1.0306933594
 30
0.0
 11
1.9920594812
 21
-1.0348633906
 31
0.0
  0
LINE
  5
19D
330
1F
100
AcDbEntity
  8
0
  6
Continuous
 62
     7
370
    25
100
AcDbLine
 10
2.1243921582
 20
-0.9897083992
 30
0.0
 11
2.1178820618
 21
-0.9894292572
 31
0.0
  0
LINE
  5
19E
330
1F
100
AcDbEntity
  8
0
  6
Continuous
 62
     7
370
    25
100
AcDbLine
 10
2.0966012904
 20
-0.9974266385
 30
0.0
 11
2.1263202027
 21
-0.9802702756
 31
0.0
  0
LINE
  5
19F
330
1F
100
AcDbEntity
  8
0
  6
Continuous
 62
     7
370
    25
100
AcDbLine
 10
2.1263202027
 20
-0.9802702756
 30
0.0
 11
2.1263202027
 21
-0.9786898155
 31
0.0
  0
LINE
  5
1A0
330
1F
100
AcDbEntity
  8
0
  6
Continuous
 62
     7
370
    25
100
AcDbLine
 10
2.1487983416
 20
-0.9513822636
 30
0.0
 11
2.1488737664
 21
-0.943265855
 31
0.0
  0
LINE
  5
1A1
330
1F
100
AcDbEntity
  8
0
  6
Continuous
 62
     7
370
    25
100
AcDbLine
 10
2.1649266616
 20
-0.9663809098
 30
0.0
 11
2.1581824343
 21
-0.9658250293
 31
0.0
  0
LINE
  5
1A2
330
1F
100
AcDbEntity
  8
0
  6
Continuous
 62
     7
370
    25
100
AcDbLine
 10
2.1490324725
 20
-0.9432159701
 30
0.0
 11
2.1561883932
 21
-0.9471814009
 31
0.0
  0
LINE
  5
1A3
330
1F
100
AcDbEntity
  8
0
  6
Continuous
 62
     7
370
    25
100
AcDbLine
 10
2.1561883932
 20
-0.9471814009
 30
0.0
 11
2.1724298503
 21
-0.9378054073
 31
0.0
  0
LINE
  5
1A4
330
1F
100
AcDbEntity
  8
0
  6
Continuous
 62
     7
370
    25
100
AcDbLine
 10
2.1724298503
 20
-0.9378054073
 30
0.0
 11
2.1724298503
 21
-0.955114258
 31
0.0
  0
LINE
  5
1A5
330
1F
100
AcDbEntity
  8
0
  6
Continuous
 62
     7
370
    25
100
AcDbLine
 10
2.1840342582
 20
-0.9639639274
 30
0.0
 11
2.1874472269
 21
-0.9552381482
 31
0.0
  0
LINE
  5
1A6
330
1F
100
AcDbEntity
  8
0
  6
Continuous
 62
     7
370
    25
100
AcDbLine
 10
2.1874472269
 20
-0.9552381482
 30
0.0
 11
2.1833020099
 21
-0.9550127569
 31
0.0
  0
LINE
  5
1A7
330
1F
100
AcDbEntity
  8
0
  6
Continuous
 62
     7
370
    25
100
AcDbLine
 10
2.1801168866
 20
-0.9490943517
 30
0.0
 11
2.1801168866
 21
-0.9333677756
 31
0.0
  0
LINE
  5
1A8
330
1F
100
AcDbEntity
  8
0
  6
Continuous
 62
     7
370
    25
100
AcDbLine
 10
2.1801168866
 20
-0.9333677756
 30
0.0
 11
2.1862671443
 21
-0.9298173075
 31
0.0
  0
LINE
  5
1A9
330
1F
100
AcDbEntity
  8
0
  6
Continuous
 62
     7
370
    25
100
AcDbLine
 10
2.1862671443
 20
-0.9298173075
 30
0.0
 11
2.1862671443
 21
-0.9217208517
 31
0.0
  0
LINE
  5
1AA
330
1F
100
AcDbEntity
  8
0
  6
Continuous
 62
     7
370
    25
100
AcDbLine
 10
2.1862671443
 20
-0.9217208517
 30
0.0
 11
2.1801168866
 21
-0.9252713198
 31
0.0
  0
LINE
  5
1AB
330
1F
100
AcDbEntity
  8
0
  6
Continuous
 62
     7
370
    25
100
AcDbLine
 10
2.1801168866
 20
-0.9252713198
 30
0.0
 11
2.1801168866
 21
-0.9123482006
 31
0.0
  0
LINE
  5
1AC
330
1F
100
AcDbEntity
  8
0
  6
Continuous
 62
     7
370
    25
100
AcDbLine
 10
2.1801168866
 20
-0.9123482006
 30
0.0
 11
2.1724298503
 21
-0.9191773896
 31
0.0
  0
LINE
  5
1AD
330
1F
100
AcDbEntity
  8
0
  6
Continuous
 62
     7
370
    25
100
AcDbLine
 10
2.1724298503
 20
-0.9191773896
 30
0.0
 11
2.1724298503
 21
-0.9297089515
 31
0.0
  0
LINE
  5
1AE
330
1F
100
AcDbEntity
  8
0
  6
Continuous
 62
     7
370
    25
100
AcDbLine
 10
2.1724298503
 20
-0.9297089515
 30
0.0
 11
2.1490324725
 21
-0.9432159701
 31
0.0
  0
LINE
  5
1AF
330
1F
100
AcDbEntity
  8
0
  6
Continuous
 62
     7
370
    25
100
AcDbLine
 10
2.2197022956
 20
-0.9384794065
 30
0.0
 11
2.2197022956
 21
-0.9433351025
 31
0.0
  0
LINE
  5
1B0
330
1F
100
AcDbEntity
  8
0
  6
Continuous
 62
     7
370
    25
100
AcDbLine
 10
2.2197022956
 20
-0.9433351025
 30
0.0
 11
2.2273877606
 21
-0.938898378
 31
0.0
  0
LINE
  5
1B1
330
1F
100
AcDbEntity
  8
0
  6
Continuous
 62
     7
370
    25
100
AcDbLine
 10
2.2273877606
 20
-0.938898378
 30
0.0
 11
2.2273877606
 21
-0.8990112666
 31
0.0
  0
LINE
  5
1B2
330
1F
100
AcDbEntity
  8
0
  6
Continuous
 62
     7
370
    25
100
AcDbLine
 10
2.2273877606
 20
-0.8990112666
 30
0.0
 11
2.2197022956
 21
-0.9034479911
 31
0.0
  0
LINE
  5
1B3
330
1F
100
AcDbEntity
  8
0
  6
Continuous
 62
     7
370
    25
100
AcDbLine
 10
2.2197022956
 20
-0.9034479911
 30
0.0
 11
2.2197022956
 21
-0.9083073162
 31
0.0
  0
LINE
  5
1B4
330
1F
100
AcDbEntity
  8
0
  6
Continuous
 62
     7
370
    25
100
AcDbLine
 10
2.2197022956
 20
-0.9083073162
 30
0.0
 11
2.2195435894
 21
-0.9083989353
 31
0.0
  0
LINE
  5
1B5
330
1F
100
AcDbEntity
  8
0
  6
Continuous
 62
     7
370
    25
100
AcDbLine
 10
2.2195435894
 20
-0.9385710256
 30
0.0
 11
2.2197022956
 21
-0.9384794065
 31
0.0
  0
LINE
  5
1B6
330
1F
100
AcDbEntity
  8
0
  6
Continuous
 62
     7
370
    25
100
AcDbLine
 10
1.9500840513
 20
-1.0827840467
 30
0.0
 11
1.9500840513
 21
-1.099091274
 31
0.0
  0
LINE
  5
1B7
330
1F
100
AcDbEntity
  8
0
  6
Continuous
 62
     7
370
    25
100
AcDbLine
 10
1.9500840513
 20
-1.099091274
 30
0.0
 11
1.9586620422
 21
-1.0941393052
 31
0.0
  0
LINE
  5
1B8
330
1F
100
AcDbEntity
  8
0
  6
Continuous
 62
     7
370
    25
100
AcDbLine
 10
1.9586620422
 20
-1.0941393052
 30
0.0
 11
1.9586620422
 21
-1.077832078
 31
0.0
  0
LINE
  5
1B9
330
1F
100
AcDbEntity
  8
0
  6
Continuous
 62
     7
370
    25
100
AcDbLine
 10
1.9586620422
 20
-1.077832078
 30
0.0
 11
1.9722023514
 21
-1.0700154239
 31
0.0
  0
LINE
  5
1BA
330
1F
100
AcDbEntity
  8
0
  6
Continuous
 62
     7
370
    25
100
AcDbLine
 10
1.9722023514
 20
-1.034595698
 30
0.0
 11
1.9500840513
 21
-1.0473643208
 31
0.0
  0
LINE
  5
1BB
330
1F
100
AcDbEntity
  8
0
  6
Continuous
 62
     7
370
    25
100
AcDbLine
 10
1.9500840513
 20
-1.0473643208
 30
0.0
 11
1.9500840513
 21
-1.0737240728
 31
0.0
  0
LINE
  5
1BC
330
1F
100
AcDbEntity
  8
0
  6
Continuous
 62
     7
370
    25
100
AcDbLine
 10
1.9500840513
 20
-1.0737240728
 30
0.0
 11
1.9445450482
 21
-1.0769216712
 31
0.0
  0
LINE
  5
1BD
330
1F
100
AcDbEntity
  8
0
  6
Continuous
 62
     7
370
    25
100
AcDbLine
 10
1.9445450482
 20
-1.0769216712
 30
0.0
 11
1.9445450482
 21
-1.0859816452
 31
0.0
  0
LINE
  5
1BE
330
1F
100
AcDbEntity
  8
0
  6
Continuous
 62
     7
370
    25
100
AcDbLine
 10
1.9445450482
 20
-1.0859816452
 30
0.0
 11
1.9500840513
 21
-1.0827840467
 31
0.0
  0
LINE
  5
1BF
330
1F
100
AcDbEntity
  8
0
  6
Continuous
 62
     7
370
    25
100
AcDbLine
 10
1.9417597633
 20
-0.508102804
 30
0.0
 11
5.1773537416
 21
1.359765841
 31
0.0
  0
LINE
  5
1C0
330
1F
100
AcDbEntity
  8
0
  6
Continuous
 62
     7
370
    25
100
AcDbLine
 10
1.7468878157
 20
-0.8456309172
 30
0.0
 11
1.7468878157
 21
-1.1712828236
 31
0.0
  0
LINE
  5
1C1
330
1F
100
AcDbEntity
  8
0
  6
Continuous
 62
     7
370
    25
100
AcDbLine
 10
0.1948719476
 20
0.5003540664
 30
0.0
 11
0.4983952827
 21
0.6755743582
 31
0.0
  0
LINE
  5
1C2
330
1F
100
AcDbEntity
  8
0
  6
Continuous
 62
     7
370
    25
100
AcDbLine
 10
4.9800941005
 20
1.3890229682
 30
0.0
 11
4.4349500315
 21
1.0743178755
 31
0.0
  0
LINE
  5
1C3
330
1F
100
AcDbEntity
  8
0
  6
Continuous
 62
     7
370
    25
100
AcDbLine
 10
5.2862786567
 20
2.0333232684
 30
0.0
 11
5.2862786567
 21
1.811943482
 31
0.0
  0
LINE
  5
1C4
330
1F
100
AcDbEntity
  8
0
  6
Continuous
 62
     7
370
    25
100
AcDbLine
 10
5.4615985386
 20
1.9827636496
 30
0.0
 11
5.2862786567
 21
1.9827636496
 31
0.0
  0
LINE
  5
1C5
330
1F
100
AcDbEntity
  8
0
  6
Continuous
 62
     7
370
    25
100
AcDbLine
 10
5.4615985386
 20
1.7559166275
 30
0.0
 11
5.4615985386
 21
2.0333232684
 31
0.0
  0
LINE
  5
1C6
330
1F
100
AcDbEntity
  8
0
  6
Continuous
 62
     7
370
    25
100
AcDbLine
 10
1.7468878157
 20
-1.1712828236
 30
0.0
 11
0.0
 21
-0.1628259532
 31
0.0
  0
LINE
  5
1C7
330
1F
100
AcDbEntity
  8
0
  6
Continuous
 62
     7
370
    25
100
AcDbLine
 10
0.0
 20
-0.1628259532
 30
0.0
 11
0.0
 21
0.1628259532
 31
0.0
  0
LINE
  5
1C8
330
1F
100
AcDbEntity
  8
0
  6
Continuous
 62
     7
370
    25
100
AcDbLine
 10
1.9558999063
 20
-1.0762375309
 30
0.0
 11
1.9694402155
 21
-1.0684208768
 31
0.0
  0
LINE
  5
1C9
330
1F
100
AcDbEntity
  8
0
  6
Continuous
 62
     7
370
    25
100
AcDbLine
 10
1.9558999063
 20
-1.0925447581
 30
0.0
 11
1.9558999063
 21
-1.0762375309
 31
0.0
  0
LINE
  5
1CA
330
1F
100
AcDbEntity
  8
0
  6
Continuous
 62
     7
370
    25
100
AcDbLine
 10
1.9500840513
 20
-1.0959021798
 30
0.0
 11
1.9558999063
 21
-1.0925447581
 31
0.0
  0
LINE
  5
1CB
330
1F
100
AcDbEntity
  8
0
  6
Continuous
 62
     7
370
    25
100
AcDbLine
 10
1.9445450482
 20
-1.082792551
 30
0.0
 11
1.9473219154
 21
-1.0811894996
 31
0.0
  0
LINE
  5
1CC
330
1F
100
AcDbEntity
  8
0
  6
Continuous
 62
     7
370
    25
100
AcDbLine
 10
1.9558999063
 20
-1.0498832225
 30
0.0
 11
1.9558999063
 21
-1.0671775569
 31
0.0
  0
LINE
  5
1CD
330
1F
100
AcDbEntity
  8
0
  6
Continuous
 62
     7
370
    25
100
AcDbLine
 10
1.9687771065
 20
-1.0424493731
 30
0.0
 11
1.9558999063
 21
-1.0498832225
 31
0.0
  0
LINE
  5
1CE
330
1F
100
AcDbEntity
  8
0
  6
Continuous
 62
     7
370
    25
100
AcDbLine
 10
1.9586620422
 20
-1.068772104
 30
0.0
 11
1.9715392424
 21
-1.0613382546
 31
0.0
  0
LINE
  5
1CF
330
1F
100
AcDbEntity
  8
0
  6
Continuous
 62
     7
370
    25
100
AcDbLine
 10
1.9586620422
 20
-1.0514777696
 30
0.0
 11
1.9586620422
 21
-1.068772104
 31
0.0
  0
LINE
  5
1D0
330
1F
100
AcDbEntity
  8
0
  6
Continuous
 62
     7
370
    25
100
AcDbLine
 10
1.9715392424
 20
-1.0440439202
 30
0.0
 11
1.9586620422
 21
-1.0514777696
 31
0.0
  0
LINE
  5
1D1
330
1F
100
AcDbEntity
  8
0
  6
Continuous
 62
     7
370
    25
100
AcDbLine
 10
1.9558999063
 20
-1.0671775569
 30
0.0
 11
1.9586620422
 21
-1.068772104
 31
0.0
  0
LINE
  5
1D2
330
1F
100
AcDbEntity
  8
0
  6
Continuous
 62
     7
370
    25
100
AcDbLine
 10
1.9558999063
 20
-1.0498832225
 30
0.0
 11
1.9586620422
 21
-1.0514777696
 31
0.0
  0
LINE
  5
1D3
330
1F
100
AcDbEntity
  8
0
  6
Continuous
 62
     7
370
    25
100
AcDbLine
 10
1.9687771065
 20
-1.0424493731
 30
0.0
 11
1.9715392424
 21
-1.0440439202
 31
0.0
  0
LINE
  5
1D4
330
1F
100
AcDbEntity
  8
0
  6
Continuous
 62
     7
370
    25
100
AcDbLine
 10
1.9861499344
 20
-1.0410665129
 30
0.0
 11
1.9889120703
 21
-1.04266106
 31
0.0
  0
LINE
  5
1D5
330
1F
100
AcDbEntity
  8
0
  6
Continuous
 62
     7
370
    25
100
AcDbLine
 10
1.9473219154
 20
-1.0811894996
 30
0.0
 11
1.9500840513
 21
-1.0827840467
 31
0.0
  0
LINE
  5
1D6
330
1F
100
AcDbEntity
  8
0
  6
Continuous
 62
     7
370
    25
100
AcDbLine
 10
1.9694402155
 20
-1.0684208768
 30
0.0
 11
1.9722023514
 21
-1.0700154239
 31
0.0
  0
LINE
  5
1D7
330
1F
100
AcDbEntity
  8
0
  6
Continuous
 62
     7
370
    25
100
AcDbLine
 10
1.9558999063
 20
-1.0925447581
 30
0.0
 11
1.9586620422
 21
-1.0941393052
 31
0.0
  0
LINE
  5
1D8
330
1F
100
AcDbEntity
  8
0
  6
Continuous
 62
     7
370
    25
100
AcDbLine
 10
1.9558999063
 20
-1.0762375309
 30
0.0
 11
1.9586620422
 21
-1.077832078
 31
0.0
  0
LINE
  5
1D9
330
1F
100
AcDbEntity
  8
0
  6
Continuous
 62
     7
370
    25
100
AcDbLine
 10
1.9965208339
 20
-1.0334682129
 30
0.0
 11
1.9965208339
 21
-1.0322879065
 31
0.0
  0
LINE
  5
1DA
330
1F
100
AcDbEntity
  8
0
  6
Continuous
 62
     7
370
    25
100
AcDbLine
 10
2.0052009625
 20
-1.0327341407
 30
0.0
 11
2.0072563726
 21
-1.0251210921
 31
0.0
  0
LINE
  5
1DB
330
1F
100
AcDbEntity
  8
0
  6
Continuous
 62
     7
370
    25
100
AcDbLine
 10
1.9969938098
 20
-1.0687128806
 30
0.0
 11
1.9969938098
 21
-1.0423259106
 31
0.0
  0
LINE
  5
1DC
330
1F
100
AcDbEntity
  8
0
  6
Continuous
 62
     7
370
    25
100
AcDbLine
 10
1.9920594812
 20
-1.0715614078
 30
0.0
 11
1.9969938098
 21
-1.0687128806
 31
0.0
  0
LINE
  5
1DD
330
1F
100
AcDbEntity
  8
0
  6
Continuous
 62
     7
370
    25
100
AcDbLine
 10
1.9965208339
 20
-1.0334682129
 30
0.0
 11
1.9992829698
 21
-1.03506276
 31
0.0
  0
LINE
  5
1DE
330
1F
100
AcDbEntity
  8
0
  6
Continuous
 62
     7
370
    25
100
AcDbLine
 10
1.9969938098
 20
-1.0423259106
 30
0.0
 11
1.9997559456
 21
-1.0439204577
 31
0.0
  0
LINE
  5
1DF
330
1F
100
AcDbEntity
  8
0
  6
Continuous
 62
     7
370
    25
100
AcDbLine
 10
2.0022955393
 20
-1.0332482888
 30
0.0
 11
2.0050576751
 21
-1.0348428359
 31
0.0
  0
LINE
  5
1E0
330
1F
100
AcDbEntity
  8
0
  6
Continuous
 62
     7
370
    25
100
AcDbLine
 10
2.0052009625
 20
-1.0327341407
 30
0.0
 11
2.0079630983
 21
-1.0343286878
 31
0.0
  0
LINE
  5
1E1
330
1F
100
AcDbEntity
  8
0
  6
Continuous
 62
     7
370
    25
100
AcDbLine
 10
1.9969938098
 20
-1.0687128806
 30
0.0
 11
1.9997559456
 21
-1.0703074276
 31
0.0
  0
LINE
  5
1E2
330
1F
100
AcDbEntity
  8
0
  6
Continuous
 62
     7
370
    25
100
AcDbLine
 10
2.0145174872
 20
-1.0386603794
 30
0.0
 11
2.017279623
 21
-1.0402549265
 31
0.0
  0
LINE
  5
1E3
330
1F
100
AcDbEntity
  8
0
  6
Continuous
 62
     7
370
    25
100
AcDbLine
 10
2.0261360372
 20
-1.0190046104
 30
0.0
 11
2.0288981731
 21
-1.0205991575
 31
0.0
  0
LINE
  5
1E4
330
1F
100
AcDbEntity
  8
0
  6
Continuous
 62
     7
370
    25
100
AcDbLine
 10
2.0261360372
 20
-1.0529600065
 30
0.0
 11
2.0288981731
 21
-1.0545545536
 31
0.0
  0
LINE
  5
1E5
330
1F
100
AcDbEntity
  8
0
  6
Continuous
 62
     7
370
    25
100
AcDbLine
 10
2.0458768872
 20
-1.020556983
 30
0.0
 11
2.0486390231
 21
-1.0221515301
 31
0.0
  0
LINE
  5
1E6
330
1F
100
AcDbEntity
  8
0
  6
Continuous
 62
     7
370
    25
100
AcDbLine
 10
2.056623339
 20
-1.0178171361
 30
0.0
 11
2.056623339
 21
-0.9975914689
 31
0.0
  0
LINE
  5
1E7
330
1F
100
AcDbEntity
  8
0
  6
Continuous
 62
     7
370
    25
100
AcDbLine
 10
2.0816109213
 20
-1.0186323925
 30
0.0
 11
2.0816109213
 21
-0.9831664447
 31
0.0
  0
LINE
  5
1E8
330
1F
100
AcDbEntity
  8
0
  6
Continuous
 62
     7
370
    25
100
AcDbLine
 10
2.0742051562
 20
-1.0197703184
 30
0.0
 11
2.0743670051
 21
-1.019676885
 31
0.0
  0
LINE
  5
1E9
330
1F
100
AcDbEntity
  8
0
  6
Continuous
 62
     7
370
    25
100
AcDbLine
 10
2.056623339
 20
-1.0178171361
 30
0.0
 11
2.0593854748
 21
-1.0194116832
 31
0.0
  0
LINE
  5
1EA
330
1F
100
AcDbEntity
  8
0
  6
Continuous
 62
     7
370
    25
100
AcDbLine
 10
2.0634131354
 20
-1.0314403958
 30
0.0
 11
2.0661752713
 21
-1.0330349428
 31
0.0
  0
LINE
  5
1EB
330
1F
100
AcDbEntity
  8
0
  6
Continuous
 62
     7
370
    25
100
AcDbLine
 10
2.0816109213
 20
-1.0186323925
 30
0.0
 11
2.0843730571
 21
-1.0202269396
 31
0.0
  0
LINE
  5
1EC
330
1F
100
AcDbEntity
  8
0
  6
Continuous
 62
     7
370
    25
100
AcDbLine
 10
2.1235580669
 20
-0.9786757285
 30
0.0
 11
2.1235580669
 21
-0.9770952684
 31
0.0
  0
LINE
  5
1ED
330
1F
100
AcDbEntity
  8
0
  6
Continuous
 62
     7
370
    25
100
AcDbLine
 10
2.0938391545
 20
-0.9958320914
 30
0.0
 11
2.1235580669
 21
-0.9786757285
 31
0.0
  0
LINE
  5
1EE
330
1F
100
AcDbEntity
  8
0
  6
Continuous
 62
     7
370
    25
100
AcDbLine
 10
2.0652704692
 20
-1.0456084604
 30
0.0
 11
2.0680326051
 21
-1.0472030075
 31
0.0
  0
LINE
  5
1EF
330
1F
100
AcDbEntity
  8
0
  6
Continuous
 62
     7
370
    25
100
AcDbLine
 10
2.0742051562
 20
-1.0197703184
 30
0.0
 11
2.0769672921
 21
-1.0213648655
 31
0.0
  0
LINE
  5
1F0
330
1F
100
AcDbEntity
  8
0
  6
Continuous
 62
     7
370
    25
100
AcDbLine
 10
2.0938391545
 20
-0.9887463317
 30
0.0
 11
2.0966012904
 21
-0.9903408788
 31
0.0
  0
LINE
  5
1F1
330
1F
100
AcDbEntity
  8
0
  6
Continuous
 62
     7
370
    25
100
AcDbLine
 10
2.1039586382
 20
-0.9735959128
 30
0.0
 11
2.1067207741
 21
-0.9751904599
 31
0.0
  0
LINE
  5
1F2
330
1F
100
AcDbEntity
  8
0
  6
Continuous
 62
     7
370
    25
100
AcDbLine
 10
2.0966012904
 20
-0.9903408788
 30
0.0
 11
2.1172865208
 21
-0.9783995494
 31
0.0
  0
LINE
  5
1F3
330
1F
100
AcDbEntity
  8
0
  6
Continuous
 62
     7
370
    25
100
AcDbLine
 10
2.1049894428
 20
-1.0074389044
 30
0.0
 11
2.1077515787
 21
-1.0090334515
 31
0.0
  0
LINE
  5
1F4
330
1F
100
AcDbEntity
  8
0
  6
Continuous
 62
     7
370
    25
100
AcDbLine
 10
2.1235580669
 20
-0.9770952684
 30
0.0
 11
2.1263202027
 21
-0.9786898155
 31
0.0
  0
LINE
  5
1F5
330
1F
100
AcDbEntity
  8
0
  6
Continuous
 62
     7
370
    25
100
AcDbLine
 10
2.0743670051
 20
-1.019676885
 30
0.0
 11
2.077129141
 21
-1.0212714321
 31
0.0
  0
LINE
  5
1F6
330
1F
100
AcDbEntity
  8
0
  6
Continuous
 62
     7
370
    25
100
AcDbLine
 10
2.0938391545
 20
-0.9958320914
 30
0.0
 11
2.0966012904
 21
-0.9974266385
 31
0.0
  0
LINE
  5
1F7
330
1F
100
AcDbEntity
  8
0
  6
Continuous
 62
     7
370
    25
100
AcDbLine
 10
2.1235580669
 20
-0.9786757285
 30
0.0
 11
2.1263202027
 21
-0.9802702756
 31
0.0
  0
LINE
  5
1F8
330
1F
100
AcDbEntity
  8
0
  6
Continuous
 62
     7
370
    25
100
AcDbLine
 10
2.1460362058
 20
-0.9497877165
 30
0.0
 11
2.1460776687
 21
-0.9453259106
 31
0.0
  0
LINE
  5
1F9
330
1F
100
AcDbEntity
  8
0
  6
Continuous
 62
     7
370
    25
100
AcDbLine
 10
2.1773547508
 20
-0.9236767728
 30
0.0
 11
2.1773547508
 21
-0.9148020914
 31
0.0
  0
LINE
  5
1FA
330
1F
100
AcDbEntity
  8
0
  6
Continuous
 62
     7
370
    25
100
AcDbLine
 10
2.1835050084
 20
-0.9282227604
 30
0.0
 11
2.1835050084
 21
-0.9233153988
 31
0.0
  0
LINE
  5
1FB
330
1F
100
AcDbEntity
  8
0
  6
Continuous
 62
     7
370
    25
100
AcDbLine
 10
2.1773547508
 20
-0.9317732285
 30
0.0
 11
2.1835050084
 21
-0.9282227604
 31
0.0
  0
LINE
  5
1FC
330
1F
100
AcDbEntity
  8
0
  6
Continuous
 62
     7
370
    25
100
AcDbLine
 10
2.1773547508
 20
-0.9474998046
 30
0.0
 11
2.1773547508
 21
-0.9317732285
 31
0.0
  0
LINE
  5
1FD
330
1F
100
AcDbEntity
  8
0
  6
Continuous
 62
     7
370
    25
100
AcDbLine
 10
2.1812721223
 20
-0.9623693803
 30
0.0
 11
2.1841319145
 21
-0.955057882
 31
0.0
  0
LINE
  5
1FE
330
1F
100
AcDbEntity
  8
0
  6
Continuous
 62
     7
370
    25
100
AcDbLine
 10
2.1534262573
 20
-0.9455868538
 30
0.0
 11
2.1696677144
 21
-0.9362108602
 31
0.0
  0
LINE
  5
1FF
330
1F
100
AcDbEntity
  8
0
  6
Continuous
 62
     7
370
    25
100
AcDbLine
 10
2.1490889657
 20
-0.9431833574
 30
0.0
 11
2.1534262573
 21
-0.9455868538
 31
0.0
  0
LINE
  5
200
330
1F
100
AcDbEntity
  8
0
  6
Continuous
 62
     7
370
    25
100
AcDbLine
 10
2.1344852237
 20
-0.9694044792
 30
0.0
 11
2.1372473595
 21
-0.9709990263
 31
0.0
  0
LINE
  5
201
330
1F
100
AcDbEntity
  8
0
  6
Continuous
 62
     7
370
    25
100
AcDbLine
 10
2.1460362058
 20
-0.9497877165
 30
0.0
 11
2.1487983416
 21
-0.9513822636
 31
0.0
  0
LINE
  5
202
330
1F
100
AcDbEntity
  8
0
  6
Continuous
 62
     7
370
    25
100
AcDbLine
 10
2.1461116305
 20
-0.9836995707
 30
0.0
 11
2.1488737664
 21
-0.9852941178
 31
0.0
  0
LINE
  5
203
330
1F
100
AcDbEntity
  8
0
  6
Continuous
 62
     7
370
    25
100
AcDbLine
 10
2.1534262573
 20
-0.9455868538
 30
0.0
 11
2.1561883932
 21
-0.9471814009
 31
0.0
  0
LINE
  5
204
330
1F
100
AcDbEntity
  8
0
  6
Continuous
 62
     7
370
    25
100
AcDbLine
 10
2.1696677144
 20
-0.9362108602
 30
0.0
 11
2.1724298503
 21
-0.9378054073
 31
0.0
  0
LINE
  5
205
330
1F
100
AcDbEntity
  8
0
  6
Continuous
 62
     7
370
    25
100
AcDbLine
 10
2.1773547508
 20
-0.9236767728
 30
0.0
 11
2.1801168866
 21
-0.9252713198
 31
0.0
  0
LINE
  5
206
330
1F
100
AcDbEntity
  8
0
  6
Continuous
 62
     7
370
    25
100
AcDbLine
 10
2.1835050084
 20
-0.9282227604
 30
0.0
 11
2.1862671443
 21
-0.9298173075
 31
0.0
  0
LINE
  5
207
330
1F
100
AcDbEntity
  8
0
  6
Continuous
 62
     7
370
    25
100
AcDbLine
 10
2.1773547508
 20
-0.9317732285
 30
0.0
 11
2.1801168866
 21
-0.9333677756
 31
0.0
  0
LINE
  5
208
330
1F
100
AcDbEntity
  8
0
  6
Continuous
 62
     7
370
    25
100
AcDbLine
 10
2.1773547508
 20
-0.9474998046
 30
0.0
 11
2.1801168866
 21
-0.9490943517
 31
0.0
  0
LINE
  5
209
330
1F
100
AcDbEntity
  8
0
  6
Continuous
 62
     7
370
    25
100
AcDbLine
 10
2.2246256248
 20
-0.9373038309
 30
0.0
 11
2.2246256248
 21
-0.9006058137
 31
0.0
  0
LINE
  5
20A
330
1F
100
AcDbEntity
  8
0
  6
Continuous
 62
     7
370
    25
100
AcDbLine
 10
2.2197022956
 20
-0.9401460083
 30
0.0
 11
2.2246256248
 21
-0.9373038309
 31
0.0
  0
LINE
  5
20B
330
1F
100
AcDbEntity
  8
0
  6
Continuous
 62
     7
370
    25
100
AcDbLine
 10
2.2167814535
 20
-0.9369764785
 30
0.0
 11
2.2169401597
 21
-0.9368848594
 31
0.0
  0
LINE
  5
20C
330
1F
100
AcDbEntity
  8
0
  6
Continuous
 62
     7
370
    25
100
AcDbLine
 10
2.1812721223
 20
-0.9623693803
 30
0.0
 11
2.1840342582
 21
-0.9639639274
 31
0.0
  0
LINE
  5
20D
330
1F
100
AcDbEntity
  8
0
  6
Continuous
 62
     7
370
    25
100
AcDbLine
 10
2.1946034422
 20
-0.9346989704
 30
0.0
 11
2.1973655781
 21
-0.9362935175
 31
0.0
  0
LINE
  5
20E
330
1F
100
AcDbEntity
  8
0
  6
Continuous
 62
     7
370
    25
100
AcDbLine
 10
2.2059988608
 20
-0.9151720125
 30
0.0
 11
2.2087609967
 21
-0.9167665596
 31
0.0
  0
LINE
  5
20F
330
1F
100
AcDbEntity
  8
0
  6
Continuous
 62
     7
370
    25
100
AcDbLine
 10
2.2050199108
 20
-0.9496925444
 30
0.0
 11
2.2077820466
 21
-0.9512870915
 31
0.0
  0
LINE
  5
210
330
1F
100
AcDbEntity
  8
0
  6
Continuous
 62
     7
370
    25
100
AcDbLine
 10
2.2167814535
 20
-0.9068043882
 30
0.0
 11
2.2195435894
 21
-0.9083989353
 31
0.0
  0
LINE
  5
211
330
1F
100
AcDbEntity
  8
0
  6
Continuous
 62
     7
370
    25
100
AcDbLine
 10
2.2246256248
 20
-0.9373038309
 30
0.0
 11
2.2273877606
 21
-0.938898378
 31
0.0
  0
LINE
  5
212
330
1F
100
AcDbEntity
  8
0
  6
Continuous
 62
     7
370
    25
100
AcDbLine
 10
2.2167814535
 20
-0.9369764785
 30
0.0
 11
2.2195435894
 21
-0.9385710256
 31
0.0
  0
LINE
  5
213
330
1F
100
AcDbEntity
  8
0
  6
Continuous
 62
     7
370
    25
100
AcDbLine
 10
2.2169401597
 20
-0.9368848594
 30
0.0
 11
2.2197022956
 21
-0.9384794065
 31
0.0
  0
LINE
  5
214
330
1F
100
AcDbEntity
  8
0
  6
Continuous
 62
     7
370
    25
100
AcDbLine
 10
5.4911052352
 20
1.7280772132
 30
0.0
 11
5.4911260977
 21
1.7318061705
 31
0.0
  0
LINE
  5
215
330
1F
100
AcDbEntity
  8
0
  6
Continuous
 62
     7
370
    25
100
AcDbLine
 10
5.4911260977
 20
1.9586531926
 30
0.0
 11
5.4911260977
 21
1.0043133133
 31
0.0
  0
LINE
  5
216
330
1F
100
AcDbEntity
  8
0
  6
Continuous
 62
     7
370
    25
100
AcDbLine
 10
5.2567510977
 20
1.9586531926
 30
0.0
 11
5.2567510977
 21
1.7878330249
 31
0.0
  0
ARC
  5
217
330
1F
100
AcDbEntity
  8
0
  6
Continuous
 62
     7
370
    25
100
AcDbCircle
 10
5.2862786567
 20
2.0037957093
 30
0.0
 40
0.0295275590548014
100
AcDbArc
 50
89.9999999994
 51
180.0000000012
  0
ARC
  5
218
330
1F
100
AcDbEntity
  8
0
  6
Continuous
 62
     7
370
    25
100
AcDbCircle
 10
5.4615985386
 20
2.0037957093
 30
0.0
 40
0.0295275590554382
100
AcDbArc
 50
0.0000000003
 51
89.9999999994
  0
ARC
  5
219
330
1F
100
AcDbEntity
  8
0
  6
Continuous
 62
     7
370
    25
100
AcDbCircle
 10
1.767766953
 20
-0.80533433
 30
0.0
 40
0.0453845051548727
100
AcDbArc
 50
242.6096722366
 51
297.3903277634
  0
ARC
  5
21A
330
1F
100
AcDbEntity
  8
0
  6
Continuous
 62
     7
370
    25
100
AcDbCircle
 10
2.1669593643
 20
-0.8631405971
 30
0.0
 40
0.4204363148489413
100
AcDbArc
 50
122.3868559778
 51
177.6131438766
  0
ARC
  5
21B
330
1F
100
AcDbEntity
  8
0
  6
Continuous
 62
     7
370
    25
100
AcDbCircle
 10
1.9173077164
 20
-0.5463293509
 30
0.0
 40
0.0453780947117735
100
AcDbArc
 50
2.6054784857
 51
57.39452166
  0
ARC
  5
21C
330
1F
100
AcDbEntity
  8
0
  6
Continuous
 62
     7
370
    25
100
AcDbCircle
 10
0.4200715486
 20
0.1453162733
 30
0.0
 40
0.4204363148489418
100
AcDbArc
 50
122.3868559778
 51
177.6131438766
  0
ARC
  5
21D
330
1F
100
AcDbEntity
  8
0
  6
Continuous
 62
     7
370
    25
100
AcDbCircle
 10
5.1529016947
 20
1.3215392941
 30
0.0
 40
0.045378094711622
100
AcDbArc
 50
2.6054784856
 51
57.3945216608
  0
ARC
  5
21E
330
1F
100
AcDbEntity
  8
0
  6
Continuous
 62
     7
370
    25
100
AcDbCircle
 10
1.767766953
 20
-1.1309862365
 30
0.0
 40
0.0453845051548735
100
AcDbArc
 50
242.6096722366
 51
297.3903277634
  0
ARC
  5
21F
330
1F
100
AcDbEntity
  8
0
  6
Continuous
 62
     7
370
    25
100
AcDbCircle
 10
0.1343977593
 20
-0.1780222747
 30
0.0
 40
0.1352541529293086
100
AcDbArc
 50
173.548978837
 51
235.1388407696
  0
ARC
  5
220
330
1F
100
AcDbEntity
  8
0
  6
Continuous
 62
     7
370
    25
100
AcDbCircle
 10
5.4640586353
 20
1.7287933428
 30
0.0
 40
0.0272346222211082
100
AcDbArc
 50
6.3513401364
 51
95.1825778646
  0
ARC
  5
221
330
1F
100
AcDbEntity
  8
0
  6
Continuous
 62
     7
370
    25
100
AcDbCircle
 10
5.2838185452
 20
1.7848202077
 30
0.0
 40
0.027234606333892
100
AcDbArc
 50
84.8175482697
 51
173.6486781714
  0
ARC
  5
222
330
1F
100
AcDbEntity
  8
0
  6
Continuous
 62
     7
370
    25
100
AcDbCircle
 10
5.4640586353
 20
1.9556403649
 30
0.0
 40
0.0272346222211071
100
AcDbArc
 50
6.3513401364
 51
95.1825778646
  0
ARC
  5
223
330
1F
100
AcDbEntity
  8
0
  6
Continuous
 62
     7
370
    25
100
AcDbCircle
 10
5.28381856
 20
1.9556403649
 30
0.0
 40
0.0272346222207722
100
AcDbArc
 50
84.8174221381
 51
173.648659864
  0
ARC
  5
224
330
1F
100
AcDbEntity
  8
0
  6
Continuous
 62
     7
370
    25
100
AcDbCircle
 10
1.9478013659
 20
-1.2732043969
 30
0.0
 40
0.0149077324533256
100
AcDbArc
 50
306.3603206504
 51
5.5624242077
  0
ARC
  5
225
330
1F
100
AcDbEntity
  8
0
  6
Continuous
 62
     7
370
    25
100
AcDbCircle
 10
1.8884474696
 20
-1.1836401458
 30
0.0
 40
0.14209799085347
100
AcDbArc
 50
175.0110633593
 51
232.09687428
  0
ARC
  5
226
330
1F
100
AcDbEntity
  8
0
  6
Continuous
 62
     7
370
    25
100
AcDbCircle
 10
4.4262631605
 20
1.0621397016
 30
0.0
 40
0.0149589319515284
100
AcDbArc
 50
54.4991767568
 51
112.9782391601
  0
ARC
  5
227
330
1F
100
AcDbEntity
  8
0
  6
Continuous
 62
     7
370
    25
100
AcDbCircle
 10
5.1841870455
 20
0.5943209494
 30
0.0
 40
0.0141592188939831
100
AcDbArc
 50
304.056350841
 51
7.2558295524
  0
ARC
  5
228
330
1F
100
AcDbEntity
  8
0
  6
Continuous
 62
     7
370
    25
100
AcDbCircle
 10
4.96487658
 20
1.0813175796
 30
0.0
 40
0.5384071676527816
100
AcDbArc
 50
295.684782533
 51
345.4562727109
  0
ENDSEC
  0
SECTION
  2
OBJECTS
  0
DICTIONARY
  5
C
330
0
100
AcDbDictionary
281
     1
  3
ACAD_GROUP
350
D
  3
ACAD_LAYOUT
350
1A
  3
ACAD_MLINESTYLE
350
17
  3
ACAD_PLOTSETTINGS
350
19
  3
ACAD_PLOTSTYLENAME
350
E
  3
ACAD_SCALELIST
350
47
  3
DWGPROPS
350
229
  0
DICTIONARY
  5
D
102
{ACAD_REACTORS
330
C
102
}
330
C
100
AcDbDictionary
281
     1
  0
DICTIONARY
  5
1A
102
{ACAD_REACTORS
330
C
102
}
330
C
100
AcDbDictionary
281
     1
  3
Layout1
350
1E
  3
Layout2
350
26
  3
Model
350
22
  0
DICTIONARY
  5
17
102
{ACAD_REACTORS
330
C
102
}
330
C
100
AcDbDictionary
281
     1
  3
Standard
350
18
  0
DICTIONARY
  5
19
102
{ACAD_REACTORS
330
C
102
}
330
C
100
AcDbDictionary
281
     1
  0
ACDBDICTIONARYWDFLT
  5
E
102
{ACAD_REACTORS
330
C
102
}
330
C
100
AcDbDictionary
281
     1
  3
Normal
350
F
100
AcDbDictionaryWithDefault
340
F
  0
DICTIONARY
  5
47
102
{ACAD_REACTORS
330
C
102
}
330
C
100
AcDbDictionary
281
     1
  3
A0
350
48
  3
A1
350
49
  3
A2
350
4A
  3
A3
350
4B
  3
A4
350
4C
  3
A5
350
4D
  3
A6
350
4E
  3
A7
350
4F
  3
A8
350
50
  3
A9
350
51
  3
B1
350
52
  3
B2
350
53
  3
B3
350
54
  3
B4
350
55
  3
B5
350
56
  3
B6
350
57
  3
B7
350
58
  0
XRECORD
  5
229
102
{ACAD_REACTORS
330
C
102
}
330
C
100
AcDbXrecord
280
     1
  1
DWGPROPS COOKIE
  2

  3

  4

  6

  7

  8
Alan Ramirez
  9

300
=
301
=
302
=
303
=
304
=
305
=
306
=
307
=
308
=
309
=
 40
0.0
 41
2460425.675695556
 42
2460425.675724294
  1

 90
        0
  0
LAYOUT
  5
1E
102
{ACAD_REACTORS
330
1A
102
}
330
1A
100
AcDbPlotSettings
  1

  2
none_device
  4

  6

 40
0.0
 41
0.0
 42
0.0
 43
0.0
 44
0.0
 45
0.0
 46
0.0
 47
0.0
 48
0.0
 49
0.0
140
0.0
141
0.0
142
1.0
143
1.0
 70
   688
 72
     0
 73
     0
 74
     5
  7

 75
    16
147
1.0
148
0.0
149
0.0
100
AcDbLayout
  1
Layout1
 70
     1
 71
     1
 10
0.0
 20
0.0
 11
12.0
 21
9.0
 12
0.0
 22
0.0
 32
0.0
 14
1.0000000000E+20
 24
1.0000000000E+20
 34
1.0000000000E+20
 15
-1.0000000000E+20
 25
-1.0000000000E+20
 35
-1.0000000000E+20
146
0.0
 13
0.0
 23
0.0
 33
0.0
 16
1.0
 26
0.0
 36
0.0
 17
0.0
 27
1.0
 37
0.0
 76
     0
330
1B
  0
LAYOUT
  5
26
102
{ACAD_REACTORS
330
1A
102
}
330
1A
100
AcDbPlotSettings
  1

  2
none_device
  4

  6

 40
0.0
 41
0.0
 42
0.0
 43
0.0
 44
0.0
 45
0.0
 46
0.0
 47
0.0
 48
0.0
 49
0.0
140
0.0
141
0.0
142
1.0
143
1.0
 70
   688
 72
     0
 73
     0
 74
     5
  7

 75
    16
147
1.0
148
0.0
149
0.0
100
AcDbLayout
  1
Layout2
 70
     1
 71
     2
 10
0.0
 20
0.0
 11
0.0
 21
0.0
 12
0.0
 22
0.0
 32
0.0
 14
0.0
 24
0.0
 34
0.0
 15
0.0
 25
0.0
 35
0.0
146
0.0
 13
0.0
 23
0.0
 33
0.0
 16
1.0
 26
0.0
 36
0.0
 17
0.0
 27
1.0
 37
0.0
 76
     0
330
23
  0
LAYOUT
  5
22
102
{ACAD_REACTORS
330
1A
102
}
330
1A
100
AcDbPlotSettings
  1

  2
none_device
  4
ANSI_A_(11.00_x_8.50_Inches)
  6

 40
6.35
 41
19.05
 42
6.35000508
 43
19.05000254
 44
279.4
 45
215.9
 46
-4.9098699145
 47
70.7590818345
 48
0.0
 49
0.0
140
0.0
141
0.0
142
1.9828905167
143
1.0
 70
  1696
 72
     0
 73
     0
 74
     0
  7

 75
     0
147
0.5913241897
148
-39.4088153714
149
0.0
100
AcDbLayout
  1
Model
 70
     1
 71
     0
 10
0.0
 20
0.0
 11
12.0
 21
9.0
 12
0.0
 22
0.0
 32
0.0
 14
-0.0008563937
 24
-1.3129513461
 34
0.0
 15
5.4911260977
 25
2.0333232684
 35
0.0
146
0.0
 13
0.0
 23
0.0
 33
0.0
 16
1.0
 26
0.0
 36
0.0
 17
0.0
 27
1.0
 37
0.0
 76
     0
330
1F
331
29
  0
MLINESTYLE
  5
18
102
{ACAD_REACTORS
330
17
102
}
330
17
100
AcDbMlineStyle
  2
Standard
 70
     0
  3

 62
   256
 51
90.0
 52
90.0
 71
     2
 49
0.5
 62
   256
  6
BYLAYER
 49
-0.5
 62
   256
  6
BYLAYER
  0
ACDBPLACEHOLDER
  5
F
102
{ACAD_REACTORS
330
E
102
}
330
E
  0
SCALE
  5
48
102
{ACAD_REACTORS
330
47
102
}
330
47
100
AcDbScale
 70
     0
300
1:1
140
1.0
141
1.0
290
     1
  0
SCALE
  5
49
102
{ACAD_REACTORS
330
47
102
}
330
47
100
AcDbScale
 70
     0
300
1/128" = 1'-0"
140
0.0078125
141
12.0
290
     0
  0
SCALE
  5
4A
102
{ACAD_REACTORS
330
47
102
}
330
47
100
AcDbScale
 70
     0
300
1/64" = 1'-0"
140
0.015625
141
12.0
290
     0
  0
SCALE
  5
4B
102
{ACAD_REACTORS
330
47
102
}
330
47
100
AcDbScale
 70
     0
300
1/32" = 1'-0"
140
0.03125
141
12.0
290
     0
  0
SCALE
  5
4C
102
{ACAD_REACTORS
330
47
102
}
330
47
100
AcDbScale
 70
     0
300
1/16" = 1'-0"
140
0.0625
141
12.0
290
     0
  0
SCALE
  5
4D
102
{ACAD_REACTORS
330
47
102
}
330
47
100
AcDbScale
 70
     0
300
3/32" = 1'-0"
140
0.09375
141
12.0
290
     0
  0
SCALE
  5
4E
102
{ACAD_REACTORS
330
47
102
}
330
47
100
AcDbScale
 70
     0
300
1/8" = 1'-0"
140
0.125
141
12.0
290
     0
  0
SCALE
  5
4F
102
{ACAD_REACTORS
330
47
102
}
330
47
100
AcDbScale
 70
     0
300
3/16" = 1'-0"
140
0.1875
141
12.0
290
     0
  0
SCALE
  5
50
102
{ACAD_REACTORS
330
47
102
}
330
47
100
AcDbScale
 70
     0
300
1/4" = 1'-0"
140
0.25
141
12.0
290
     0
  0
SCALE
  5
51
102
{ACAD_REACTORS
330
47
102
}
330
47
100
AcDbScale
 70
     0
300
3/8" = 1'-0"
140
0.375
141
12.0
290
     0
  0
SCALE
  5
52
102
{ACAD_REACTORS
330
47
102
}
330
47
100
AcDbScale
 70
     0
300
1/2" = 1'-0"
140
0.5
141
12.0
290
     0
  0
SCALE
  5
53
102
{ACAD_REACTORS
330
47
102
}
330
47
100
AcDbScale
 70
     0
300
3/4" = 1'-0"
140
0.75
141
12.0
290
     0
  0
SCALE
  5
54
102
{ACAD_REACTORS
330
47
102
}
330
47
100
AcDbScale
 70
     0
300
1" = 1'-0"
140
1.0
141
12.0
290
     0
  0
SCALE
  5
55
102
{ACAD_REACTORS
330
47
102
}
330
47
100
AcDbScale
 70
     0
300
1-1/2" = 1'-0"
140
1.5
141
12.0
290
     0
  0
SCALE
  5
56
102
{ACAD_REACTORS
330
47
102
}
330
47
100
AcDbScale
 70
     0
300
3" = 1'-0"
140
3.0
141
12.0
290
     0
  0
SCALE
  5
57
102
{ACAD_REACTORS
330
47
102
}
330
47
100
AcDbScale
 70
     0
300
6" = 1'-0"
140
6.0
141
12.0
290
     0
  0
SCALE
  5
58
102
{ACAD_REACTORS
330
47
102
}
330
47
100
AcDbScale
 70
     0
300
1'-0" = 1'-0"
140
12.0
141
12.0
290
     0
  0
ENDSEC
  0
EOF
