  0
SECTION
  2
HEADER
  9
$ACADVER
  1
AC1015
  9
$ACADMAINTVER
 70
     6
  9
$DWGCODEPAGE
  3
ANSI_1252
  9
$INSBASE
 10
0.0
 20
0.0
 30
0.0
  9
$EXTMIN
 10
-0.0010014099
 20
-1.3006398989
 30
0.0
  9
$EXTMAX
 10
8.8266040494
 20
3.4373111253
 30
0.0
  9
$LIMMIN
 10
0.0
 20
0.0
  9
$LIMMAX
 10
12.0
 20
9.0
  9
$ORTHOMODE
 70
     0
  9
$REGENMODE
 70
     1
  9
$FILLMODE
 70
     1
  9
$QTEXTMODE
 70
     0
  9
$MIRRTEXT
 70
     1
  9
$LTSCALE
 40
1.0
  9
$ATTMODE
 70
     1
  9
$TEXTSIZE
 40
0.125
  9
$TRACEWID
 40
0.05
  9
$TEXTSTYLE
  7
Standard
  9
$CLAYER
  8
0
  9
$CELTYPE
  6
ByLayer
  9
$CECOLOR
 62
   256
  9
$CELTSCALE
 40
1.0
  9
$DISPSILH
 70
     0
  9
$DIMSCALE
 40
1.0
  9
$DIMASZ
 40
0.13
  9
$DIMEXO
 40
0.0
  9
$DIMDLI
 40
0.38
  9
$DIMRND
 40
0.0
  9
$DIMDLE
 40
0.0
  9
$DIMEXE
 40
0.125
  9
$DIMTP
 40
0.0
  9
$DIMTM
 40
0.0
  9
$DIMTXT
 40
0.125
  9
$DIMCEN
 40
0.09
  9
$DIMTSZ
 40
0.0
  9
$DIMTOL
 70
     0
  9
$DIMLIM
 70
     0
  9
$DIMTIH
 70
     1
  9
$DIMTOH
 70
     1
  9
$DIMSE1
 70
     0
  9
$DIMSE2
 70
     0
  9
$DIMTAD
 70
     0
  9
$DIMZIN
 70
     1
  9
$DIMBLK
  1

  9
$DIMASO
 70
     1
  9
$DIMSHO
 70
     1
  9
$DIMPOST
  1

  9
$DIMAPOST
  1

  9
$DIMALT
 70
     0
  9
$DIMALTD
 70
     2
  9
$DIMALTF
 40
25.4
  9
$DIMLFAC
 40
1.0
  9
$DIMTOFL
 70
     0
  9
$DIMTVP
 40
0.0
  9
$DIMTIX
 70
     0
  9
$DIMSOXD
 70
     0
  9
$DIMSAH
 70
     0
  9
$DIMBLK1
  1

  9
$DIMBLK2
  1

  9
$DIMSTYLE
  2
Standard
  9
$DIMCLRD
 70
     0
  9
$DIMCLRE
 70
     0
  9
$DIMCLRT
 70
     0
  9
$DIMTFAC
 40
1.0
  9
$DIMGAP
 40
0.06
  9
$DIMJUST
 70
     0
  9
$DIMSD1
 70
     0
  9
$DIMSD2
 70
     0
  9
$DIMTOLJ
 70
     1
  9
$DIMTZIN
 70
     1
  9
$DIMALTZ
 70
     0
  9
$DIMALTTZ
 70
     0
  9
$DIMUPT
 70
     0
  9
$DIMDEC
 70
     3
  9
$DIMTDEC
 70
     3
  9
$DIMALTU
 70
     2
  9
$DIMALTTD
 70
     2
  9
$DIMTXSTY
  7
Standard
  9
$DIMAUNIT
 70
     0
  9
$DIMADEC
 70
     2
  9
$DIMALTRND
 40
0.0
  9
$DIMAZIN
 70
     0
  9
$DIMDSEP
 70
    46
  9
$DIMATFIT
 70
     3
  9
$DIMFRAC
 70
     0
  9
$DIMLDRBLK
  1

  9
$DIMLUNIT
 70
     2
  9
$DIMLWD
 70
    -2
  9
$DIMLWE
 70
    -2
  9
$DIMTMOVE
 70
     0
  9
$LUNITS
 70
     2
  9
$LUPREC
 70
     3
  9
$SKETCHINC
 40
0.1
  9
$FILLETRAD
 40
0.0
  9
$AUNITS
 70
     0
  9
$AUPREC
 70
     2
  9
$MENU
  1
.
  9
$ELEVATION
 40
0.0
  9
$PELEVATION
 40
0.0
  9
$THICKNESS
 40
0.0
  9
$LIMCHECK
 70
     0
  9
$CHAMFERA
 40
0.0
  9
$CHAMFERB
 40
0.0
  9
$CHAMFERC
 40
0.0
  9
$CHAMFERD
 40
0.0
  9
$SKPOLY
 70
     0
  9
$TDCREATE
 40
2460425.42258338
  9
$TDUCREATE
 40
2460425.67258338
  9
$TDUPDATE
 40
2460425.422611875
  9
$TDUUPDATE
 40
2460425.672611875
  9
$TDINDWG
 40
0.0000000116
  9
$TDUSRTIMER
 40
0.0000000116
  9
$USRTIMER
 70
     1
  9
$ANGBASE
 50
0.0
  9
$ANGDIR
 70
     0
  9
$PDMODE
 70
     0
  9
$PDSIZE
 40
-1.0
  9
$PLINEWID
 40
0.0
  9
$SPLFRAME
 70
     0
  9
$SPLINETYPE
 70
     6
  9
$SPLINESEGS
 70
     8
  9
$HANDSEED
  5
219
  9
$SURFTAB1
 70
     6
  9
$SURFTAB2
 70
     6
  9
$SURFTYPE
 70
     6
  9
$SURFU
 70
     6
  9
$SURFV
 70
     6
  9
$UCSBASE
  2

  9
$UCSNAME
  2

  9
$UCSORG
 10
0.0
 20
0.0
 30
0.0
  9
$UCSXDIR
 10
1.0
 20
0.0
 30
0.0
  9
$UCSYDIR
 10
0.0
 20
1.0
 30
0.0
  9
$UCSORTHOREF
  2

  9
$UCSORTHOVIEW
 70
     0
  9
$UCSORGTOP
 10
0.0
 20
0.0
 30
0.0
  9
$UCSORGBOTTOM
 10
0.0
 20
0.0
 30
0.0
  9
$UCSORGLEFT
 10
0.0
 20
0.0
 30
0.0
  9
$UCSORGRIGHT
 10
0.0
 20
0.0
 30
0.0
  9
$UCSORGFRONT
 10
0.0
 20
0.0
 30
0.0
  9
$UCSORGBACK
 10
0.0
 20
0.0
 30
0.0
  9
$PUCSBASE
  2

  9
$PUCSNAME
  2

  9
$PUCSORG
 10
0.0
 20
0.0
 30
0.0
  9
$PUCSXDIR
 10
1.0
 20
0.0
 30
0.0
  9
$PUCSYDIR
 10
0.0
 20
1.0
 30
0.0
  9
$PUCSORTHOREF
  2

  9
$PUCSORTHOVIEW
 70
     0
  9
$PUCSORGTOP
 10
0.0
 20
0.0
 30
0.0
  9
$PUCSORGBOTTOM
 10
0.0
 20
0.0
 30
0.0
  9
$PUCSORGLEFT
 10
0.0
 20
0.0
 30
0.0
  9
$PUCSORGRIGHT
 10
0.0
 20
0.0
 30
0.0
  9
$PUCSORGFRONT
 10
0.0
 20
0.0
 30
0.0
  9
$PUCSORGBACK
 10
0.0
 20
0.0
 30
0.0
  9
$USERI1
 70
     0
  9
$USERI2
 70
     0
  9
$USERI3
 70
     0
  9
$USERI4
 70
     0
  9
$USERI5
 70
     0
  9
$USERR1
 40
0.0
  9
$USERR2
 40
0.0
  9
$USERR3
 40
0.0
  9
$USERR4
 40
0.0
  9
$USERR5
 40
0.0
  9
$WORLDVIEW
 70
     1
  9
$SHADEDGE
 70
     3
  9
$SHADEDIF
 70
    70
  9
$TILEMODE
 70
     1
  9
$MAXACTVP
 70
    64
  9
$PINSBASE
 10
0.0
 20
0.0
 30
0.0
  9
$PLIMCHECK
 70
     0
  9
$PEXTMIN
 10
1.0000000000E+20
 20
1.0000000000E+20
 30
1.0000000000E+20
  9
$PEXTMAX
 10
-1.0000000000E+20
 20
-1.0000000000E+20
 30
-1.0000000000E+20
  9
$PLIMMIN
 10
0.0
 20
0.0
  9
$PLIMMAX
 10
12.0
 20
9.0
  9
$UNITMODE
 70
     0
  9
$VISRETAIN
 70
     1
  9
$PLINEGEN
 70
     0
  9
$PSLTSCALE
 70
     1
  9
$TREEDEPTH
 70
  3020
  9
$CMLSTYLE
  2
Standard
  9
$CMLJUST
 70
     0
  9
$CMLSCALE
 40
1.0
  9
$PROXYGRAPHICS
 70
     1
  9
$MEASUREMENT
 70
     0
  9
$CELWEIGHT
370
    -1
  9
$ENDCAPS
280
     0
  9
$JOINSTYLE
280
     0
  9
$LWDISPLAY
290
     1
  9
$INSUNITS
 70
     1
  9
$HYPERLINKBASE
  1

  9
$STYLESHEET
  1

  9
$XEDIT
290
     1
  9
$CEPSNTYPE
380
     0
  9
$PSTYLEMODE
290
     1
  9
$FINGERPRINTGUID
  2
{8ded3d23-7251-41b8-89e4-15d968965026}
  9
$VERSIONGUID
  2
{FAEB1C32-E019-11D5-929B-00C0DF256EC4}
  9
$EXTNAMES
290
     1
  9
$PSVPSCALE
 40
0.0
  9
$OLESTARTUP
290
     0
  0
ENDSEC
  0
SECTION
  2
CLASSES
  0
CLASS
  1
ACDBDICTIONARYWDFLT
  2
AcDbDictionaryWithDefault
  3
ObjectDBX Classes
 90
        0
280
     0
281
     0
  0
CLASS
  1
VISUALSTYLE
  2
AcDbVisualStyle
  3
ObjectDBX Classes
 90
     4095
280
     0
281
     0
  0
CLASS
  1
MATERIAL
  2
AcDbMaterial
  3
ObjectDBX Classes
 90
     1153
280
     0
281
     0
  0
CLASS
  1
SCALE
  2
AcDbScale
  3
ObjectDBX Classes
 90
     1153
280
     0
281
     0
  0
CLASS
  1
TABLESTYLE
  2
AcDbTableStyle
  3
ObjectDBX Classes
 90
     4095
280
     0
281
     0
  0
CLASS
  1
MLEADERSTYLE
  2
AcDbMLeaderStyle
  3
ACDB_MLEADERSTYLE_CLASS
 90
     4095
280
     0
281
     0
  0
CLASS
  1
SUN
  2
AcDbSun
  3
SCENEOE
 90
     1153
280
     0
281
     0
  0
CLASS
  1
ACDBPLACEHOLDER
  2
AcDbPlaceHolder
  3
ObjectDBX Classes
 90
        0
280
     0
281
     0
  0
CLASS
  1
LAYOUT
  2
AcDbLayout
  3
ObjectDBX Classes
 90
        0
280
     0
281
     0
  0
ENDSEC
  0
SECTION
  2
TABLES
  0
TABLE
  2
VPORT
  5
8
330
0
100
AcDbSymbolTable
 70
     1
  0
VPORT
  5
29
330
8
100
AcDbSymbolTableRecord
100
AcDbViewportTableRecord
  2
*Active
 70
     0
 10
0.0
 20
0.0
 11
1.0
 21
1.0
 12
4.4128013198
 22
1.0683356132
 13
0.0
 23
0.0
 14
0.5
 24
0.5
 15
0.5
 25
0.5
 16
0.0
 26
0.0
 36
1.0
 17
0.0
 27
0.0
 37
0.0
 40
4.8327100447
 41
1.8631694195
 42
50.0
 43
0.0
 44
0.0
 50
0.0
 51
0.0
 71
     0
 72
   100
 73
     1
 74
     3
 75
     0
 76
     0
 77
     0
 78
     0
281
     0
 65
     1
110
0.0
120
0.0
130
0.0
111
1.0
121
0.0
131
0.0
112
0.0
122
1.0
132
0.0
 79
     0
146
0.0
  0
ENDTAB
  0
TABLE
  2
LTYPE
  5
5
330
0
100
AcDbSymbolTable
 70
     6
  0
LTYPE
  5
14
330
5
100
AcDbSymbolTableRecord
100
AcDbLinetypeTableRecord
  2
ByBlock
 70
     0
  3

 72
    65
 73
     0
 40
0.0
  0
LTYPE
  5
15
330
5
100
AcDbSymbolTableRecord
100
AcDbLinetypeTableRecord
  2
ByLayer
 70
     0
  3

 72
    65
 73
     0
 40
0.0
  0
LTYPE
  5
16
330
5
100
AcDbSymbolTableRecord
100
AcDbLinetypeTableRecord
  2
Continuous
 70
     0
  3
Solid line
 72
    65
 73
     0
 40
0.0
  0
LTYPE
  5
5E
330
5
100
AcDbSymbolTableRecord
100
AcDbLinetypeTableRecord
  2
HIDDEN
 70
     0
  3
Hidden __ __ __ __ __ __ __ __ __ __ __ __ __ __
 72
    65
 73
     2
 40
0.075
 49
0.05
 74
     0
 49
-0.025
 74
     0
  0
LTYPE
  5
5F
330
5
100
AcDbSymbolTableRecord
100
AcDbLinetypeTableRecord
  2
PHANTOM
 70
     0
  3
Phantom ______  __  __  ______  __  __  ______
 72
    65
 73
     6
 40
0.5
 49
0.25
 74
     0
 49
-0.05
 74
     0
 49
0.05
 74
     0
 49
-0.05
 74
     0
 49
0.05
 74
     0
 49
-0.05
 74
     0
  0
LTYPE
  5
60
330
5
100
AcDbSymbolTableRecord
100
AcDbLinetypeTableRecord
  2
CENTER
 70
     0
  3
Center ____ _ ____ _ ____ _ ____ _ ____ _ ____
 72
    65
 73
     4
 40
0.4
 49
0.25
 74
     0
 49
-0.05
 74
     0
 49
0.05
 74
     0
 49
-0.05
 74
     0
  0
LTYPE
  5
61
330
5
100
AcDbSymbolTableRecord
100
AcDbLinetypeTableRecord
  2
CENTERX2
 70
     0
  3
Center (2x) ________  __  ________  __  _____
 72
    65
 73
     4
 40
0.8
 49
0.5
 74
     0
 49
-0.1
 74
     0
 49
0.1
 74
     0
 49
-0.1
 74
     0
  0
LTYPE
  5
62
330
5
100
AcDbSymbolTableRecord
100
AcDbLinetypeTableRecord
  2
DOT2
 70
     0
  3
Dot (.5x) ........................................
 72
    65
 73
     2
 40
0.025
 49
0.0
 74
     0
 49
-0.025
 74
     0
  0
ENDTAB
  0
TABLE
  2
LAYER
  5
2
330
0
100
AcDbSymbolTable
 70
     1
  0
LAYER
  5
10
330
2
100
AcDbSymbolTableRecord
100
AcDbLayerTableRecord
  2
0
 70
     0
 62
     7
  6
Continuous
370
    -3
390
F
  0
ENDTAB
  0
TABLE
  2
STYLE
  5
3
330
0
100
AcDbSymbolTable
 70
     1
  0
STYLE
  5
11
330
3
100
AcDbSymbolTableRecord
100
AcDbTextStyleTableRecord
  2
Standard
 70
     0
 40
0.0
 41
1.0
 50
0.0
 71
     0
 42
0.125
  3
txt
  4

  0
ENDTAB
  0
TABLE
  2
VIEW
  5
6
330
0
100
AcDbSymbolTable
 70
     0
  0
ENDTAB
  0
TABLE
  2
UCS
  5
7
330
0
100
AcDbSymbolTable
 70
     0
  0
ENDTAB
  0
TABLE
  2
APPID
  5
9
330
0
100
AcDbSymbolTable
 70
     1
  0
APPID
  5
12
330
9
100
AcDbSymbolTableRecord
100
AcDbRegAppTableRecord
  2
ACAD
 70
     0
  0
ENDTAB
  0
TABLE
  2
DIMSTYLE
  5
A
330
0
100
AcDbSymbolTable
 70
     1
100
AcDbDimStyleTable
  0
DIMSTYLE
105
27
330
A
100
AcDbSymbolTableRecord
100
AcDbDimStyleTableRecord
  2
Standard
 70
     0
178
     0
340
11
  0
ENDTAB
  0
TABLE
  2
BLOCK_RECORD
  5
1
330
0
100
AcDbSymbolTable
 70
     1
  0
BLOCK_RECORD
  5
1F
330
1
100
AcDbSymbolTableRecord
100
AcDbBlockTableRecord
  2
*Model_Space
340
22
  0
BLOCK_RECORD
  5
1B
330
1
100
AcDbSymbolTableRecord
100
AcDbBlockTableRecord
  2
*Paper_Space
340
1E
  0
BLOCK_RECORD
  5
23
330
1
100
AcDbSymbolTableRecord
100
AcDbBlockTableRecord
  2
*Paper_Space0
340
26
  0
ENDTAB
  0
ENDSEC
  0
SECTION
  2
BLOCKS
  0
BLOCK
  5
20
330
1F
100
AcDbEntity
  8
0
100
AcDbBlockBegin
  2
*Model_Space
 70
     0
 10
0.0
 20
0.0
 30
0.0
  3
*Model_Space
  1

  0
ENDBLK
  5
21
330
1F
100
AcDbEntity
  8
0
100
AcDbBlockEnd
  0
BLOCK
  5
1C
330
1B
100
AcDbEntity
 67
     1
  8
0
100
AcDbBlockBegin
  2
*Paper_Space
 70
     0
 10
0.0
 20
0.0
 30
0.0
  3
*Paper_Space
  1

  0
ENDBLK
  5
1D
330
1B
100
AcDbEntity
 67
     1
  8
0
100
AcDbBlockEnd
  0
BLOCK
  5
24
330
23
100
AcDbEntity
  8
0
100
AcDbBlockBegin
  2
*Paper_Space0
 70
     0
 10
0.0
 20
0.0
 30
0.0
  3
*Paper_Space0
  1

  0
ENDBLK
  5
25
330
23
100
AcDbEntity
  8
0
100
AcDbBlockEnd
  0
ENDSEC
  0
SECTION
  2
ENTITIES
  0
SPLINE
  5
63
330
1F
100
AcDbEntity
  8
0
  6
Continuous
 62
     7
370
    25
100
AcDbSpline
210
0.0
220
0.0
230
1.0
 70
     8
 71
     3
 72
    13
 73
     9
 74
     0
 42
0.00000001
 43
0.00000001
 40
0.0
 40
0.0
 40
0.0
 40
0.0
 40
0.1271216158485838
 40
0.3224606032590268
 40
0.500859724297322
 40
0.6807015527481519
 40
0.8595158600420503
 40
0.9999999999999999
 40
0.9999999999999999
 40
0.9999999999999999
 40
0.9999999999999999
 10
1.807816665643094
 20
-1.279805667640041
 30
0.0
 10
1.814021334352806
 20
-1.28368418595107
 30
0.0
 10
1.829760287966637
 20
-1.293522554870289
 30
0.0
 10
1.858451376417392
 20
-1.300335341403815
 30
0.0
 10
1.891539867631153
 20
-1.301342716637115
 30
0.0
 10
1.924712964462847
 20
-1.295345820876444
 30
0.0
 10
1.955882694015731
 20
-1.284686221396731
 30
0.0
 10
1.975640939394486
 20
-1.273640109509689
 30
0.0
 10
1.984334123257428
 20
-1.268780068561522
 30
0.0
  0
SPLINE
  5
65
330
1F
100
AcDbEntity
  8
0
  6
Continuous
 62
     7
370
    25
100
AcDbSpline
210
0.0
220
0.0
230
1.0
 70
     8
 71
     3
 72
    38
 73
    34
 74
     0
 42
0.00000001
 43
0.00000001
 40
0.0
 40
0.0
 40
0.0
 40
0.0
 40
0.03558651481115
 40
0.0658162558400244
 40
0.0906896697131336
 40
0.1102072390298363
 40
0.1243694428876849
 40
0.1378155088351854
 40
0.1529504237472268
 40
0.1701887531148769
 40
0.1965701034448707
 40
0.2260790337183843
 40
0.2552496333025017
 40
0.2835652067712985
 40
0.3475366462523803
 40
0.4093074722959137
 40
0.4713820764149463
 40
0.5067799644025832
 40
0.5422412580557376
 40
0.577741890909223
 40
0.6043790041787491
 40
0.6303301176980453
 40
0.6553357401270564
 40
0.679416080124874
 40
0.7002108908773247
 40
0.7207764940402847
 40
0.7457132729721805
 40
0.7761229689034951
 40
0.8120154911468607
 40
0.8526077112860505
 40
0.898491991551755
 40
0.9496659676984585
 40
1.0
 40
1.0
 40
1.0
 40
1.0
 10
4.420185902266831
 20
1.07577883263937
 30
0.0
 10
4.379057962742468
 20
1.05206959628069
 30
0.0
 10
4.302992998126698
 20
1.008220032078196
 30
0.0
 10
4.197811833418967
 20
0.9480141347145157
 30
0.0
 10
4.111031791333376
 20
0.8986145035179666
 30
0.0
 10
4.042751381712709
 20
0.859962522346127
 30
0.0
 10
3.987671835193542
 20
0.828929106291633
 30
0.0
 10
3.937616193850559
 20
0.8008455268111239
 30
0.0
 10
3.883838524604478
 20
0.7708165908382144
 30
0.0
 10
3.814685377215662
 20
0.7324297653847291
 30
0.0
 10
3.728252411461529
 20
0.6848742045574004
 30
0.0
 10
3.62707948990725
 20
0.629950226585408
 30
0.0
 10
3.522795962823535
 20
0.5742913395018943
 30
0.0
 10
3.375865540849572
 20
0.4974480971923934
 30
0.0
 10
3.186259861172811
 20
0.4020712715104506
 30
0.0
 10
2.946965390141491
 20
0.2914912686639528
 30
0.0
 10
2.733496868094518
 20
0.2056903583038656
 30
0.0
 10
2.544497593674527
 20
0.1440305890515005
 30
0.0
 10
2.38536677817369
 20
0.1034062469627863
 30
0.0
 10
2.23129609301808
 20
0.0781463798178965
 30
0.0
 10
2.087738400390225
 20
0.0688526238817967
 30
0.0
 10
1.960566231511032
 20
0.0723425734788329
 30
0.0
 10
1.840089130492255
 20
0.0866490345911363
 30
0.0
 10
1.732137179141111
 20
0.1084458554040929
 30
0.0
 10
1.635280323145859
 20
0.1345630240242733
 30
0.0
 10
1.540984236659466
 20
0.1651580290982901
 30
0.0
 10
1.437194923816385
 20
0.2042078892938239
 30
0.0
 10
1.31748297972399
 20
0.2553272603358518
 30
0.0
 10
1.182465266341765
 20
0.3190975949986369
 30
0.0
 10
1.032527613106486
 20
0.3952442343520683
 30
0.0
 10
0.8673618798013861
 20
0.4831503424982809
 30
0.0
 10
0.6925889613624229
 20
0.5785784734065926
 30
0.0
 10
0.5724891874951097
 20
0.6444777550685132
 30
0.0
 10
0.5129361927151235
 20
0.6771547489582187
 30
0.0
  0
SPLINE
  5
72
330
1F
100
AcDbEntity
  8
0
  6
Continuous
 62
     7
370
    25
100
AcDbSpline
210
0.0
220
0.0
230
1.0
 70
     8
 71
     3
 72
    14
 73
    10
 74
     0
 42
0.00000001
 43
0.00000001
 40
0.0
 40
0.0
 40
0.0
 40
0.0
 40
0.0752713153415063
 40
0.2437909779542391
 40
0.4146333251788353
 40
0.5877502780956273
 40
0.7637954684581851
 40
0.9448893563914861
 40
1.0
 40
1.0
 40
1.0
 40
1.0
 10
8.826147236716393
 20
3.191986009331623
 30
0.0
 10
8.826248267339349
 20
3.197056378368305
 30
0.0
 10
8.826575488330002
 20
3.213478440616495
 30
0.0
 10
8.823078905234615
 20
3.239482252727867
 30
0.0
 10
8.815529382653436
 20
3.269546695616421
 30
0.0
 10
8.803494077244794
 20
3.297107984728879
 30
0.0
 10
8.786608926671637
 20
3.321119010150462
 30
0.0
 10
8.77085687927709
 20
3.337542514179688
 30
0.0
 10
8.759643139140532
 20
3.343534460243064
 30
0.0
 10
8.757026777667063
 20
3.344932485936578
 30
0.0
  0
SPLINE
  5
74
330
1F
100
AcDbEntity
  8
0
  6
Continuous
 62
     7
370
    25
100
AcDbSpline
210
0.0
220
0.0
230
1.0
 70
     8
 71
     3
 72
    13
 73
     9
 74
     0
 42
0.00000001
 43
0.00000001
 40
0.0
 40
0.0
 40
0.0
 40
0.0
 40
0.1105924835571163
 40
0.3096292793630712
 40
0.4914055335393835
 40
0.6746518058850561
 40
0.8568511058807009
 40
1.0
 40
1.0
 40
1.0
 40
1.0
 10
8.63027365065118
 20
3.418075890824256
 30
0.0
 10
8.624965299124652
 20
3.421365991286635
 30
0.0
 10
8.6101033392075
 20
3.430577389768994
 30
0.0
 10
8.5824058753114
 20
3.436995898371916
 30
0.0
 10
8.549337940865321
 20
3.438044284310052
 30
0.0
 10
8.51615946414887
 20
3.432036663813367
 30
0.0
 10
8.484990758267738
 20
3.421379619473023
 30
0.0
 10
8.46523203938568
 20
3.410333017105857
 30
0.0
 10
8.456538464906577
 20
3.405472658446309
 30
0.0
  0
SPLINE
  5
76
330
1F
100
AcDbEntity
  8
0
  6
Continuous
 62
     7
370
    25
100
AcDbSpline
210
0.0
220
0.0
230
1.0
 70
     8
 71
     3
 72
    14
 73
    10
 74
     0
 42
0.00000001
 43
0.00000001
 40
0.0
 40
0.0
 40
0.0
 40
0.0
 40
0.2147204922871088
 40
0.3017619419351538
 40
0.4451961684373671
 40
0.5924093974308372
 40
0.7486818090962927
 40
0.9099745940496083
 40
1.0
 40
1.0
 40
1.0
 40
1.0
 10
8.763545271983748
 20
2.717179028055237
 30
0.0
 10
8.771693276521184
 20
2.73220710365058
 30
0.0
 10
8.783144245387371
 20
2.753327124506042
 30
0.0
 10
8.796828107042577
 20
2.785518636510223
 30
0.0
 10
8.806909282899467
 20
2.813039973362412
 30
0.0
 10
8.816251138240638
 20
2.845642073656803
 30
0.0
 10
8.822872906643006
 20
2.879061388549631
 30
0.0
 10
8.826419020456248
 20
2.907855963785579
 30
0.0
 10
8.82621891651861
 20
2.92462262238046
 30
0.0
 10
8.826147236716393
 20
2.930628654976065
 30
0.0
  0
SPLINE
  5
77
330
1F
100
AcDbEntity
  8
0
  6
Continuous
 62
     7
370
    25
100
AcDbSpline
210
0.0
220
0.0
230
1.0
 70
     8
 71
     3
 72
    14
 73
    10
 74
     0
 42
0.00000001
 43
0.00000001
 40
0.0
 40
0.0
 40
0.0
 40
0.0
 40
0.0376885827353861
 40
0.2197695965802552
 40
0.3937222172897339
 40
0.5655762681302117
 40
0.6907218571258621
 40
0.8162957028648139
 40
1.0
 40
1.0
 40
1.0
 40
1.0
 10
8.609980340674673
 20
2.556124077379524
 30
0.0
 10
8.61218043535672
 20
2.557255837692189
 30
0.0
 10
8.625009623551625
 20
2.56385535641345
 30
0.0
 10
8.64751694760737
 20
2.580479113022813
 30
0.0
 10
8.676817287659835
 20
2.605318316829975
 30
0.0
 10
8.701685196250754
 20
2.631070639405197
 30
0.0
 10
8.722687638237945
 20
2.656238478275137
 30
0.0
 10
8.743134038979926
 20
2.683672162295713
 30
0.0
 10
8.755939258243059
 20
2.704693075769716
 30
0.0
 10
8.763545271983746
 20
2.717179028055237
 30
0.0
  0
SPLINE
  5
78
330
1F
100
AcDbEntity
  8
0
  6
Continuous
 62
     7
370
    25
100
AcDbSpline
210
0.0
220
0.0
230
1.0
 70
     8
 71
     3
 72
    25
 73
    21
 74
     0
 42
0.00000001
 43
0.00000001
 40
0.0
 40
0.0
 40
0.0
 40
0.0
 40
0.0233368162246118
 40
0.0466304320573491
 40
0.0699121198700349
 40
0.0932132000603171
 40
0.1165649149961189
 40
0.1783054575038199
 40
0.2400920817321803
 40
0.3044067946287125
 40
0.368767776628866
 40
0.5000056630268592
 40
0.6312435494248523
 40
0.6955582660444913
 40
0.7599192517708908
 40
0.8216597903933761
 40
0.8834464132780596
 40
0.9223114530497997
 40
0.9611142660709427
 40
1.0
 40
1.0
 40
1.0
 40
1.0
 10
1.990477750190481
 20
-0.5281955045902702
 30
0.0
 10
1.988013113494481
 20
-0.5296481883739296
 30
0.0
 10
1.983088402561649
 20
-0.5325508667779918
 30
0.0
 10
1.975714709466045
 20
-0.5372922067815686
 30
0.0
 10
1.968364621019948
 20
-0.5423093435414371
 30
0.0
 10
1.961037970712662
 20
-0.5476307296191043
 30
0.0
 10
1.949744267943464
 20
-0.5563178090153627
 30
0.0
 10
1.934618868975864
 20
-0.5691602046626886
 30
0.0
 10
1.91581626550935
 20
-0.5874220964608713
 30
0.0
 10
1.897476506205249
 20
-0.6076487341889165
 30
0.0
 10
1.873742345473771
 20
-0.6373605859551515
 30
0.0
 10
1.846740568324829
 20
-0.6782585552165681
 30
0.0
 10
1.824825559448811
 20
-0.7220860976166579
 30
0.0
 10
1.810960120647764
 20
-0.7574971149167451
 30
0.0
 10
1.802613705522736
 20
-0.783487986828088
 30
0.0
 10
1.796198053862482
 20
-0.8089096332699985
 30
0.0
 10
1.792257783164923
 20
-0.8304939236102782
 30
0.0
 10
1.790028497081531
 20
-0.848598407091768
 30
0.0
 10
1.788861367658116
 20
-0.863435558855033
 30
0.0
 10
1.788717900400076
 20
-0.8729939144019793
 30
0.0
 10
1.788646090206132
 20
-0.877778193233145
 30
0.0
  0
SPLINE
  5
7F
330
1F
100
AcDbEntity
  8
0
  6
Continuous
 62
     7
370
    25
100
AcDbSpline
210
0.0
220
0.0
230
1.0
 70
     8
 71
     3
 72
    25
 73
    21
 74
     0
 42
0.00000001
 43
0.00000001
 40
0.0
 40
0.0
 40
0.0
 40
0.0
 40
0.0233368162229672
 40
0.0466304320548829
 40
0.0699121198675685
 40
0.0932132000586657
 40
0.1165649149960889
 40
0.1783054575004511
 40
0.240092081732164
 40
0.3044067946270266
 40
0.3687677766288457
 40
0.500005663026839
 40
0.631243549424829
 40
0.695558266041075
 40
0.7599192517708896
 40
0.8216597903929415
 40
0.8834464132780628
 40
0.9223114530498713
 40
0.9611142660710144
 40
1.0
 40
1.0
 40
1.0
 40
1.0
 10
8.817955627592077
 20
3.180155827145485
 30
0.0
 10
8.817929752757182
 20
3.182986961408832
 30
0.0
 10
8.817878050986085
 20
3.188643989027509
 30
0.0
 10
8.817458399898497
 20
3.196916598237719
 30
0.0
 10
8.816788114345004
 20
3.205017261472827
 30
0.0
 10
8.815842638261108
 20
3.212931995098941
 30
0.0
 10
8.813965748030158
 20
3.224890040543422
 30
0.0
 10
8.810405980042146
 20
3.240301282681638
 30
0.0
 10
8.803991348397531
 20
3.258310747142001
 30
0.0
 10
8.795643904562997
 20
3.274669947520587
 30
0.0
 10
8.781779231754907
 20
3.29407337507074
 30
0.0
 10
8.759861164473927
 20
3.312600999783759
 30
0.0
 10
8.732863179064944
 20
3.322322037931536
 30
0.0
 10
8.709129592422586
 20
3.324632226959115
 30
0.0
 10
8.690794585704985
 20
3.323685785003434
 30
0.0
 10
8.671987291157448
 20
3.320237122701921
 30
0.0
 10
8.655265575123355
 20
3.315133960678141
 30
0.0
 10
8.640701943709526
 20
3.30930085250665
 30
0.0
 10
8.628436759269132
 20
3.303568070222625
 30
0.0
 10
8.620231150914867
 20
3.298996744043787
 30
0.0
 10
8.616123967607727
 20
3.296708641350774
 30
0.0
  0
SPLINE
  5
81
330
1F
100
AcDbEntity
  8
0
  6
Continuous
 62
     7
370
    25
100
AcDbSpline
210
0.0
220
0.0
230
1.0
 70
     8
 71
     3
 72
    25
 73
    21
 74
     0
 42
0.00000001
 43
0.00000001
 40
0.0
 40
0.0
 40
0.0
 40
0.0
 40
0.0233368162247813
 40
0.0466304320575959
 40
0.0699121198702797
 40
0.0932132000604786
 40
0.1165649149961118
 40
0.1783054575046653
 40
0.2400920817321671
 40
0.3044067946337234
 40
0.3687677766288815
 40
0.5000056630268628
 40
0.6312435494248473
 40
0.6955582660320653
 40
0.75991925177084
 40
0.821659790390246
 40
0.8834464132781168
 40
0.9223114530540192
 40
0.9611142660751588
 40
1.0
 40
1.0
 40
1.0
 40
1.0
 10
8.616123967607727
 20
2.569215784147052
 30
0.0
 10
8.618588604303744
 20
2.570668467930723
 30
0.0
 10
8.623513315236602
 20
2.573571146334799
 30
0.0
 10
8.630887008332234
 20
2.57831248633839
 30
0.0
 10
8.63823709677833
 20
2.583329623098259
 30
0.0
 10
8.645563747085594
 20
2.588651009175909
 30
0.0
 10
8.656857449854844
 20
2.597338088572238
 30
0.0
 10
8.671982848822445
 20
2.61018048421952
 30
0.0
 10
8.690785452289417
 20
2.628442376018279
 30
0.0
 10
8.709125211593529
 20
2.648669013746097
 30
0.0
 10
8.73285937232479
 20
2.678380865512646
 30
0.0
 10
8.759861149473377
 20
2.719278834773323
 30
0.0
 10
8.781776158348633
 20
2.763106377171773
 30
0.0
 10
8.795641597149723
 20
2.798517394471834
 30
0.0
 10
8.803988012274784
 20
2.824508266382744
 30
0.0
 10
8.810403663936249
 20
2.849929912826505
 30
0.0
 10
8.814343934633335
 20
2.871514203167212
 30
0.0
 10
8.816573220716585
 20
2.889618686649539
 30
0.0
 10
8.81774035014006
 20
2.904455838412824
 30
0.0
 10
8.817883817398124
 20
2.914014193959271
 30
0.0
 10
8.817955627592077
 20
2.918798472789927
 30
0.0
  0
SPLINE
  5
83
330
1F
100
AcDbEntity
  8
0
  6
Continuous
 62
     7
370
    25
100
AcDbSpline
210
0.0
220
0.0
230
1.0
 70
     8
 71
     3
 72
    25
 73
    21
 74
     0
 42
0.00000001
 43
0.00000001
 40
0.0
 40
0.0
 40
0.0
 40
0.0
 40
0.0233368162245132
 40
0.0466304320572004
 40
0.0699121198698864
 40
0.0932132000602176
 40
0.116564914996117
 40
0.1783054575037766
 40
0.2400920817321808
 40
0.3044067946286263
 40
0.368767776628863
 40
0.5000056630268557
 40
0.6312435494248486
 40
0.6955582660435704
 40
0.7599192517708886
 40
0.8216597903930871
 40
0.883446413278061
 40
0.9223114530498722
 40
0.9611142660710151
 40
1.0
 40
1.0
 40
1.0
 40
1.0
 10
1.788646090206132
 20
-1.139135547588702
 30
0.0
 10
1.788671965041025
 20
-1.14196668185224
 30
0.0
 10
1.788723666812117
 20
-1.147623709471202
 30
0.0
 10
1.789143317899706
 20
-1.155896318681696
 30
0.0
 10
1.789813603453192
 20
-1.163996981916808
 30
0.0
 10
1.790759079537076
 20
-1.17191171554265
 30
0.0
 10
1.792635969768209
 20
-1.183869760987116
 30
0.0
 10
1.796195737756211
 20
-1.199281003125139
 30
0.0
 10
1.802610369400862
 20
-1.21729046758567
 30
0.0
 10
1.810957813235304
 20
-1.233649667963916
 30
0.0
 10
1.8248224860434
 20
-1.25305309551406
 30
0.0
 10
1.846740553324293
 20
-1.271580720226942
 30
0.0
 10
1.873738538733432
 20
-1.281301758374918
 30
0.0
 10
1.897472125375914
 20
-1.283611947402182
 30
0.0
 10
1.915807132093472
 20
-1.282665505446649
 30
0.0
 10
1.934614426640785
 20
-1.279216843145113
 30
0.0
 10
1.951336142674864
 20
-1.274113681121356
 30
0.0
 10
1.965899774088683
 20
-1.268280572949867
 30
0.0
 10
1.978164958529076
 20
-1.262547790665843
 30
0.0
 10
1.986370566883342
 20
-1.257976464487005
 30
0.0
 10
1.990477750190481
 20
-1.255688361793992
 30
0.0
  0
SPLINE
  5
87
330
1F
100
AcDbEntity
  8
0
  6
Continuous
 62
     7
370
    25
100
AcDbSpline
210
0.0
220
0.0
230
1.0
 70
     8
 71
     3
 72
     8
 73
     4
 74
     0
 42
0.00000001
 43
0.00000001
 40
-0.9411764705882354
 40
-0.9411764705882354
 40
-0.9411764705882354
 40
-0.9411764705882354
 40
-0.8823529411764707
 40
-0.8823529411764707
 40
-0.8823529411764707
 40
-0.8823529411764707
 10
2.051681153602907
 20
-1.023514531484067
 30
0.0
 10
2.051681153602907
 20
-1.034735616774512
 30
0.0
 10
2.058197535428641
 20
-1.037640391714522
 30
0.0
 10
2.066175271268837
 20
-1.033034942843713
 30
0.0
  0
SPLINE
  5
88
330
1F
100
AcDbEntity
  8
0
  6
Continuous
 62
     7
370
    25
100
AcDbSpline
210
0.0
220
0.0
230
1.0
 70
     8
 71
     3
 72
     8
 73
     4
 74
     0
 42
0.00000001
 43
0.00000001
 40
-0.8823529411764707
 40
-0.8823529411764707
 40
-0.8823529411764707
 40
-0.8823529411764707
 40
-0.823529411764706
 40
-0.823529411764706
 40
-0.823529411764706
 40
-0.823529411764706
 10
2.066175271268837
 20
-1.033034942843713
 30
0.0
 10
2.071131304130754
 20
-1.030173885971836
 30
0.0
 10
2.07394873181667
 20
-1.026896192613896
 30
0.0
 10
2.076967292098124
 20
-1.021364865488078
 30
0.0
  0
SPLINE
  5
8B
330
1F
100
AcDbEntity
  8
0
  6
Continuous
 62
     7
370
    25
100
AcDbSpline
210
0.0
220
0.0
230
1.0
 70
     8
 71
     3
 72
     8
 73
     4
 74
     0
 42
0.00000001
 43
0.00000001
 40
-0.7058823529411765
 40
-0.7058823529411765
 40
-0.7058823529411765
 40
-0.7058823529411765
 40
-0.6470588235294118
 40
-0.6470588235294118
 40
-0.6470588235294118
 40
-0.6470588235294118
 10
2.077129140983643
 20
-1.023399881831579
 30
0.0
 10
2.077129140983643
 20
-1.030427576419197
 30
0.0
 10
2.07269793848822
 20
-1.036444159141696
 30
0.0
 10
2.06758477078598
 20
-1.039395928026032
 30
0.0
  0
SPLINE
  5
8C
330
1F
100
AcDbEntity
  8
0
  6
Continuous
 62
     7
370
    25
100
AcDbSpline
210
0.0
220
0.0
230
1.0
 70
     8
 71
     3
 72
     8
 73
     4
 74
     0
 42
0.00000001
 43
0.00000001
 40
-0.6470588235294118
 40
-0.6470588235294118
 40
-0.6470588235294118
 40
-0.6470588235294118
 40
-0.5882352941176471
 40
-0.5882352941176471
 40
-0.5882352941176471
 40
-0.5882352941176471
 10
2.06758477078598
 20
-1.039395928026032
 30
0.0
 10
2.06426608295963
 20
-1.041311765728432
 30
0.0
 10
2.061803780012672
 20
-1.041158206463788
 30
0.0
 10
2.059385474821009
 20
-1.039923188385588
 30
0.0
  0
SPLINE
  5
8E
330
1F
100
AcDbEntity
  8
0
  6
Continuous
 62
     7
370
    25
100
AcDbSpline
210
0.0
220
0.0
230
1.0
 70
     8
 71
     3
 72
     8
 73
     4
 74
     0
 42
0.00000001
 43
0.00000001
 40
-0.5294117647058824
 40
-0.5294117647058824
 40
-0.5294117647058824
 40
-0.5294117647058824
 40
-0.4705882352941177
 40
-0.4705882352941177
 40
-0.4705882352941177
 40
-0.4705882352941177
 10
2.052876949737295
 20
-1.048126091027144
 30
0.0
 10
2.056326059481083
 20
-1.050569686230548
 30
0.0
 10
2.059970016426842
 20
-1.051857440834403
 30
0.0
 10
2.068032605080726
 20
-1.047203007476916
 30
0.0
  0
SPLINE
  5
8F
330
1F
100
AcDbEntity
  8
0
  6
Continuous
 62
     7
370
    25
100
AcDbSpline
210
0.0
220
0.0
230
1.0
 70
     8
 71
     3
 72
     8
 73
     4
 74
     0
 42
0.00000001
 43
0.00000001
 40
-0.4705882352941177
 40
-0.4705882352941177
 40
-0.4705882352941177
 40
-0.4705882352941177
 40
-0.411764705882353
 40
-0.411764705882353
 40
-0.411764705882353
 40
-0.411764705882353
 10
2.068032605080726
 20
-1.047203007476916
 30
0.0
 10
2.074690408262744
 20
-1.043359539510452
 30
0.0
 10
2.084373057119785
 20
-1.032407913973492
 30
0.0
 10
2.084373057119785
 20
-1.020226939595292
 30
0.0
  0
SPLINE
  5
93
330
1F
100
AcDbEntity
  8
0
  6
Continuous
 62
     7
370
    25
100
AcDbSpline
210
0.0
220
0.0
230
1.0
 70
     8
 71
     3
 72
     8
 73
     4
 74
     0
 42
0.00000001
 43
0.00000001
 40
-0.2352941176470588
 40
-0.2352941176470588
 40
-0.2352941176470588
 40
-0.2352941176470588
 40
-0.1764705882352941
 40
-0.1764705882352941
 40
-0.1764705882352941
 40
-0.1764705882352941
 10
2.076671878598424
 20
-1.008581437724655
 30
0.0
 10
2.076671878598424
 20
-1.014763558938217
 30
0.0
 10
2.0737931683248
 20
-1.020571615795082
 30
0.0
 10
2.067820473046424
 20
-1.02401957938732
 30
0.0
  0
SPLINE
  5
94
330
1F
100
AcDbEntity
  8
0
  6
Continuous
 62
     7
370
    25
100
AcDbSpline
210
0.0
220
0.0
230
1.0
 70
     8
 71
     3
 72
     8
 73
     4
 74
     0
 42
0.00000001
 43
0.00000001
 40
-0.1764705882352941
 40
-0.1764705882352941
 40
-0.1764705882352941
 40
-0.1764705882352941
 40
-0.1176470588235294
 40
-0.1176470588235294
 40
-0.1176470588235294
 40
-0.1176470588235294
 10
2.067820473046424
 20
-1.02401957938732
 30
0.0
 10
2.063075000870437
 20
-1.026759082162561
 30
0.0
 10
2.059385474821009
 20
-1.02607828528627
 30
0.0
 10
2.059385474821009
 20
-1.019411683191006
 30
0.0
  0
SPLINE
  5
9A
330
1F
100
AcDbEntity
  8
0
  6
Continuous
 62
     7
370
    25
100
AcDbSpline
210
0.0
220
0.0
230
1.0
 70
     8
 71
     3
 72
     8
 73
     4
 74
     0
 42
0.00000001
 43
0.00000001
 40
-0.7272727272727274
 40
-0.7272727272727274
 40
-0.7272727272727274
 40
-0.7272727272727274
 40
-0.6363636363636365
 40
-0.6363636363636365
 40
-0.6363636363636365
 40
-0.6363636363636365
 10
1.999755945637759
 20
-1.043920457674512
 30
0.0
 10
1.999755945637759
 20
-1.040300460075147
 30
0.0
 10
2.00224339015915
 20
-1.036467488001787
 30
0.0
 10
2.005057675148321
 20
-1.034842835859232
 30
0.0
  0
SPLINE
  5
9B
330
1F
100
AcDbEntity
  8
0
  6
Continuous
 62
     7
370
    25
100
AcDbSpline
210
0.0
220
0.0
230
1.0
 70
     8
 71
     3
 72
     8
 73
     4
 74
     0
 42
0.00000001
 43
0.00000001
 40
-0.6363636363636365
 40
-0.6363636363636365
 40
-0.6363636363636365
 40
-0.6363636363636365
 40
-0.5454545454545455
 40
-0.5454545454545455
 40
-0.5454545454545455
 40
-0.5454545454545455
 10
2.005057675148321
 20
-1.034842835859232
 30
0.0
 10
2.005797780245942
 20
-1.034415582280723
 30
0.0
 10
2.007218279201931
 20
-1.034099986456642
 30
0.0
 10
2.00796309834475
 20
-1.034328687772696
 30
0.0
  0
SPLINE
  5
9D
330
1F
100
AcDbEntity
  8
0
  6
Continuous
 62
     7
370
    25
100
AcDbSpline
210
0.0
220
0.0
230
1.0
 70
     8
 71
     3
 72
     8
 73
     4
 74
     0
 42
0.00000001
 43
0.00000001
 40
-0.4545454545454546
 40
-0.4545454545454546
 40
-0.4545454545454546
 40
-0.4545454545454546
 40
-0.3636363636363636
 40
-0.3636363636363636
 40
-0.3636363636363636
 40
-0.3636363636363636
 10
2.010676817036111
 20
-1.024277325015048
 30
0.0
 10
2.009644441135613
 20
-1.024136601670813
 30
0.0
 10
2.008168944985485
 20
-1.024493019374964
 30
0.0
 10
2.006454603878248
 20
-1.025482687430495
 30
0.0
  0
SPLINE
  5
9E
330
1F
100
AcDbEntity
  8
0
  6
Continuous
 62
     7
370
    25
100
AcDbSpline
210
0.0
220
0.0
230
1.0
 70
     8
 71
     3
 72
     8
 73
     4
 74
     0
 42
0.00000001
 43
0.00000001
 40
-0.3636363636363636
 40
-0.3636363636363636
 40
-0.3636363636363636
 40
-0.3636363636363636
 40
-0.2727272727272727
 40
-0.2727272727272727
 40
-0.2727272727272727
 40
-0.2727272727272727
 10
2.006454603878248
 20
-1.025482687430495
 30
0.0
 10
2.003370046963889
 20
-1.027263364234384
 30
0.0
 10
2.000709754118216
 20
-1.030956600883254
 30
0.0
 10
1.99944639000247
 20
-1.034968419526966
 30
0.0
  0
SPLINE
  5
A3
330
1F
100
AcDbEntity
  8
0
  6
Continuous
 62
     7
370
    25
100
AcDbSpline
210
0.0
220
0.0
230
1.0
 70
     8
 71
     3
 72
     8
 73
     4
 74
     0
 42
0.00000001
 43
0.00000001
 40
-0.8888888888888891
 40
-0.8888888888888891
 40
-0.8888888888888891
 40
-0.8888888888888891
 40
-0.7777777777777779
 40
-0.7777777777777779
 40
-0.7777777777777779
 40
-0.7777777777777779
 10
2.117882061806033
 20
-0.9894292571576533
 30
0.0
 10
2.115210769521516
 20
-0.9949052735470295
 30
0.0
 10
2.111668950222018
 20
-0.9991763569207939
 30
0.0
 10
2.107522161787452
 20
-1.001570246928687
 30
0.0
  0
SPLINE
  5
A4
330
1F
100
AcDbEntity
  8
0
  6
Continuous
 62
     7
370
    25
100
AcDbSpline
210
0.0
220
0.0
230
1.0
 70
     8
 71
     3
 72
     8
 73
     4
 74
     0
 42
0.00000001
 43
0.00000001
 40
-0.7777777777777779
 40
-0.7777777777777779
 40
-0.7777777777777779
 40
-0.7777777777777779
 40
-0.6666666666666667
 40
-0.6666666666666667
 40
-0.6666666666666667
 40
-0.6666666666666667
 10
2.107522161787452
 20
-1.001570246928687
 30
0.0
 10
2.102127722721181
 20
-1.00468439031524
 30
0.0
 10
2.097036553896629
 20
-1.003274018793191
 30
0.0
 10
2.0966012903891
 20
-0.9974266384703604
 30
0.0
  0
SPLINE
  5
A7
330
1F
100
AcDbEntity
  8
0
  6
Continuous
 62
     7
370
    25
100
AcDbSpline
210
0.0
220
0.0
230
1.0
 70
     8
 71
     3
 72
     8
 73
     4
 74
     0
 42
0.00000001
 43
0.00000001
 40
-0.4444444444444444
 40
-0.4444444444444444
 40
-0.4444444444444444
 40
-0.4444444444444444
 40
-0.3333333333333333
 40
-0.3333333333333333
 40
-0.3333333333333333
 40
-0.3333333333333333
 10
2.126320202728192
 20
-0.9786898154556546
 30
0.0
 10
2.126320202728192
 20
-0.9631338057216856
 30
0.0
 10
2.115210769521516
 20
-0.9626990893910964
 30
0.0
 10
2.107751578654248
 20
-0.967005188620871
 30
0.0
  0
SPLINE
  5
A8
330
1F
100
AcDbEntity
  8
0
  6
Continuous
 62
     7
370
    25
100
AcDbSpline
210
0.0
220
0.0
230
1.0
 70
     8
 71
     3
 72
     8
 73
     4
 74
     0
 42
0.00000001
 43
0.00000001
 40
-0.3333333333333333
 40
-0.3333333333333333
 40
-0.3333333333333333
 40
-0.3333333333333333
 40
-0.2222222222222222
 40
-0.2222222222222222
 40
-0.2222222222222222
 40
-0.2222222222222222
 10
2.107751578654248
 20
-0.967005188620871
 30
0.0
 10
2.095267215595252
 20
-0.9742122580080441
 30
0.0
 10
2.088015442717092
 20
-0.9888612269844452
 30
0.0
 10
2.088015442717092
 20
-0.9994200069496659
 30
0.0
  0
SPLINE
  5
A9
330
1F
100
AcDbEntity
  8
0
  6
Continuous
 62
     7
370
    25
100
AcDbSpline
210
0.0
220
0.0
230
1.0
 70
     8
 71
     3
 72
     8
 73
     4
 74
     0
 42
0.00000001
 43
0.00000001
 40
-0.2222222222222222
 40
-0.2222222222222222
 40
-0.2222222222222222
 40
-0.2222222222222222
 40
-0.1111111111111111
 40
-0.1111111111111111
 40
-0.1111111111111111
 40
-0.1111111111111111
 10
2.088015442717092
 20
-0.9994200069496659
 30
0.0
 10
2.088015442717092
 20
-1.009949754352742
 30
0.0
 10
2.095267215595252
 20
-1.016240520863397
 30
0.0
 10
2.107751578654248
 20
-1.009033451476224
 30
0.0
  0
SPLINE
  5
AA
330
1F
100
AcDbEntity
  8
0
  6
Continuous
 62
     7
370
    25
100
AcDbSpline
210
0.0
220
0.0
230
1.0
 70
     8
 71
     3
 72
     8
 73
     4
 74
     0
 42
0.00000001
 43
0.00000001
 40
-0.1111111111111111
 40
-0.1111111111111111
 40
-0.1111111111111111
 40
-0.1111111111111111
 40
0.0
 40
0.0
 40
0.0
 40
0.0
 10
2.107751578654248
 20
-1.009033451476224
 30
0.0
 10
2.11417996496939
 20
-1.005249841642434
 30
0.0
 10
2.120111805189372
 20
-0.9982018365037689
 30
0.0
 10
2.124392158238121
 20
-0.9897083991639085
 30
0.0
  0
SPLINE
  5
AC
330
1F
100
AcDbEntity
  8
0
  6
Continuous
 62
     7
370
    25
100
AcDbSpline
210
0.0
220
0.0
230
1.0
 70
     8
 71
     3
 72
     8
 73
     4
 74
     0
 42
0.00000001
 43
0.00000001
 40
-0.875
 40
-0.875
 40
-0.875
 40
-0.875
 40
-0.75
 40
-0.75
 40
-0.75
 40
-0.75
 10
2.148873766351183
 20
-0.9432658549693547
 30
0.0
 10
2.136379975201877
 20
-0.9504783670772124
 30
0.0
 10
2.129129773672087
 20
-0.9651264289335078
 30
0.0
 10
2.129129773672087
 20
-0.9756852088987286
 30
0.0
  0
SPLINE
  5
AD
330
1F
100
AcDbEntity
  8
0
  6
Continuous
 62
     7
370
    25
100
AcDbSpline
210
0.0
220
0.0
230
1.0
 70
     8
 71
     3
 72
     8
 73
     4
 74
     0
 42
0.00000001
 43
0.00000001
 40
-0.75
 40
-0.75
 40
-0.75
 40
-0.75
 40
-0.625
 40
-0.625
 40
-0.625
 40
-0.625
 10
2.129129773672087
 20
-0.9756852088987286
 30
0.0
 10
2.129129773672087
 20
-0.9862149563018048
 30
0.0
 10
2.136379975201877
 20
-0.9925066299325654
 30
0.0
 10
2.148873766351183
 20
-0.9852941178247072
 30
0.0
  0
SPLINE
  5
AE
330
1F
100
AcDbEntity
  8
0
  6
Continuous
 62
     7
370
    25
100
AcDbSpline
210
0.0
220
0.0
230
1.0
 70
     8
 71
     3
 72
     8
 73
     4
 74
     0
 42
0.00000001
 43
0.00000001
 40
-0.625
 40
-0.625
 40
-0.625
 40
-0.625
 40
-0.5
 40
-0.5
 40
-0.5
 40
-0.5
 10
2.148873766351183
 20
-0.9852941178247072
 30
0.0
 10
2.155683990328246
 20
-0.9813626592061985
 30
0.0
 10
2.161728967633176
 20
-0.9738265547315377
 30
0.0
 10
2.164926661632561
 20
-0.9663809098442813
 30
0.0
  0
SPLINE
  5
B0
330
1F
100
AcDbEntity
  8
0
  6
Continuous
 62
     7
370
    25
100
AcDbSpline
210
0.0
220
0.0
230
1.0
 70
     8
 71
     3
 72
     8
 73
     4
 74
     0
 42
0.00000001
 43
0.00000001
 40
-0.375
 40
-0.375
 40
-0.375
 40
-0.375
 40
-0.25
 40
-0.25
 40
-0.25
 40
-0.25
 10
2.158182434288402
 20
-0.9658250292603983
 30
0.0
 10
2.156120825184149
 20
-0.970633353927623
 30
0.0
 10
2.153075551979891
 20
-0.9748028699261465
 30
0.0
 10
2.148873766351183
 20
-0.9772285091384166
 30
0.0
  0
SPLINE
  5
B1
330
1F
100
AcDbEntity
  8
0
  6
Continuous
 62
     7
370
    25
100
AcDbSpline
210
0.0
220
0.0
230
1.0
 70
     8
 71
     3
 72
     8
 73
     4
 74
     0
 42
0.00000001
 43
0.00000001
 40
-0.25
 40
-0.25
 40
-0.25
 40
-0.25
 40
-0.125
 40
-0.125
 40
-0.125
 40
-0.125
 10
2.148873766351183
 20
-0.9772285091384166
 30
0.0
 10
2.142126396310281
 20
-0.9811236829519243
 30
0.0
 10
2.137247359520113
 20
-0.9781555529192747
 30
0.0
 10
2.137247359520113
 20
-0.9709990263368637
 30
0.0
  0
SPLINE
  5
B2
330
1F
100
AcDbEntity
  8
0
  6
Continuous
 62
     7
370
    25
100
AcDbSpline
210
0.0
220
0.0
230
1.0
 70
     8
 71
     3
 72
     8
 73
     4
 74
     0
 42
0.00000001
 43
0.00000001
 40
-0.125
 40
-0.125
 40
-0.125
 40
-0.125
 40
0.0
 40
0.0
 40
0.0
 40
0.0
 10
2.137247359520113
 20
-0.9709990263368637
 30
0.0
 10
2.137247359520113
 20
-0.9638279834734026
 30
0.0
 10
2.142060399677377
 20
-0.9552719946549615
 30
0.0
 10
2.148798341627886
 20
-0.9513822635621866
 30
0.0
  0
SPLINE
  5
B6
330
1F
100
AcDbEntity
  8
0
  6
Continuous
 62
     7
370
    25
100
AcDbSpline
210
0.0
220
0.0
230
1.0
 70
     8
 71
     3
 72
     8
 73
     4
 74
     0
 42
0.00000001
 43
0.00000001
 40
-0.7999999999999999
 40
-0.7999999999999999
 40
-0.7999999999999999
 40
-0.7999999999999999
 40
-0.7333333333333333
 40
-0.7333333333333333
 40
-0.7333333333333333
 40
-0.7333333333333333
 10
2.172429850255125
 20
-0.9551142579554103
 30
0.0
 10
2.172429850255125
 20
-0.9634157562096027
 30
0.0
 10
2.176117804956102
 20
-0.964335164309003
 30
0.0
 10
2.184034258208588
 20
-0.9639639274312706
 30
0.0
  0
SPLINE
  5
B9
330
1F
100
AcDbEntity
  8
0
  6
Continuous
 62
     7
370
    25
100
AcDbSpline
210
0.0
220
0.0
230
1.0
 70
     8
 71
     3
 72
     8
 73
     4
 74
     0
 42
0.00000001
 43
0.00000001
 40
-0.6
 40
-0.6
 40
-0.6
 40
-0.6
 40
-0.5333333333333333
 40
-0.5333333333333333
 40
-0.5333333333333333
 40
-0.5333333333333333
 10
2.183302009852987
 20
-0.9550127568887461
 30
0.0
 10
2.180995270397897
 20
-0.9548456032075205
 30
0.0
 10
2.180116886640818
 20
-0.9533802836624877
 30
0.0
 10
2.180116886640818
 20
-0.9490943516676932
 30
0.0
  0
SPLINE
  5
C8
330
1F
100
AcDbEntity
  8
0
  6
Continuous
 62
     7
370
    25
100
AcDbSpline
210
0.0
220
0.0
230
1.0
 70
     8
 71
     3
 72
     8
 73
     4
 74
     0
 42
0.00000001
 43
0.00000001
 40
-0.4545454545454546
 40
-0.4545454545454546
 40
-0.4545454545454546
 40
-0.4545454545454546
 40
-0.3636363636363636
 40
-0.3636363636363636
 40
-0.3636363636363636
 40
-0.3636363636363636
 10
2.219543589411381
 20
-0.9083989353309082
 30
0.0
 10
2.217563690424075
 20
-0.9061577986559414
 30
0.0
 10
2.213484469970865
 20
-0.9059668897005119
 30
0.0
 10
2.208179597763559
 20
-0.9090293272399739
 30
0.0
  0
SPLINE
  5
C9
330
1F
100
AcDbEntity
  8
0
  6
Continuous
 62
     7
370
    25
100
AcDbSpline
210
0.0
220
0.0
230
1.0
 70
     8
 71
     3
 72
     8
 73
     4
 74
     0
 42
0.00000001
 43
0.00000001
 40
-0.3636363636363636
 40
-0.3636363636363636
 40
-0.3636363636363636
 40
-0.3636363636363636
 40
-0.2727272727272727
 40
-0.2727272727272727
 40
-0.2727272727272727
 40
-0.2727272727272727
 10
2.208179597763559
 20
-0.9090293272399739
 30
0.0
 10
2.196551619584036
 20
-0.9157420161594111
 30
0.0
 10
2.189238564118165
 20
-0.9311866530432525
 30
0.0
 10
2.189238564118165
 20
-0.9409851427858833
 30
0.0
  0
SPLINE
  5
CA
330
1F
100
AcDbEntity
  8
0
  6
Continuous
 62
     7
370
    25
100
AcDbSpline
210
0.0
220
0.0
230
1.0
 70
     8
 71
     3
 72
     8
 73
     4
 74
     0
 42
0.00000001
 43
0.00000001
 40
-0.2727272727272727
 40
-0.2727272727272727
 40
-0.2727272727272727
 40
-0.2727272727272727
 40
-0.1818181818181818
 40
-0.1818181818181818
 40
-0.1818181818181818
 40
-0.1818181818181818
 10
2.189238564118165
 20
-0.9409851427858833
 30
0.0
 10
2.189238564118165
 20
-0.9512753715508085
 30
0.0
 10
2.196033074611189
 20
-0.9580696286557521
 30
0.0
 10
2.207782046617677
 20
-0.9512870914867692
 30
0.0
  0
SPLINE
  5
CB
330
1F
100
AcDbEntity
  8
0
  6
Continuous
 62
     7
370
    25
100
AcDbSpline
210
0.0
220
0.0
230
1.0
 70
     8
 71
     3
 72
     8
 73
     4
 74
     0
 42
0.00000001
 43
0.00000001
 40
-0.1818181818181818
 40
-0.1818181818181818
 40
-0.1818181818181818
 40
-0.1818181818181818
 40
-0.0909090909090909
 40
-0.0909090909090909
 40
-0.0909090909090909
 40
-0.0909090909090909
 10
2.207782046617677
 20
-0.9512870914867692
 30
0.0
 10
2.212683082285453
 20
-0.9484577838192692
 30
0.0
 10
2.217106428038937
 20
-0.9436015955799728
 30
0.0
 10
2.219543589411381
 20
-0.9385710255976294
 30
0.0
  0
SPLINE
  5
CD
330
1F
100
AcDbEntity
  8
0
  6
Continuous
 62
     7
370
    25
100
AcDbSpline
210
0.0
220
0.0
230
1.0
 70
     8
 71
     3
 72
     8
 73
     4
 74
     0
 42
0.00000001
 43
0.00000001
 40
-0.25
 40
-0.25
 40
-0.25
 40
-0.25
 40
0.0
 40
0.0
 40
0.0
 40
0.0
 10
2.048639023095391
 20
-1.022151530143197
 30
0.0
 10
2.048639023095391
 20
-1.011592750177977
 30
0.0
 10
2.041373108081641
 20
-1.005324664029469
 30
0.0
 10
2.028898173113119
 20
-1.012526290695863
 30
0.0
  0
SPLINE
  5
CE
330
1F
100
AcDbEntity
  8
0
  6
Continuous
 62
     7
370
    25
100
AcDbSpline
210
0.0
220
0.0
230
1.0
 70
     8
 71
     3
 72
     8
 73
     4
 74
     0
 42
0.00000001
 43
0.00000001
 40
-1.0
 40
-1.0
 40
-1.0
 40
-1.0
 40
-0.75
 40
-0.75
 40
-0.75
 40
-0.75
 10
2.028898173113119
 20
-1.012526290695863
 30
0.0
 10
2.016387097131319
 20
-1.019748781125124
 30
0.0
 10
2.00914475234355
 20
-1.034392307380794
 30
0.0
 10
2.00914475234355
 20
-1.044951087346015
 30
0.0
  0
SPLINE
  5
CF
330
1F
100
AcDbEntity
  8
0
  6
Continuous
 62
     7
370
    25
100
AcDbSpline
210
0.0
220
0.0
230
1.0
 70
     8
 71
     3
 72
     8
 73
     4
 74
     0
 42
0.00000001
 43
0.00000001
 40
-0.75
 40
-0.75
 40
-0.75
 40
-0.75
 40
-0.5
 40
-0.5
 40
-0.5
 40
-0.5
 10
2.00914475234355
 20
-1.044951087346015
 30
0.0
 10
2.00914475234355
 20
-1.055480834749091
 30
0.0
 10
2.016387097131319
 20
-1.061777043980477
 30
0.0
 10
2.028898173113119
 20
-1.054554553551216
 30
0.0
  0
SPLINE
  5
D0
330
1F
100
AcDbEntity
  8
0
  6
Continuous
 62
     7
370
    25
100
AcDbSpline
210
0.0
220
0.0
230
1.0
 70
     8
 71
     3
 72
     8
 73
     4
 74
     0
 42
0.00000001
 43
0.00000001
 40
-0.5
 40
-0.5
 40
-0.5
 40
-0.5
 40
-0.25
 40
-0.25
 40
-0.25
 40
-0.25
 10
2.028898173113119
 20
-1.054554553551216
 30
0.0
 10
2.041373108081641
 20
-1.047352926884822
 30
0.0
 10
2.048639023095391
 20
-1.032681277546273
 30
0.0
 10
2.048639023095391
 20
-1.022151530143197
 30
0.0
  0
SPLINE
  5
D5
330
1F
100
AcDbEntity
  8
0
  6
Continuous
 62
     7
370
    25
100
AcDbSpline
210
0.0
220
0.0
230
1.0
 70
     8
 71
     3
 72
     8
 73
     4
 74
     0
 42
0.00000001
 43
0.00000001
 40
-0.6363636363636365
 40
-0.6363636363636365
 40
-0.6363636363636365
 40
-0.6363636363636365
 40
-0.5454545454545455
 40
-0.5454545454545455
 40
-0.5454545454545455
 40
-0.5454545454545455
 10
1.972202351397552
 20
-1.070015423850392
 30
0.0
 10
1.982549680628918
 20
-1.064042037832221
 30
0.0
 10
1.988912070311154
 20
-1.052773464363483
 30
0.0
 10
1.988912070311154
 20
-1.042661060042082
 30
0.0
  0
SPLINE
  5
D6
330
1F
100
AcDbEntity
  8
0
  6
Continuous
 62
     7
370
    25
100
AcDbSpline
210
0.0
220
0.0
230
1.0
 70
     8
 71
     3
 72
     8
 73
     4
 74
     0
 42
0.00000001
 43
0.00000001
 40
-0.5454545454545455
 40
-0.5454545454545455
 40
-0.5454545454545455
 40
-0.5454545454545455
 40
-0.4545454545454546
 40
-0.4545454545454546
 40
-0.4545454545454546
 40
-0.4545454545454546
 10
1.988912070311154
 20
-1.042661060042082
 30
0.0
 10
1.988912070311154
 20
-1.032519623158443
 30
0.0
 10
1.982549680628918
 20
-1.028622311947755
 30
0.0
 10
1.972202351397552
 20
-1.034595697965926
 30
0.0
  0
SPLINE
  5
E1
330
1F
100
AcDbEntity
  8
0
  6
Continuous
 62
     7
370
    25
100
AcDbSpline
210
0.0
220
0.0
230
1.0
 70
     8
 71
     3
 72
    38
 73
    34
 74
     0
 42
0.00000001
 43
0.00000001
 40
0.0
 40
0.0
 40
0.0
 40
0.0
 40
0.0284796156798065
 40
0.0554781137611822
 40
0.0809956585644548
 40
0.1050324447822585
 40
0.1378264490682395
 40
0.1683603289506281
 40
0.2468854015383416
 40
0.3213334819536232
 40
0.3613735721997501
 40
0.3976426960723753
 40
0.4422211651875533
 40
0.4669936735414545
 40
0.4899262100777559
 40
0.5131295933799105
 40
0.5346773201914702
 40
0.5731092203373895
 40
0.6055202260562573
 40
0.6328025961753262
 40
0.6535133747630127
 40
0.6750867457970644
 40
0.6906394369898282
 40
0.7070114291855741
 40
0.737567558336445
 40
0.7687264141186476
 40
0.8059310122932531
 40
0.8290776666875271
 40
0.8548520719224079
 40
0.8846841623251255
 40
0.9204117332455926
 40
0.9598508844054989
 40
1.0
 40
1.0
 40
1.0
 40
1.0
 10
4.43495003149012
 20
1.074317875455126
 30
0.0
 10
4.401837512565332
 20
1.055224849764997
 30
0.0
 10
4.337334532171139
 20
1.018031754774142
 30
0.0
 10
4.242892871532629
 20
0.9638878844626956
 30
0.0
 10
4.153415216400784
 20
0.9128400524171892
 30
0.0
 10
4.056881021388853
 20
0.858093129037134
 30
0.0
 10
3.954075398873786
 20
0.8002414221625276
 30
0.0
 10
3.786291814816523
 20
0.7068204155103538
 30
0.0
 10
3.56695320065951
 20
0.5873374646703945
 30
0.0
 10
3.330851519268656
 20
0.4650148134776766
 30
0.0
 10
3.141262689868397
 20
0.3729261642685824
 30
0.0
 10
2.985608742038713
 20
0.301647413491667
 30
0.0
 10
2.84522432352283
 20
0.2426253217426549
 30
0.0
 10
2.718110177914935
 20
0.1948354953768402
 30
0.0
 10
2.617638984611819
 20
0.1607148552984033
 30
0.0
 10
2.518729494187729
 20
0.1312435403939854
 30
0.0
 10
2.393302794119484
 20
0.0997720145971544
 30
0.0
 10
2.247465039627736
 20
0.0738163593152311
 30
0.0
 10
2.086419939366007
 20
0.0628422777380615
 30
0.0
 10
1.9539178136475
 20
0.06757490210749
 30
0.0
 10
1.841748262988182
 20
0.0810401166373778
 30
0.0
 10
1.751309193674952
 20
0.0982787461267161
 30
0.0
 10
1.670465463926158
 20
0.1183037170577715
 30
0.0
 10
1.578808931880666
 20
0.1450956392983662
 30
0.0
 10
1.469111542505696
 20
0.1837353279740329
 30
0.0
 10
1.336829372604534
 20
0.2383622848882351
 30
0.0
 10
1.219518978016332
 20
0.2927374531720178
 30
0.0
 10
1.111970950589273
 20
0.3458531884738003
 30
0.0
 10
1.015194400819268
 20
0.3954615875977397
 30
0.0
 10
0.9045224625039715
 20
0.453992373399324
 30
0.0
 10
0.7785177702559064
 20
0.5220422724545369
 30
0.0
 10
0.6410314739399269
 20
0.5973281791314219
 30
0.0
 10
0.5462230150212031
 20
0.6493378925460862
 30
0.0
 10
0.4983959177405158
 20
0.6755747246958025
 30
0.0
  0
SPLINE
  5
E8
330
1F
100
AcDbEntity
  8
0
  6
Continuous
 62
     7
370
    25
100
AcDbSpline
210
0.0
220
0.0
230
1.0
 70
     8
 71
     3
 72
     9
 73
     5
 74
     0
 42
0.00000001
 43
0.00000001
 40
0.0
 40
0.0
 40
0.0
 40
0.0
 40
0.809332696783142
 40
0.9999999999999999
 40
0.9999999999999999
 40
0.9999999999999999
 40
0.9999999999999999
 10
1.986149934447145
 20
-1.041066512948678
 30
0.0
 10
1.986057033097424
 20
-1.038305675924937
 30
0.0
 10
1.985942245507487
 20
-1.03489442486006
 30
0.0
 10
1.984048059942894
 20
-1.033486065492491
 30
0.0
 10
1.983686900689501
 20
-1.033217537409916
 30
0.0
  0
SPLINE
  5
E9
330
1F
100
AcDbEntity
  8
0
  6
Continuous
 62
     7
370
    25
100
AcDbSpline
210
0.0
220
0.0
230
1.0
 70
     8
 71
     3
 72
     8
 73
     4
 74
     0
 42
0.00000001
 43
0.00000001
 40
-0.6363636363636365
 40
-0.6363636363636365
 40
-0.6363636363636365
 40
-0.6363636363636365
 40
-0.5454545454545455
 40
-0.5454545454545455
 40
-0.5454545454545455
 40
-0.5454545454545455
 10
1.969440215533542
 20
-1.068420876756988
 30
0.0
 10
1.979787544764907
 20
-1.062447490738817
 30
0.0
 10
1.986149934447144
 20
-1.05117891727008
 30
0.0
 10
1.986149934447144
 20
-1.041066512948678
 30
0.0
  0
SPLINE
  5
EF
330
1F
100
AcDbEntity
  8
0
  6
Continuous
 62
     7
370
    25
100
AcDbSpline
210
0.0
220
0.0
230
1.0
 70
     8
 71
     3
 72
    10
 73
     6
 74
     0
 42
0.00000001
 43
0.00000001
 40
0.0
 40
0.0
 40
0.0
 40
0.0
 40
0.1196519245034075
 40
0.5151395335113441
 40
1.0
 40
1.0
 40
1.0
 40
1.0
 10
1.975450364279343
 20
-1.041437008976945
 30
0.0
 10
1.975277362301564
 20
-1.041260837984471
 30
0.0
 10
1.974532533846027
 20
-1.040502365914272
 30
0.0
 10
1.972080532822725
 20
-1.040842206451153
 30
0.0
 10
1.9699503344614
 20
-1.041878580040517
 30
0.0
 10
1.968777106507668
 20
-1.042449373112011
 30
0.0
  0
SPLINE
  5
F1
330
1F
100
AcDbEntity
  8
0
  6
Continuous
 62
     7
370
    25
100
AcDbSpline
210
0.0
220
0.0
230
1.0
 70
     8
 71
     3
 72
    10
 73
     6
 74
     0
 42
0.00000001
 43
0.00000001
 40
0.0
 40
0.0
 40
0.0
 40
0.0
 40
0.4380391637823129
 40
0.876080661144947
 40
1.0
 40
1.0
 40
1.0
 40
1.0
 10
0.4983959177274133
 20
0.6755747247784313
 30
0.0
 10
0.5007200089438881
 20
0.6766235590374783
 30
0.0
 10
0.5053682037580456
 20
0.6787212331430608
 30
0.0
 10
0.5104132511753862
 20
0.6787662379860371
 30
0.0
 10
0.5123408472373603
 20
0.6772139435409854
 30
0.0
 10
0.5127659060923282
 20
0.6768716433503995
 30
0.0
  0
SPLINE
  5
F7
330
1F
100
AcDbEntity
  8
0
  6
Continuous
 62
     7
370
    25
100
AcDbSpline
210
0.0
220
0.0
230
1.0
 70
     8
 71
     3
 72
     8
 73
     4
 74
     0
 42
0.00000001
 43
0.00000001
 40
0.2
 40
0.2
 40
0.2
 40
0.2
 40
0.4
 40
0.4
 40
0.4
 40
0.4
 10
1.971539242371679
 20
-1.061338254601121
 30
0.0
 10
1.97760936125104
 20
-1.057834049561168
 30
0.0
 10
1.980343507471638
 20
-1.05221106172343
 30
0.0
 10
1.980343507471638
 20
-1.047607586079567
 30
0.0
  0
SPLINE
  5
F9
330
1F
100
AcDbEntity
  8
0
  6
Continuous
 62
     7
370
    25
100
AcDbSpline
210
0.0
220
0.0
230
1.0
 70
     8
 71
     3
 72
     8
 73
     4
 74
     0
 42
0.00000001
 43
0.00000001
 40
0.4
 40
0.4
 40
0.4
 40
0.4
 40
0.6000000000000001
 40
0.6000000000000001
 40
0.6000000000000001
 40
0.6000000000000001
 10
1.980343507471638
 20
-1.047607586079567
 30
0.0
 10
1.980343507471638
 20
-1.042987779619414
 30
0.0
 10
1.97760936125104
 20
-1.040539715165462
 30
0.0
 10
1.971539242371679
 20
-1.044043920205415
 30
0.0
  0
SPLINE
  5
101
330
1F
100
AcDbEntity
  8
0
  6
Continuous
 62
     7
370
    25
100
AcDbSpline
210
0.0
220
0.0
230
1.0
 70
     8
 71
     3
 72
     8
 73
     4
 74
     0
 42
0.00000001
 43
0.00000001
 40
-0.6363636363636365
 40
-0.6363636363636365
 40
-0.6363636363636365
 40
-0.6363636363636365
 40
-0.5454545454545455
 40
-0.5454545454545455
 40
-0.5454545454545455
 40
-0.5454545454545455
 10
2.002295539284311
 20
-1.033248288765828
 30
0.0
 10
2.003035644381932
 20
-1.032821035187319
 30
0.0
 10
2.00445614333792
 20
-1.032505439363239
 30
0.0
 10
2.00520096248074
 20
-1.032734140679293
 30
0.0
  0
SPLINE
  5
102
330
1F
100
AcDbEntity
  8
0
  6
Continuous
 62
     7
370
    25
100
AcDbSpline
210
0.0
220
0.0
230
1.0
 70
     8
 71
     3
 72
     8
 73
     4
 74
     0
 42
0.00000001
 43
0.00000001
 40
-0.7272727272727274
 40
-0.7272727272727274
 40
-0.7272727272727274
 40
-0.7272727272727274
 40
-0.6363636363636365
 40
-0.6363636363636365
 40
-0.6363636363636365
 40
-0.6363636363636365
 10
1.996993809773749
 20
-1.042325910581108
 30
0.0
 10
1.996993809773749
 20
-1.038705912981744
 30
0.0
 10
1.99948125429514
 20
-1.034872940908384
 30
0.0
 10
2.002295539284311
 20
-1.033248288765828
 30
0.0
  0
SPLINE
  5
109
330
1F
100
AcDbEntity
  8
0
  6
Continuous
 62
     7
370
    25
100
AcDbSpline
210
0.0
220
0.0
230
1.0
 70
     8
 71
     3
 72
    10
 73
     6
 74
     0
 42
0.00000001
 43
0.00000001
 40
0.0
 40
0.0
 40
0.0
 40
0.0
 40
0.2523039941081639
 40
0.6026825275131459
 40
0.9999999999999999
 40
0.9999999999999999
 40
0.9999999999999999
 40
0.9999999999999999
 10
2.009915926717028
 20
-1.052728714539079
 30
0.0
 10
2.010809724462531
 20
-1.053771669217789
 30
0.0
 10
2.012944753225153
 20
-1.056262991497759
 30
0.0
 10
2.018875939864882
 20
-1.05637678274218
 30
0.0
 10
2.02361679743475
 20
-1.054145621250121
 30
0.0
 10
2.026136037249109
 20
-1.052960006457812
 30
0.0
  0
SPLINE
  5
10A
330
1F
100
AcDbEntity
  8
0
  6
Continuous
 62
     7
370
    25
100
AcDbSpline
210
0.0
220
0.0
230
1.0
 70
     8
 71
     3
 72
     9
 73
     5
 74
     0
 42
0.00000001
 43
0.00000001
 40
0.0
 40
0.0
 40
0.0
 40
0.0
 40
0.7135425550105041
 40
0.9999999999999999
 40
0.9999999999999999
 40
0.9999999999999999
 40
0.9999999999999999
 10
2.045876887231382
 20
-1.020556983049794
 30
0.0
 10
2.045679561751668
 20
-1.017604635699586
 30
0.0
 10
2.045403018357965
 20
-1.013467044564375
 30
0.0
 10
2.04302134171394
 20
-1.011683086775397
 30
0.0
 10
2.042339092707702
 20
-1.011172058785197
 30
0.0
  0
SPLINE
  5
10B
330
1F
100
AcDbEntity
  8
0
  6
Continuous
 62
     7
370
    25
100
AcDbSpline
210
0.0
220
0.0
230
1.0
 70
     8
 71
     3
 72
     8
 73
     4
 74
     0
 42
0.00000001
 43
0.00000001
 40
-0.5
 40
-0.5
 40
-0.5
 40
-0.5
 40
-0.25
 40
-0.25
 40
-0.25
 40
-0.25
 10
2.026136037249109
 20
-1.052960006457812
 30
0.0
 10
2.038610972217631
 20
-1.045758379791418
 30
0.0
 10
2.045876887231382
 20
-1.03108673045287
 30
0.0
 10
2.045876887231382
 20
-1.020556983049794
 30
0.0
  0
SPLINE
  5
10C
330
1F
100
AcDbEntity
  8
0
  6
Continuous
 62
     7
370
    25
100
AcDbSpline
210
0.0
220
0.0
230
1.0
 70
     8
 71
     3
 72
    10
 73
     6
 74
     0
 42
0.00000001
 43
0.00000001
 40
0.0
 40
0.0
 40
0.0
 40
0.0
 40
0.1206191238398915
 40
0.5443639598707065
 40
1.0
 40
1.0
 40
1.0
 40
1.0
 10
2.03436155123042
 20
-1.018245318608195
 30
0.0
 10
2.034143263591051
 20
-1.018024065887187
 30
0.0
 10
2.033158113641568
 20
-1.017025534282033
 30
0.0
 10
2.030189755547215
 20
-1.017159429492102
 30
0.0
 10
2.02751955541327
 20
-1.018374857408757
 30
0.0
 10
2.026136037249109
 20
-1.019004610429344
 30
0.0
  0
SPLINE
  5
10D
330
1F
100
AcDbEntity
  8
0
  6
Continuous
 62
     7
370
    25
100
AcDbSpline
210
0.0
220
0.0
230
1.0
 70
     8
 71
     3
 72
     8
 73
     4
 74
     0
 42
0.00000001
 43
0.00000001
 40
0.5
 40
0.5
 40
0.5
 40
0.5
 40
0.75
 40
0.75
 40
0.75
 40
0.75
 10
2.026136037249109
 20
-1.019004610429344
 30
0.0
 10
2.019401237995342
 20
-1.022892527281906
 30
0.0
 10
2.014517487159977
 20
-1.031489336505929
 30
0.0
 10
2.014517487159977
 20
-1.03866037936939
 30
0.0
  0
SPLINE
  5
10E
330
1F
100
AcDbEntity
  8
0
  6
Continuous
 62
     7
370
    25
100
AcDbSpline
210
0.0
220
0.0
230
1.0
 70
     8
 71
     3
 72
     9
 73
     5
 74
     0
 42
0.00000001
 43
0.00000001
 40
0.0
 40
0.0
 40
0.0
 40
0.0
 40
0.5734178730193042
 40
1.0
 40
1.0
 40
1.0
 40
1.0
 10
2.014517487159977
 20
-1.03866037936939
 30
0.0
 10
2.014688030030891
 20
-1.040530282462609
 30
0.0
 10
2.014985444672007
 20
-1.043791260505329
 30
0.0
 10
2.017017779391768
 20
-1.04509845836966
 30
0.0
 10
2.017884737059261
 20
-1.04565608561501
 30
0.0
  0
SPLINE
  5
110
330
1F
100
AcDbEntity
  8
0
  6
Continuous
 62
     7
370
    25
100
AcDbSpline
210
0.0
220
0.0
230
1.0
 70
     8
 71
     3
 72
     8
 73
     4
 74
     0
 42
0.00000001
 43
0.00000001
 40
0.25
 40
0.25
 40
0.25
 40
0.25
 40
0.5
 40
0.5
 40
0.5
 40
0.5
 10
2.040491581627738
 20
-1.02685494798741
 30
0.0
 10
2.040491581627738
 20
-1.019683905123949
 30
0.0
 10
2.035617258882765
 20
-1.016720311871482
 30
0.0
 10
2.028898173113119
 20
-1.020599157522748
 30
0.0
  0
SPLINE
  5
111
330
1F
100
AcDbEntity
  8
0
  6
Continuous
 62
     7
370
    25
100
AcDbSpline
210
0.0
220
0.0
230
1.0
 70
     8
 71
     3
 72
     8
 73
     4
 74
     0
 42
0.00000001
 43
0.00000001
 40
0.0
 40
0.0
 40
0.0
 40
0.0
 40
0.25
 40
0.25
 40
0.25
 40
0.25
 10
2.028898173113119
 20
-1.046488944864925
 30
0.0
 10
2.035617258882765
 20
-1.042610099213659
 30
0.0
 10
2.040491581627738
 20
-1.034011474569821
 30
0.0
 10
2.040491581627738
 20
-1.02685494798741
 30
0.0
  0
SPLINE
  5
112
330
1F
100
AcDbEntity
  8
0
  6
Continuous
 62
     7
370
    25
100
AcDbSpline
210
0.0
220
0.0
230
1.0
 70
     8
 71
     3
 72
     8
 73
     4
 74
     0
 42
0.00000001
 43
0.00000001
 40
0.75
 40
0.75
 40
0.75
 40
0.75
 40
1.0
 40
1.0
 40
1.0
 40
1.0
 10
2.017279623023987
 20
-1.040254926462794
 30
0.0
 10
2.017279623023987
 20
-1.047411453045205
 30
0.0
 10
2.022163373859352
 20
-1.050376861717487
 30
0.0
 10
2.028898173113119
 20
-1.046488944864925
 30
0.0
  0
SPLINE
  5
113
330
1F
100
AcDbEntity
  8
0
  6
Continuous
 62
     7
370
    25
100
AcDbSpline
210
0.0
220
0.0
230
1.0
 70
     8
 71
     3
 72
     8
 73
     4
 74
     0
 42
0.00000001
 43
0.00000001
 40
0.5
 40
0.5
 40
0.5
 40
0.5
 40
0.75
 40
0.75
 40
0.75
 40
0.75
 10
2.028898173113119
 20
-1.020599157522748
 30
0.0
 10
2.022163373859352
 20
-1.02448707437531
 30
0.0
 10
2.017279623023987
 20
-1.033083883599333
 30
0.0
 10
2.017279623023987
 20
-1.040254926462794
 30
0.0
  0
SPLINE
  5
119
330
1F
100
AcDbEntity
  8
0
  6
Continuous
 62
     7
370
    25
100
AcDbSpline
210
0.0
220
0.0
230
1.0
 70
     8
 71
     3
 72
    10
 73
     6
 74
     0
 42
0.00000001
 43
0.00000001
 40
0.0
 40
0.0
 40
0.0
 40
0.0
 40
0.0461134477821616
 40
0.4790896849611645
 40
1.0
 40
1.0
 40
1.0
 40
1.0
 10
2.058791748820952
 20
-1.023403646477986
 30
0.0
 10
2.058707104858051
 20
-1.023391334537477
 30
0.0
 10
2.057827707383551
 20
-1.023263421228373
 30
0.0
 10
2.056906840557562
 20
-1.021267150880712
 30
0.0
 10
2.056723474040916
 20
-1.019035709534702
 30
0.0
 10
2.056623338956999
 20
-1.017817136097602
 30
0.0
  0
SPLINE
  5
11B
330
1F
100
AcDbEntity
  8
0
  6
Continuous
 62
     7
370
    25
100
AcDbSpline
210
0.0
220
0.0
230
1.0
 70
     8
 71
     3
 72
     8
 73
     4
 74
     0
 42
0.00000001
 43
0.00000001
 40
-0.4705882352941177
 40
-0.4705882352941177
 40
-0.4705882352941177
 40
-0.4705882352941177
 40
-0.411764705882353
 40
-0.411764705882353
 40
-0.411764705882353
 40
-0.411764705882353
 10
2.065270469216716
 20
-1.045608460383512
 30
0.0
 10
2.071928272398734
 20
-1.041764992417049
 30
0.0
 10
2.081610921255774
 20
-1.030813366880089
 30
0.0
 10
2.081610921255774
 20
-1.018632392501888
 30
0.0
  0
SPLINE
  5
11C
330
1F
100
AcDbEntity
  8
0
  6
Continuous
 62
     7
370
    25
100
AcDbSpline
210
0.0
220
0.0
230
1.0
 70
     8
 71
     3
 72
     8
 73
     4
 74
     0
 42
0.00000001
 43
0.00000001
 40
-0.4964705882352944
 40
-0.4964705882352944
 40
-0.4964705882352944
 40
-0.4964705882352944
 40
-0.4705882352941177
 40
-0.4705882352941177
 40
-0.4705882352941177
 40
-0.4705882352941177
 10
2.056834394630296
 20
-1.048708809861115
 30
0.0
 10
2.059030838299991
 20
-1.048553954148785
 30
0.0
 10
2.061722930209007
 20
-1.047656411060806
 30
0.0
 10
2.065270469216716
 20
-1.045608460383512
 30
0.0
  0
SPLINE
  5
11E
330
1F
100
AcDbEntity
  8
0
  6
Continuous
 62
     7
370
    25
100
AcDbSpline
210
0.0
220
0.0
230
1.0
 70
     8
 71
     3
 72
     8
 73
     4
 74
     0
 42
0.00000001
 43
0.00000001
 40
-0.8823529411764707
 40
-0.8823529411764707
 40
-0.8823529411764707
 40
-0.8823529411764707
 40
-0.823529411764706
 40
-0.823529411764706
 40
-0.823529411764706
 40
-0.823529411764706
 10
2.063413135404826
 20
-1.03144039575031
 30
0.0
 10
2.068369168266744
 20
-1.028579338878432
 30
0.0
 10
2.07118659595266
 20
-1.025301645520492
 30
0.0
 10
2.074205156234114
 20
-1.019770318394674
 30
0.0
  0
SPLINE
  5
11F
330
1F
100
AcDbEntity
  8
0
  6
Continuous
 62
     7
370
    25
100
AcDbSpline
210
0.0
220
0.0
230
1.0
 70
     8
 71
     3
 72
    10
 73
     6
 74
     0
 42
0.00000001
 43
0.00000001
 40
0.0
 40
0.0
 40
0.0
 40
0.0
 40
0.1117295065164756
 40
0.5471982188675402
 40
1.0
 40
1.0
 40
1.0
 40
1.0
 10
2.053335164662359
 20
-1.032483545704831
 30
0.0
 10
2.053602093676994
 20
-1.03270024620135
 30
0.0
 10
2.054909385599481
 20
-1.033761542625366
 30
0.0
 10
2.058435248196542
 20
-1.03374332211041
 30
0.0
 10
2.061732393630612
 20
-1.032217959478535
 30
0.0
 10
2.063413135404826
 20
-1.03144039575031
 30
0.0
  0
SPLINE
  5
123
330
1F
100
AcDbEntity
  8
0
  6
Continuous
 62
     7
370
    25
100
AcDbSpline
210
0.0
220
0.0
230
1.0
 70
     8
 71
     3
 72
    10
 73
     6
 74
     0
 42
0.00000001
 43
0.00000001
 40
0.0
 40
0.0
 40
0.0
 40
0.0
 40
0.2524150674638739
 40
0.6029257245778652
 40
1.0
 40
1.0
 40
1.0
 40
1.0
 10
2.088789455577777
 20
-1.007198630615647
 30
0.0
 10
2.08968271903116
 20
-1.008240808617318
 30
0.0
 10
2.091816393222171
 20
-1.010730184283794
 30
0.0
 10
2.097739280038038
 20
-1.010848877600987
 30
0.0
 10
2.102474412026926
 20
-1.008621800248592
 30
0.0
 10
2.104989442790238
 20
-1.00743890438282
 30
0.0
  0
SPLINE
  5
124
330
1F
100
AcDbEntity
  8
0
  6
Continuous
 62
     7
370
    25
100
AcDbSpline
210
0.0
220
0.0
230
1.0
 70
     8
 71
     3
 72
     9
 73
     5
 74
     0
 42
0.00000001
 43
0.00000001
 40
0.0
 40
0.0
 40
0.0
 40
0.0
 40
0.5768090706314727
 40
1.0
 40
1.0
 40
1.0
 40
1.0
 10
2.123558066864182
 20
-0.9770952683622506
 30
0.0
 10
2.123411335085571
 20
-0.9744948099635963
 30
0.0
 10
2.123156949733325
 20
-0.9699864578397159
 30
0.0
 10
2.121023715290959
 20
-0.9672910166434311
 30
0.0
 10
2.120120949824733
 20
-0.966150330378517
 30
0.0
  0
SPLINE
  5
127
330
1F
100
AcDbEntity
  8
0
  6
Continuous
 62
     7
370
    25
100
AcDbSpline
210
0.0
220
0.0
230
1.0
 70
     8
 71
     3
 72
     9
 73
     5
 74
     0
 42
0.00000001
 43
0.00000001
 40
0.0
 40
0.0
 40
0.0
 40
0.0
 40
0.476587158662743
 40
1.0
 40
1.0
 40
1.0
 40
1.0
 10
2.096595144725225
 20
-1.000819647859868
 30
0.0
 10
2.09590237970733
 20
-1.000320081042006
 30
0.0
 10
2.094448784063168
 20
-0.9992718639241491
 30
0.0
 10
2.094048610504474
 20
-0.9970139253970112
 30
0.0
 10
2.093839154525089
 20
-0.9958320913769569
 30
0.0
  0
SPLINE
  5
128
330
1F
100
AcDbEntity
  8
0
  6
Continuous
 62
     7
370
    25
100
AcDbSpline
210
0.0
220
0.0
230
1.0
 70
     8
 71
     3
 72
     8
 73
     4
 74
     0
 42
0.00000001
 43
0.00000001
 40
-0.1111111111111111
 40
-0.1111111111111111
 40
-0.1111111111111111
 40
-0.1111111111111111
 40
0.0
 40
0.0
 40
0.0
 40
0.0
 10
2.104989442790238
 20
-1.00743890438282
 30
0.0
 10
2.11141782910538
 20
-1.00365529454903
 30
0.0
 10
2.117349669325362
 20
-0.9966072894103649
 30
0.0
 10
2.121630022374111
 20
-0.9881138520705045
 30
0.0
  0
SPLINE
  5
129
330
1F
100
AcDbEntity
  8
0
  6
Continuous
 62
     7
370
    25
100
AcDbSpline
210
0.0
220
0.0
230
1.0
 70
     8
 71
     3
 72
    10
 73
     6
 74
     0
 42
0.00000001
 43
0.00000001
 40
0.0
 40
0.0
 40
0.0
 40
0.0
 40
0.2744062033659092
 40
0.6301250518690265
 40
1.0
 40
1.0
 40
1.0
 40
1.0
 10
2.11148118260605
 20
-0.9729024259114037
 30
0.0
 10
2.1109467700517
 20
-0.9725621883953737
 30
0.0
 10
2.109719586648414
 20
-0.9717808934399154
 30
0.0
 10
2.107023018711094
 20
-0.972099822997259
 30
0.0
 10
2.104993298125814
 20
-0.9730907718417732
 30
0.0
 10
2.10395863823803
 20
-0.973595912809302
 30
0.0
  0
SPLINE
  5
12A
330
1F
100
AcDbEntity
  8
0
  6
Continuous
 62
     7
370
    25
100
AcDbSpline
210
0.0
220
0.0
230
1.0
 70
     8
 71
     3
 72
     8
 73
     4
 74
     0
 42
0.00000001
 43
0.00000001
 40
0.3333333333333333
 40
0.3333333333333333
 40
0.3333333333333333
 40
0.3333333333333333
 40
0.6666666666666666
 40
0.6666666666666666
 40
0.6666666666666666
 40
0.6666666666666666
 10
2.10395863823803
 20
-0.973595912809302
 30
0.0
 10
2.099082744144686
 20
-0.9764107065548201
 30
0.0
 10
2.095077377066402
 20
-0.9820834748261795
 30
0.0
 10
2.093839154525089
 20
-0.9887463316649143
 30
0.0
  0
SPLINE
  5
12F
330
1F
100
AcDbEntity
  8
0
  6
Continuous
 62
     7
370
    25
100
AcDbSpline
210
0.0
220
0.0
230
1.0
 70
     8
 71
     3
 72
     8
 73
     4
 74
     0
 42
0.00000001
 43
0.00000001
 40
0.3333333333333333
 40
0.3333333333333333
 40
0.3333333333333333
 40
0.3333333333333333
 40
0.6666666666666666
 40
0.6666666666666666
 40
0.6666666666666666
 40
0.6666666666666666
 10
2.106720774102041
 20
-0.975190459902706
 30
0.0
 10
2.101844880008696
 20
-0.9780052536482241
 30
0.0
 10
2.097839512930412
 20
-0.983678021919583
 30
0.0
 10
2.0966012903891
 20
-0.9903408787583183
 30
0.0
  0
SPLINE
  5
131
330
1F
100
AcDbEntity
  8
0
  6
Continuous
 62
     7
370
    25
100
AcDbSpline
210
0.0
220
0.0
230
1.0
 70
     8
 71
     3
 72
     8
 73
     4
 74
     0
 42
0.00000001
 43
0.00000001
 40
0.0
 40
0.0
 40
0.0
 40
0.0
 40
0.3333333333333333
 40
0.3333333333333333
 40
0.3333333333333333
 40
0.3333333333333333
 10
2.117286520761437
 20
-0.9783995494427093
 30
0.0
 10
2.115668031906734
 20
-0.9732370451086256
 30
0.0
 10
2.11159981089229
 20
-0.9723738519168814
 30
0.0
 10
2.106720774102041
 20
-0.975190459902706
 30
0.0
  0
SPLINE
  5
137
330
1F
100
AcDbEntity
  8
0
  6
Continuous
 62
     7
370
    25
100
AcDbSpline
210
0.0
220
0.0
230
1.0
 70
     8
 71
     3
 72
    10
 73
     6
 74
     0
 42
0.00000001
 43
0.00000001
 40
0.0
 40
0.0
 40
0.0
 40
0.0
 40
0.1071128853643827
 40
0.5456052019254826
 40
1.0
 40
1.0
 40
1.0
 40
1.0
 10
2.137801736523048
 20
-0.9764111870440806
 30
0.0
 10
2.137548064738972
 20
-0.9763508843842755
 30
0.0
 10
2.136255926594224
 20
-0.9760437183064705
 30
0.0
 10
2.134923562122499
 20
-0.9735944835955184
 30
0.0
 10
2.13463306110352
 20
-0.9708176327665075
 30
0.0
 10
2.134485223656103
 20
-0.9694044792434596
 30
0.0
  0
SPLINE
  5
138
330
1F
100
AcDbEntity
  8
0
  6
Continuous
 62
     7
370
    25
100
AcDbSpline
210
0.0
220
0.0
230
1.0
 70
     8
 71
     3
 72
     8
 73
     4
 74
     0
 42
0.00000001
 43
0.00000001
 40
-0.625
 40
-0.625
 40
-0.625
 40
-0.625
 40
-0.5
 40
-0.5
 40
-0.5
 40
-0.5
 10
2.146111630487173
 20
-0.9836995707313037
 30
0.0
 10
2.152921854464236
 20
-0.979768112112795
 30
0.0
 10
2.158966831769165
 20
-0.9722320076381342
 30
0.0
 10
2.162164525768551
 20
-0.9647863627508773
 30
0.0
  0
SPLINE
  5
139
330
1F
100
AcDbEntity
  8
0
  6
Continuous
 62
     7
370
    25
100
AcDbSpline
210
0.0
220
0.0
230
1.0
 70
     8
 71
     3
 72
    10
 73
     6
 74
     0
 42
0.00000001
 43
0.00000001
 40
0.0
 40
0.0
 40
0.0
 40
0.0
 40
0.2524170234618719
 40
0.6028686479553244
 40
1.0
 40
1.0
 40
1.0
 40
1.0
 10
2.129902777649118
 20
-0.9834625619188103
 30
0.0
 10
2.130796557878454
 20
-0.984505164694347
 30
0.0
 10
2.13293124780958
 20
-0.9869952999357092
 30
0.0
 10
2.138857669448607
 20
-0.9871120673590605
 30
0.0
 10
2.143595041602947
 20
-0.9848834550994732
 30
0.0
 10
2.146111630487173
 20
-0.9836995707313037
 30
0.0
  0
SPLINE
  5
13B
330
1F
100
AcDbEntity
  8
0
  6
Continuous
 62
     7
370
    25
100
AcDbSpline
210
0.0
220
0.0
230
1.0
 70
     8
 71
     3
 72
     8
 73
     4
 74
     0
 42
0.00000001
 43
0.00000001
 40
-0.125
 40
-0.125
 40
-0.125
 40
-0.125
 40
0.0
 40
0.0
 40
0.0
 40
0.0
 10
2.134485223656103
 20
-0.9694044792434596
 30
0.0
 10
2.134485223656103
 20
-0.9622334363799986
 30
0.0
 10
2.139298263813366
 20
-0.9536774475615575
 30
0.0
 10
2.146036205763876
 20
-0.949787716468783
 30
0.0
  0
SPLINE
  5
140
330
1F
100
AcDbEntity
  8
0
  6
Continuous
 62
     7
370
    25
100
AcDbSpline
210
0.0
220
0.0
230
1.0
 70
     8
 71
     3
 72
    11
 73
     7
 74
     0
 42
0.00000001
 43
0.00000001
 40
0.0
 40
0.0
 40
0.0
 40
0.0
 40
0.0272222281728039
 40
0.3460859380188387
 40
0.6370814008020793
 40
1.0
 40
1.0
 40
1.0
 40
1.0
 10
2.179056448473482
 20
-0.9529777571136578
 30
0.0
 10
2.179012505455692
 20
-0.9529657411520457
 30
0.0
 10
2.178453842129702
 20
-0.9528129779278361
 30
0.0
 10
2.177862725771405
 20
-0.9517409668157428
 30
0.0
 10
2.177397147509789
 20
-0.9498394000766271
 30
0.0
 10
2.177369882630387
 20
-0.94833483157019
 30
0.0
 10
2.177354750776808
 20
-0.9474998045742891
 30
0.0
  0
SPLINE
  5
142
330
1F
100
AcDbEntity
  8
0
  6
Continuous
 62
     7
370
    25
100
AcDbSpline
210
0.0
220
0.0
230
1.0
 70
     8
 71
     3
 72
     9
 73
     5
 74
     0
 42
0.00000001
 43
0.00000001
 40
0.0
 40
0.0
 40
0.0
 40
0.0
 40
0.0711569066614946
 40
0.9999999999999999
 40
0.9999999999999999
 40
0.9999999999999999
 40
0.9999999999999999
 10
2.172768903317088
 20
-0.9612323565662703
 30
0.0
 10
2.172921549811767
 20
-0.9613554203217025
 30
0.0
 10
2.175066759628222
 20
-0.9630848906037294
 30
0.0
 10
2.178283901933777
 20
-0.9627139375343308
 30
0.0
 10
2.181272122344578
 20
-0.9623693803378665
 30
0.0
  0
SPLINE
  5
14F
330
1F
100
AcDbEntity
  8
0
  6
Continuous
 62
     7
370
    25
100
AcDbSpline
210
0.0
220
0.0
230
1.0
 70
     8
 71
     3
 72
     8
 73
     4
 74
     0
 42
0.00000001
 43
0.00000001
 40
-0.1818181818181818
 40
-0.1818181818181818
 40
-0.1818181818181818
 40
-0.1818181818181818
 40
-0.0909090909090909
 40
-0.0909090909090909
 40
-0.0909090909090909
 40
-0.0909090909090909
 10
2.205019910753667
 20
-0.9496925443933657
 30
0.0
 10
2.209920946421443
 20
-0.9468632367258651
 30
0.0
 10
2.214344292174926
 20
-0.9420070484865688
 30
0.0
 10
2.21678145354737
 20
-0.9369764785042259
 30
0.0
  0
SPLINE
  5
150
330
1F
100
AcDbEntity
  8
0
  6
Continuous
 62
     7
370
    25
100
AcDbSpline
210
0.0
220
0.0
230
1.0
 70
     8
 71
     3
 72
    10
 73
     6
 74
     0
 42
0.00000001
 43
0.00000001
 40
0.0
 40
0.0
 40
0.0
 40
0.0
 40
0.2343438909219932
 40
0.5963846305220747
 40
1.0
 40
1.0
 40
1.0
 40
1.0
 10
2.19012768548605
 20
-0.9491384932839576
 30
0.0
 10
2.190863932303075
 20
-0.9500762147208252
 30
0.0
 10
2.192737615820988
 20
-0.9524626334597919
 30
0.0
 10
2.198150511074491
 20
-0.9528495398225979
 30
0.0
 10
2.202648694709788
 20
-0.9507822929248045
 30
0.0
 10
2.205019910753667
 20
-0.9496925443933657
 30
0.0
  0
SPLINE
  5
154
330
1F
100
AcDbEntity
  8
0
  6
Continuous
 62
     7
370
    25
100
AcDbSpline
210
0.0
220
0.0
230
1.0
 70
     8
 71
     3
 72
    10
 73
     6
 74
     0
 42
0.00000001
 43
0.00000001
 40
0.0
 40
0.0
 40
0.0
 40
0.0
 40
0.1242293801615621
 40
0.5571435388538012
 40
1.0
 40
1.0
 40
1.0
 40
1.0
 10
2.213800613893066
 20
-0.9146383504719755
 30
0.0
 10
2.21358464796228
 20
-0.9144230088940138
 30
0.0
 10
2.212616084625703
 20
-0.913457245653048
 30
0.0
 10
2.209822692801922
 20
-0.9134871536612388
 30
0.0
 10
2.207283081896496
 20
-0.9146061583555407
 30
0.0
 10
2.205998860808476
 20
-0.915172012527511
 30
0.0
  0
SPLINE
  5
155
330
1F
100
AcDbEntity
  8
0
  6
Continuous
 62
     7
370
    25
100
AcDbSpline
210
0.0
220
0.0
230
1.0
 70
     8
 71
     3
 72
     8
 73
     4
 74
     0
 42
0.00000001
 43
0.00000001
 40
0.5
 40
0.5
 40
0.5
 40
0.5
 40
0.75
 40
0.75
 40
0.75
 40
0.75
 10
2.205998860808476
 20
-0.915172012527511
 30
0.0
 10
2.199788891921285
 20
-0.9187569512585196
 30
0.0
 10
2.194603442192573
 20
-0.9275279275464211
 30
0.0
 10
2.194603442192573
 20
-0.9346989704098823
 30
0.0
  0
SPLINE
  5
156
330
1F
100
AcDbEntity
  8
0
  6
Continuous
 62
     7
370
    25
100
AcDbSpline
210
0.0
220
0.0
230
1.0
 70
     8
 71
     3
 72
     9
 73
     5
 74
     0
 42
0.00000001
 43
0.00000001
 40
0.0
 40
0.0
 40
0.0
 40
0.0
 40
0.5744846715226126
 40
1.0
 40
1.0
 40
1.0
 40
1.0
 10
2.194603442192573
 20
-0.9346989704098823
 30
0.0
 10
2.194790450696625
 20
-0.936560861383104
 30
0.0
 10
2.195115974619754
 20
-0.9398018372794438
 30
0.0
 10
2.197160272540258
 20
-0.9410883131734232
 30
0.0
 10
2.198030152641405
 20
-0.9416357283860277
 30
0.0
  0
SPLINE
  5
158
330
1F
100
AcDbEntity
  8
0
  6
Continuous
 62
     7
370
    25
100
AcDbSpline
210
0.0
220
0.0
230
1.0
 70
     8
 71
     3
 72
     8
 73
     4
 74
     0
 42
0.00000001
 43
0.00000001
 40
0.25
 40
0.25
 40
0.25
 40
0.25
 40
0.5
 40
0.5
 40
0.5
 40
0.5
 10
2.2200008517966
 20
-0.9232264521134821
 30
0.0
 10
2.2200008517966
 20
-0.9160554092500209
 30
0.0
 10
2.214827972855105
 20
-0.9132641688211733
 30
0.0
 10
2.208760996672486
 20
-0.9167665596209148
 30
0.0
  0
SPLINE
  5
159
330
1F
100
AcDbEntity
  8
0
  6
Continuous
 62
     7
370
    25
100
AcDbSpline
210
0.0
220
0.0
230
1.0
 70
     8
 71
     3
 72
     8
 73
     4
 74
     0
 42
0.00000001
 43
0.00000001
 40
0.0
 40
0.0
 40
0.0
 40
0.0
 40
0.25
 40
0.25
 40
0.25
 40
0.25
 10
2.208760996672486
 20
-0.9426563469630924
 30
0.0
 10
2.214827972855105
 20
-0.9391539561633507
 30
0.0
 10
2.2200008517966
 20
-0.9303829786958933
 30
0.0
 10
2.2200008517966
 20
-0.9232264521134821
 30
0.0
  0
SPLINE
  5
15A
330
1F
100
AcDbEntity
  8
0
  6
Continuous
 62
     7
370
    25
100
AcDbSpline
210
0.0
220
0.0
230
1.0
 70
     8
 71
     3
 72
     8
 73
     4
 74
     0
 42
0.00000001
 43
0.00000001
 40
0.75
 40
0.75
 40
0.75
 40
0.75
 40
1.0
 40
1.0
 40
1.0
 40
1.0
 10
2.197365578056584
 20
-0.9362935175032857
 30
0.0
 10
2.197365578056584
 20
-0.9434500440856972
 30
0.0
 10
2.202551027785296
 20
-0.9462412856941008
 30
0.0
 10
2.208760996672486
 20
-0.9426563469630924
 30
0.0
  0
SPLINE
  5
15B
330
1F
100
AcDbEntity
  8
0
  6
Continuous
 62
     7
370
    25
100
AcDbSpline
210
0.0
220
0.0
230
1.0
 70
     8
 71
     3
 72
     8
 73
     4
 74
     0
 42
0.00000001
 43
0.00000001
 40
0.5
 40
0.5
 40
0.5
 40
0.5
 40
0.75
 40
0.75
 40
0.75
 40
0.75
 10
2.208760996672486
 20
-0.9167665596209148
 30
0.0
 10
2.202551027785296
 20
-0.9203514983519234
 30
0.0
 10
2.197365578056584
 20
-0.9291224746398247
 30
0.0
 10
2.197365578056584
 20
-0.9362935175032857
 30
0.0
  0
LINE
  5
16C
330
1F
100
AcDbEntity
  8
0
  6
Continuous
 62
     7
370
    25
100
AcDbLine
 10
0.0652432803
 20
-0.2748817658
 30
0.0
 11
1.812131096
 21
-1.2833386362
 31
0.0
  0
LINE
  5
16D
330
1F
100
AcDbEntity
  8
0
  6
Continuous
 62
     7
370
    25
100
AcDbLine
 10
1.9786825456
 20
-1.0430442063
 30
0.0
 11
1.9752298757
 21
-1.0410510224
 31
0.0
  0
LINE
  5
16E
330
1F
100
AcDbEntity
  8
0
  6
Continuous
 62
     7
370
    25
100
AcDbLine
 10
2.0173884371
 20
-1.0456814368
 30
0.0
 11
2.0208411069
 21
-1.0476746207
 31
0.0
  0
LINE
  5
16F
330
1F
100
AcDbEntity
  8
0
  6
Continuous
 62
     7
370
    25
100
AcDbLine
 10
2.0376189935
 20
-1.0198163155
 30
0.0
 11
2.0341663236
 21
-1.0178231317
 31
0.0
  0
LINE
  5
170
330
1F
100
AcDbEntity
  8
0
  6
Continuous
 62
     7
370
    25
100
AcDbLine
 10
2.0584082684
 20
-1.0232938069
 30
0.0
 11
2.0618609383
 21
-1.0252869908
 31
0.0
  0
LINE
  5
171
330
1F
100
AcDbEntity
  8
0
  6
Continuous
 62
     7
370
    25
100
AcDbLine
 10
2.1147081406
 20
-0.9744783119
 30
0.0
 11
2.1112554707
 21
-0.972485128
 31
0.0
  0
LINE
  5
172
330
1F
100
AcDbEntity
  8
0
  6
Continuous
 62
     7
370
    25
100
AcDbLine
 10
2.0962182079
 20
-1.0006660057
 30
0.0
 11
2.0996708777
 21
-1.0026591896
 31
0.0
  0
LINE
  5
173
330
1F
100
AcDbEntity
  8
0
  6
Continuous
 62
     7
370
    25
100
AcDbLine
 10
2.1373546953
 20
-0.9764256047
 30
0.0
 11
2.1408073651
 21
-0.9784187886
 31
0.0
  0
LINE
  5
174
330
1F
100
AcDbEntity
  8
0
  6
Continuous
 62
     7
370
    25
100
AcDbLine
 10
1.9843611927
 20
-1.2692074014
 30
0.0
 11
8.6100074101
 21
2.5556967446
 31
0.0
  0
LINE
  5
175
330
1F
100
AcDbEntity
  8
0
  6
Continuous
 62
     7
370
    25
100
AcDbLine
 10
2.1786959342
 20
-0.9528104984
 30
0.0
 11
2.182148604
 21
-0.9548036823
 31
0.0
  0
LINE
  5
176
330
1F
100
AcDbEntity
  8
0
  6
Continuous
 62
     7
370
    25
100
AcDbLine
 10
2.1975369828
 20
-0.9416582085
 30
0.0
 11
2.2009896526
 21
-0.9436513923
 31
0.0
  0
LINE
  5
177
330
1F
100
AcDbEntity
  8
0
  6
Continuous
 62
     7
370
    25
100
AcDbLine
 10
2.2170497282
 20
-0.9162209084
 30
0.0
 11
2.2135970584
 21
-0.9142277246
 31
0.0
  0
LINE
  5
178
330
1F
100
AcDbEntity
  8
0
  6
Continuous
 62
     7
370
    25
100
AcDbLine
 10
8.4565123733
 20
3.4059005065
 30
0.0
 11
4.4201874518
 21
1.0757797273
 31
0.0
  0
LINE
  5
179
330
1F
100
AcDbEntity
  8
0
  6
Continuous
 62
     7
370
    25
100
AcDbLine
 10
8.7527123473
 20
3.3484654545
 30
0.0
 11
8.62874247
 21
3.4200317414
 31
0.0
  0
LINE
  5
17A
330
1F
100
AcDbEntity
  8
0
  6
Continuous
 62
     7
370
    25
100
AcDbLine
 10
8.8266040494
 20
2.9308517422
 30
0.0
 11
8.8266040494
 21
3.1922090965
 31
0.0
  0
LINE
  5
17B
330
1F
100
AcDbEntity
  8
0
  6
Continuous
 62
     7
370
    25
100
AcDbLine
 10
1.969598613
 20
-0.4920317782
 30
0.0
 11
0.2227107972
 21
0.5164250922
 31
0.0
  0
LINE
  5
17C
330
1F
100
AcDbEntity
  8
0
  6
Continuous
 62
     7
370
    25
100
AcDbLine
 10
0.0
 20
0.1306786772
 30
0.0
 11
1.7468878157
 21
-0.8777781932
 31
0.0
  0
LINE
  5
17D
330
1F
100
AcDbEntity
  8
0
  6
Continuous
 62
     7
370
    25
100
AcDbLine
 10
8.8179556276
 20
2.9187984728
 30
0.0
 11
8.8179556276
 21
3.1801558271
 31
0.0
  0
LINE
  5
17E
330
1F
100
AcDbEntity
  8
0
  6
Continuous
 62
     7
370
    25
100
AcDbLine
 10
1.9904777502
 20
-1.2556883618
 30
0.0
 11
8.6161239676
 21
2.5692157841
 31
0.0
  0
LINE
  5
17F
330
1F
100
AcDbEntity
  8
0
  6
Continuous
 62
     7
370
    25
100
AcDbLine
 10
1.7886460902
 20
-0.8777781932
 30
0.0
 11
1.7886460902
 21
-1.1391355476
 31
0.0
  0
LINE
  5
180
330
1F
100
AcDbEntity
  8
0
  6
Continuous
 62
     7
370
    25
100
AcDbLine
 10
8.6161239676
 20
3.2967086414
 30
0.0
 11
1.9904777502
 21
-0.5281955046
 31
0.0
  0
LINE
  5
181
330
1F
100
AcDbEntity
  8
0
  6
Continuous
 62
     7
370
    25
100
AcDbLine
 10
2.0516811536
 20
-1.0004445317
 30
0.0
 11
2.0516811536
 21
-1.0235145315
 31
0.0
  0
LINE
  5
182
330
1F
100
AcDbEntity
  8
0
  6
Continuous
 62
     7
370
    25
100
AcDbLine
 10
2.0769672921
 20
-1.0213648655
 30
0.0
 11
2.077129141
 21
-1.0212714321
 31
0.0
  0
LINE
  5
183
330
1F
100
AcDbEntity
  8
0
  6
Continuous
 62
     7
370
    25
100
AcDbLine
 10
2.077129141
 20
-1.0212714321
 30
0.0
 11
2.077129141
 21
-1.0233998818
 31
0.0
  0
LINE
  5
184
330
1F
100
AcDbEntity
  8
0
  6
Continuous
 62
     7
370
    25
100
AcDbLine
 10
2.0593854748
 20
-1.0399231884
 30
0.0
 11
2.0528769497
 21
-1.048126091
 31
0.0
  0
LINE
  5
185
330
1F
100
AcDbEntity
  8
0
  6
Continuous
 62
     7
370
    25
100
AcDbLine
 10
2.0843730571
 20
-1.0202269396
 30
0.0
 11
2.0843730571
 21
-0.9815718976
 31
0.0
  0
LINE
  5
186
330
1F
100
AcDbEntity
  8
0
  6
Continuous
 62
     7
370
    25
100
AcDbLine
 10
2.0843730571
 20
-0.9815718976
 30
0.0
 11
2.0766718786
 21
-0.9860176933
 31
0.0
  0
LINE
  5
187
330
1F
100
AcDbEntity
  8
0
  6
Continuous
 62
     7
370
    25
100
AcDbLine
 10
2.0766718786
 20
-0.9860176933
 30
0.0
 11
2.0766718786
 21
-1.0085814377
 31
0.0
  0
LINE
  5
188
330
1F
100
AcDbEntity
  8
0
  6
Continuous
 62
     7
370
    25
100
AcDbLine
 10
2.0593854748
 20
-1.0194116832
 30
0.0
 11
2.0593854748
 21
-0.9959969218
 31
0.0
  0
LINE
  5
189
330
1F
100
AcDbEntity
  8
0
  6
Continuous
 62
     7
370
    25
100
AcDbLine
 10
2.0593854748
 20
-0.9959969218
 30
0.0
 11
2.0516811536
 21
-1.0004445317
 31
0.0
  0
LINE
  5
18A
330
1F
100
AcDbEntity
  8
0
  6
Continuous
 62
     7
370
    25
100
AcDbLine
 10
1.9920594812
 20
-1.0348633906
 30
0.0
 11
1.9920594812
 21
-1.074750502
 31
0.0
  0
LINE
  5
18B
330
1F
100
AcDbEntity
  8
0
  6
Continuous
 62
     7
370
    25
100
AcDbLine
 10
1.9920594812
 20
-1.074750502
 30
0.0
 11
1.9997559456
 21
-1.0703074276
 31
0.0
  0
LINE
  5
18C
330
1F
100
AcDbEntity
  8
0
  6
Continuous
 62
     7
370
    25
100
AcDbLine
 10
1.9997559456
 20
-1.0703074276
 30
0.0
 11
1.9997559456
 21
-1.0439204577
 31
0.0
  0
LINE
  5
18D
330
1F
100
AcDbEntity
  8
0
  6
Continuous
 62
     7
370
    25
100
AcDbLine
 10
2.0079630983
 20
-1.0343286878
 30
0.0
 11
2.010676817
 21
-1.024277325
 31
0.0
  0
LINE
  5
18E
330
1F
100
AcDbEntity
  8
0
  6
Continuous
 62
     7
370
    25
100
AcDbLine
 10
1.99944639
 20
-1.0349684195
 30
0.0
 11
1.9992829698
 21
-1.03506276
 31
0.0
  0
LINE
  5
18F
330
1F
100
AcDbEntity
  8
0
  6
Continuous
 62
     7
370
    25
100
AcDbLine
 10
1.9992829698
 20
-1.03506276
 30
0.0
 11
1.9992829698
 21
-1.0306933594
 31
0.0
  0
LINE
  5
190
330
1F
100
AcDbEntity
  8
0
  6
Continuous
 62
     7
370
    25
100
AcDbLine
 10
1.9992829698
 20
-1.0306933594
 30
0.0
 11
1.9920594812
 21
-1.0348633906
 31
0.0
  0
LINE
  5
191
330
1F
100
AcDbEntity
  8
0
  6
Continuous
 62
     7
370
    25
100
AcDbLine
 10
2.1243921582
 20
-0.9897083992
 30
0.0
 11
2.1178820618
 21
-0.9894292572
 31
0.0
  0
LINE
  5
192
330
1F
100
AcDbEntity
  8
0
  6
Continuous
 62
     7
370
    25
100
AcDbLine
 10
2.0966012904
 20
-0.9974266385
 30
0.0
 11
2.1263202027
 21
-0.9802702756
 31
0.0
  0
LINE
  5
193
330
1F
100
AcDbEntity
  8
0
  6
Continuous
 62
     7
370
    25
100
AcDbLine
 10
2.1263202027
 20
-0.9802702756
 30
0.0
 11
2.1263202027
 21
-0.9786898155
 31
0.0
  0
LINE
  5
194
330
1F
100
AcDbEntity
  8
0
  6
Continuous
 62
     7
370
    25
100
AcDbLine
 10
2.1487983416
 20
-0.9513822636
 30
0.0
 11
2.1488737664
 21
-0.943265855
 31
0.0
  0
LINE
  5
195
330
1F
100
AcDbEntity
  8
0
  6
Continuous
 62
     7
370
    25
100
AcDbLine
 10
2.1649266616
 20
-0.9663809098
 30
0.0
 11
2.1581824343
 21
-0.9658250293
 31
0.0
  0
LINE
  5
196
330
1F
100
AcDbEntity
  8
0
  6
Continuous
 62
     7
370
    25
100
AcDbLine
 10
2.1490324725
 20
-0.9432159701
 30
0.0
 11
2.1561883932
 21
-0.9471814009
 31
0.0
  0
LINE
  5
197
330
1F
100
AcDbEntity
  8
0
  6
Continuous
 62
     7
370
    25
100
AcDbLine
 10
2.1561883932
 20
-0.9471814009
 30
0.0
 11
2.1724298503
 21
-0.9378054073
 31
0.0
  0
LINE
  5
198
330
1F
100
AcDbEntity
  8
0
  6
Continuous
 62
     7
370
    25
100
AcDbLine
 10
2.1724298503
 20
-0.9378054073
 30
0.0
 11
2.1724298503
 21
-0.955114258
 31
0.0
  0
LINE
  5
199
330
1F
100
AcDbEntity
  8
0
  6
Continuous
 62
     7
370
    25
100
AcDbLine
 10
2.1840342582
 20
-0.9639639274
 30
0.0
 11
2.1874472269
 21
-0.9552381482
 31
0.0
  0
LINE
  5
19A
330
1F
100
AcDbEntity
  8
0
  6
Continuous
 62
     7
370
    25
100
AcDbLine
 10
2.1874472269
 20
-0.9552381482
 30
0.0
 11
2.1833020099
 21
-0.9550127569
 31
0.0
  0
LINE
  5
19B
330
1F
100
AcDbEntity
  8
0
  6
Continuous
 62
     7
370
    25
100
AcDbLine
 10
2.1801168866
 20
-0.9490943517
 30
0.0
 11
2.1801168866
 21
-0.9333677756
 31
0.0
  0
LINE
  5
19C
330
1F
100
AcDbEntity
  8
0
  6
Continuous
 62
     7
370
    25
100
AcDbLine
 10
2.1801168866
 20
-0.9333677756
 30
0.0
 11
2.1862671443
 21
-0.9298173075
 31
0.0
  0
LINE
  5
19D
330
1F
100
AcDbEntity
  8
0
  6
Continuous
 62
     7
370
    25
100
AcDbLine
 10
2.1862671443
 20
-0.9298173075
 30
0.0
 11
2.1862671443
 21
-0.9217208517
 31
0.0
  0
LINE
  5
19E
330
1F
100
AcDbEntity
  8
0
  6
Continuous
 62
     7
370
    25
100
AcDbLine
 10
2.1862671443
 20
-0.9217208517
 30
0.0
 11
2.1801168866
 21
-0.9252713198
 31
0.0
  0
LINE
  5
19F
330
1F
100
AcDbEntity
  8
0
  6
Continuous
 62
     7
370
    25
100
AcDbLine
 10
2.1801168866
 20
-0.9252713198
 30
0.0
 11
2.1801168866
 21
-0.9123482006
 31
0.0
  0
LINE
  5
1A0
330
1F
100
AcDbEntity
  8
0
  6
Continuous
 62
     7
370
    25
100
AcDbLine
 10
2.1801168866
 20
-0.9123482006
 30
0.0
 11
2.1724298503
 21
-0.9191773896
 31
0.0
  0
LINE
  5
1A1
330
1F
100
AcDbEntity
  8
0
  6
Continuous
 62
     7
370
    25
100
AcDbLine
 10
2.1724298503
 20
-0.9191773896
 30
0.0
 11
2.1724298503
 21
-0.9297089515
 31
0.0
  0
LINE
  5
1A2
330
1F
100
AcDbEntity
  8
0
  6
Continuous
 62
     7
370
    25
100
AcDbLine
 10
2.1724298503
 20
-0.9297089515
 30
0.0
 11
2.1490324725
 21
-0.9432159701
 31
0.0
  0
LINE
  5
1A3
330
1F
100
AcDbEntity
  8
0
  6
Continuous
 62
     7
370
    25
100
AcDbLine
 10
2.2197022956
 20
-0.9384794065
 30
0.0
 11
2.2197022956
 21
-0.9433351025
 31
0.0
  0
LINE
  5
1A4
330
1F
100
AcDbEntity
  8
0
  6
Continuous
 62
     7
370
    25
100
AcDbLine
 10
2.2197022956
 20
-0.9433351025
 30
0.0
 11
2.2273877606
 21
-0.938898378
 31
0.0
  0
LINE
  5
1A5
330
1F
100
AcDbEntity
  8
0
  6
Continuous
 62
     7
370
    25
100
AcDbLine
 10
2.2273877606
 20
-0.938898378
 30
0.0
 11
2.2273877606
 21
-0.8990112666
 31
0.0
  0
LINE
  5
1A6
330
1F
100
AcDbEntity
  8
0
  6
Continuous
 62
     7
370
    25
100
AcDbLine
 10
2.2273877606
 20
-0.8990112666
 30
0.0
 11
2.2197022956
 21
-0.9034479911
 31
0.0
  0
LINE
  5
1A7
330
1F
100
AcDbEntity
  8
0
  6
Continuous
 62
     7
370
    25
100
AcDbLine
 10
2.2197022956
 20
-0.9034479911
 30
0.0
 11
2.2197022956
 21
-0.9083073162
 31
0.0
  0
LINE
  5
1A8
330
1F
100
AcDbEntity
  8
0
  6
Continuous
 62
     7
370
    25
100
AcDbLine
 10
2.2197022956
 20
-0.9083073162
 30
0.0
 11
2.2195435894
 21
-0.9083989353
 31
0.0
  0
LINE
  5
1A9
330
1F
100
AcDbEntity
  8
0
  6
Continuous
 62
     7
370
    25
100
AcDbLine
 10
2.2195435894
 20
-0.9385710256
 30
0.0
 11
2.2197022956
 21
-0.9384794065
 31
0.0
  0
LINE
  5
1AA
330
1F
100
AcDbEntity
  8
0
  6
Continuous
 62
     7
370
    25
100
AcDbLine
 10
1.9500840513
 20
-1.0827840467
 30
0.0
 11
1.9500840513
 21
-1.099091274
 31
0.0
  0
LINE
  5
1AB
330
1F
100
AcDbEntity
  8
0
  6
Continuous
 62
     7
370
    25
100
AcDbLine
 10
1.9500840513
 20
-1.099091274
 30
0.0
 11
1.9586620422
 21
-1.0941393052
 31
0.0
  0
LINE
  5
1AC
330
1F
100
AcDbEntity
  8
0
  6
Continuous
 62
     7
370
    25
100
AcDbLine
 10
1.9586620422
 20
-1.0941393052
 30
0.0
 11
1.9586620422
 21
-1.077832078
 31
0.0
  0
LINE
  5
1AD
330
1F
100
AcDbEntity
  8
0
  6
Continuous
 62
     7
370
    25
100
AcDbLine
 10
1.9586620422
 20
-1.077832078
 30
0.0
 11
1.9722023514
 21
-1.0700154239
 31
0.0
  0
LINE
  5
1AE
330
1F
100
AcDbEntity
  8
0
  6
Continuous
 62
     7
370
    25
100
AcDbLine
 10
1.9722023514
 20
-1.034595698
 30
0.0
 11
1.9500840513
 21
-1.0473643208
 31
0.0
  0
LINE
  5
1AF
330
1F
100
AcDbEntity
  8
0
  6
Continuous
 62
     7
370
    25
100
AcDbLine
 10
1.9500840513
 20
-1.0473643208
 30
0.0
 11
1.9500840513
 21
-1.0737240728
 31
0.0
  0
LINE
  5
1B0
330
1F
100
AcDbEntity
  8
0
  6
Continuous
 62
     7
370
    25
100
AcDbLine
 10
1.9500840513
 20
-1.0737240728
 30
0.0
 11
1.9445450482
 21
-1.0769216712
 31
0.0
  0
LINE
  5
1B1
330
1F
100
AcDbEntity
  8
0
  6
Continuous
 62
     7
370
    25
100
AcDbLine
 10
1.9445450482
 20
-1.0769216712
 30
0.0
 11
1.9445450482
 21
-1.0859816452
 31
0.0
  0
LINE
  5
1B2
330
1F
100
AcDbEntity
  8
0
  6
Continuous
 62
     7
370
    25
100
AcDbLine
 10
1.9445450482
 20
-1.0859816452
 30
0.0
 11
1.9500840513
 21
-1.0827840467
 31
0.0
  0
LINE
  5
1B3
330
1F
100
AcDbEntity
  8
0
  6
Continuous
 62
     7
370
    25
100
AcDbLine
 10
1.7468878157
 20
-0.8777781932
 30
0.0
 11
1.7468878157
 21
-1.1391355476
 31
0.0
  0
LINE
  5
1B4
330
1F
100
AcDbEntity
  8
0
  6
Continuous
 62
     7
370
    25
100
AcDbLine
 10
8.5952448304
 20
3.3328723678
 30
0.0
 11
1.969598613
 21
-0.4920317782
 31
0.0
  0
LINE
  5
1B5
330
1F
100
AcDbEntity
  8
0
  6
Continuous
 62
     7
370
    25
100
AcDbLine
 10
0.4983959177
 20
0.6755747247
 30
0.0
 11
0.2227107972
 21
0.5164250922
 31
0.0
  0
LINE
  5
1B6
330
1F
100
AcDbEntity
  8
0
  6
Continuous
 62
     7
370
    25
100
AcDbLine
 10
8.4712749529
 20
3.4044386546
 30
0.0
 11
4.4349500315
 21
1.0743178755
 31
0.0
  0
LINE
  5
1B7
330
1F
100
AcDbEntity
  8
0
  6
Continuous
 62
     7
370
    25
100
AcDbLine
 10
8.5952448303
 20
3.3328723677
 30
0.0
 11
8.4712749529
 21
3.4044386546
 31
0.0
  0
LINE
  5
1B8
330
1F
100
AcDbEntity
  8
0
  6
Continuous
 62
     7
370
    25
100
AcDbLine
 10
1.7468878157
 20
-1.1391355476
 30
0.0
 11
0.0
 21
-0.1306786772
 31
0.0
  0
LINE
  5
1B9
330
1F
100
AcDbEntity
  8
0
  6
Continuous
 62
     7
370
    25
100
AcDbLine
 10
0.0
 20
-0.1306786772
 30
0.0
 11
0.0
 21
0.1306786772
 31
0.0
  0
LINE
  5
1BA
330
1F
100
AcDbEntity
  8
0
  6
Continuous
 62
     7
370
    25
100
AcDbLine
 10
1.8081439215
 20
-1.2809172781
 30
0.0
 11
1.812131096
 21
-1.2833386362
 31
0.0
  0
LINE
  5
1BB
330
1F
100
AcDbEntity
  8
0
  6
Continuous
 62
     7
370
    25
100
AcDbLine
 10
1.9558999063
 20
-1.0762375309
 30
0.0
 11
1.9694402155
 21
-1.0684208768
 31
0.0
  0
LINE
  5
1BC
330
1F
100
AcDbEntity
  8
0
  6
Continuous
 62
     7
370
    25
100
AcDbLine
 10
1.9558999063
 20
-1.0925447581
 30
0.0
 11
1.9558999063
 21
-1.0762375309
 31
0.0
  0
LINE
  5
1BD
330
1F
100
AcDbEntity
  8
0
  6
Continuous
 62
     7
370
    25
100
AcDbLine
 10
1.9500840513
 20
-1.0959021798
 30
0.0
 11
1.9558999063
 21
-1.0925447581
 31
0.0
  0
LINE
  5
1BE
330
1F
100
AcDbEntity
  8
0
  6
Continuous
 62
     7
370
    25
100
AcDbLine
 10
1.9445450482
 20
-1.082792551
 30
0.0
 11
1.9473219154
 21
-1.0811894996
 31
0.0
  0
LINE
  5
1BF
330
1F
100
AcDbEntity
  8
0
  6
Continuous
 62
     7
370
    25
100
AcDbLine
 10
1.9558999063
 20
-1.0498832225
 30
0.0
 11
1.9558999063
 21
-1.0671775569
 31
0.0
  0
LINE
  5
1C0
330
1F
100
AcDbEntity
  8
0
  6
Continuous
 62
     7
370
    25
100
AcDbLine
 10
1.9687771065
 20
-1.0424493731
 30
0.0
 11
1.9558999063
 21
-1.0498832225
 31
0.0
  0
LINE
  5
1C1
330
1F
100
AcDbEntity
  8
0
  6
Continuous
 62
     7
370
    25
100
AcDbLine
 10
1.9558999063
 20
-1.0671775569
 30
0.0
 11
1.9586620422
 21
-1.068772104
 31
0.0
  0
LINE
  5
1C2
330
1F
100
AcDbEntity
  8
0
  6
Continuous
 62
     7
370
    25
100
AcDbLine
 10
1.9558999063
 20
-1.0498832225
 30
0.0
 11
1.9586620422
 21
-1.0514777696
 31
0.0
  0
LINE
  5
1C3
330
1F
100
AcDbEntity
  8
0
  6
Continuous
 62
     7
370
    25
100
AcDbLine
 10
1.9586620422
 20
-1.0514777696
 30
0.0
 11
1.9586620422
 21
-1.068772104
 31
0.0
  0
LINE
  5
1C4
330
1F
100
AcDbEntity
  8
0
  6
Continuous
 62
     7
370
    25
100
AcDbLine
 10
1.9687771065
 20
-1.0424493731
 30
0.0
 11
1.9715392424
 21
-1.0440439202
 31
0.0
  0
LINE
  5
1C5
330
1F
100
AcDbEntity
  8
0
  6
Continuous
 62
     7
370
    25
100
AcDbLine
 10
1.9715392424
 20
-1.0440439202
 30
0.0
 11
1.9586620422
 21
-1.0514777696
 31
0.0
  0
LINE
  5
1C6
330
1F
100
AcDbEntity
  8
0
  6
Continuous
 62
     7
370
    25
100
AcDbLine
 10
1.9586620422
 20
-1.068772104
 30
0.0
 11
1.9715392424
 21
-1.0613382546
 31
0.0
  0
LINE
  5
1C7
330
1F
100
AcDbEntity
  8
0
  6
Continuous
 62
     7
370
    25
100
AcDbLine
 10
1.9861499344
 20
-1.0410665129
 30
0.0
 11
1.9889120703
 21
-1.04266106
 31
0.0
  0
LINE
  5
1C8
330
1F
100
AcDbEntity
  8
0
  6
Continuous
 62
     7
370
    25
100
AcDbLine
 10
1.9473219154
 20
-1.0811894996
 30
0.0
 11
1.9500840513
 21
-1.0827840467
 31
0.0
  0
LINE
  5
1C9
330
1F
100
AcDbEntity
  8
0
  6
Continuous
 62
     7
370
    25
100
AcDbLine
 10
1.9694402155
 20
-1.0684208768
 30
0.0
 11
1.9722023514
 21
-1.0700154239
 31
0.0
  0
LINE
  5
1CA
330
1F
100
AcDbEntity
  8
0
  6
Continuous
 62
     7
370
    25
100
AcDbLine
 10
1.9558999063
 20
-1.0925447581
 30
0.0
 11
1.9586620422
 21
-1.0941393052
 31
0.0
  0
LINE
  5
1CB
330
1F
100
AcDbEntity
  8
0
  6
Continuous
 62
     7
370
    25
100
AcDbLine
 10
1.9558999063
 20
-1.0762375309
 30
0.0
 11
1.9586620422
 21
-1.077832078
 31
0.0
  0
LINE
  5
1CC
330
1F
100
AcDbEntity
  8
0
  6
Continuous
 62
     7
370
    25
100
AcDbLine
 10
1.9965208339
 20
-1.0334682129
 30
0.0
 11
1.9965208339
 21
-1.0322879065
 31
0.0
  0
LINE
  5
1CD
330
1F
100
AcDbEntity
  8
0
  6
Continuous
 62
     7
370
    25
100
AcDbLine
 10
2.0052009625
 20
-1.0327341407
 30
0.0
 11
2.0072563726
 21
-1.0251210921
 31
0.0
  0
LINE
  5
1CE
330
1F
100
AcDbEntity
  8
0
  6
Continuous
 62
     7
370
    25
100
AcDbLine
 10
1.9969938098
 20
-1.0687128806
 30
0.0
 11
1.9969938098
 21
-1.0423259106
 31
0.0
  0
LINE
  5
1CF
330
1F
100
AcDbEntity
  8
0
  6
Continuous
 62
     7
370
    25
100
AcDbLine
 10
1.9920594812
 20
-1.0715614078
 30
0.0
 11
1.9969938098
 21
-1.0687128806
 31
0.0
  0
LINE
  5
1D0
330
1F
100
AcDbEntity
  8
0
  6
Continuous
 62
     7
370
    25
100
AcDbLine
 10
1.9965208339
 20
-1.0334682129
 30
0.0
 11
1.9992829698
 21
-1.03506276
 31
0.0
  0
LINE
  5
1D1
330
1F
100
AcDbEntity
  8
0
  6
Continuous
 62
     7
370
    25
100
AcDbLine
 10
1.9969938098
 20
-1.0423259106
 30
0.0
 11
1.9997559456
 21
-1.0439204577
 31
0.0
  0
LINE
  5
1D2
330
1F
100
AcDbEntity
  8
0
  6
Continuous
 62
     7
370
    25
100
AcDbLine
 10
2.0022955393
 20
-1.0332482888
 30
0.0
 11
2.0050576751
 21
-1.0348428359
 31
0.0
  0
LINE
  5
1D3
330
1F
100
AcDbEntity
  8
0
  6
Continuous
 62
     7
370
    25
100
AcDbLine
 10
2.0052009625
 20
-1.0327341407
 30
0.0
 11
2.0079630983
 21
-1.0343286878
 31
0.0
  0
LINE
  5
1D4
330
1F
100
AcDbEntity
  8
0
  6
Continuous
 62
     7
370
    25
100
AcDbLine
 10
1.9969938098
 20
-1.0687128806
 30
0.0
 11
1.9997559456
 21
-1.0703074276
 31
0.0
  0
LINE
  5
1D5
330
1F
100
AcDbEntity
  8
0
  6
Continuous
 62
     7
370
    25
100
AcDbLine
 10
2.0145174872
 20
-1.0386603794
 30
0.0
 11
2.017279623
 21
-1.0402549265
 31
0.0
  0
LINE
  5
1D6
330
1F
100
AcDbEntity
  8
0
  6
Continuous
 62
     7
370
    25
100
AcDbLine
 10
2.0261360372
 20
-1.0190046104
 30
0.0
 11
2.0288981731
 21
-1.0205991575
 31
0.0
  0
LINE
  5
1D7
330
1F
100
AcDbEntity
  8
0
  6
Continuous
 62
     7
370
    25
100
AcDbLine
 10
2.0261360372
 20
-1.0529600065
 30
0.0
 11
2.0288981731
 21
-1.0545545536
 31
0.0
  0
LINE
  5
1D8
330
1F
100
AcDbEntity
  8
0
  6
Continuous
 62
     7
370
    25
100
AcDbLine
 10
2.0458768872
 20
-1.020556983
 30
0.0
 11
2.0486390231
 21
-1.0221515301
 31
0.0
  0
LINE
  5
1D9
330
1F
100
AcDbEntity
  8
0
  6
Continuous
 62
     7
370
    25
100
AcDbLine
 10
2.056623339
 20
-1.0178171361
 30
0.0
 11
2.056623339
 21
-0.9975914689
 31
0.0
  0
LINE
  5
1DA
330
1F
100
AcDbEntity
  8
0
  6
Continuous
 62
     7
370
    25
100
AcDbLine
 10
2.0816109213
 20
-1.0186323925
 30
0.0
 11
2.0816109213
 21
-0.9831664447
 31
0.0
  0
LINE
  5
1DB
330
1F
100
AcDbEntity
  8
0
  6
Continuous
 62
     7
370
    25
100
AcDbLine
 10
2.0742051562
 20
-1.0197703184
 30
0.0
 11
2.0743670051
 21
-1.019676885
 31
0.0
  0
LINE
  5
1DC
330
1F
100
AcDbEntity
  8
0
  6
Continuous
 62
     7
370
    25
100
AcDbLine
 10
2.056623339
 20
-1.0178171361
 30
0.0
 11
2.0593854748
 21
-1.0194116832
 31
0.0
  0
LINE
  5
1DD
330
1F
100
AcDbEntity
  8
0
  6
Continuous
 62
     7
370
    25
100
AcDbLine
 10
2.0634131354
 20
-1.0314403958
 30
0.0
 11
2.0661752713
 21
-1.0330349428
 31
0.0
  0
LINE
  5
1DE
330
1F
100
AcDbEntity
  8
0
  6
Continuous
 62
     7
370
    25
100
AcDbLine
 10
2.0816109213
 20
-1.0186323925
 30
0.0
 11
2.0843730571
 21
-1.0202269396
 31
0.0
  0
LINE
  5
1DF
330
1F
100
AcDbEntity
  8
0
  6
Continuous
 62
     7
370
    25
100
AcDbLine
 10
2.1235580669
 20
-0.9786757285
 30
0.0
 11
2.1235580669
 21
-0.9770952684
 31
0.0
  0
LINE
  5
1E0
330
1F
100
AcDbEntity
  8
0
  6
Continuous
 62
     7
370
    25
100
AcDbLine
 10
2.0938391545
 20
-0.9958320914
 30
0.0
 11
2.1235580669
 21
-0.9786757285
 31
0.0
  0
LINE
  5
1E1
330
1F
100
AcDbEntity
  8
0
  6
Continuous
 62
     7
370
    25
100
AcDbLine
 10
2.0652704692
 20
-1.0456084604
 30
0.0
 11
2.0680326051
 21
-1.0472030075
 31
0.0
  0
LINE
  5
1E2
330
1F
100
AcDbEntity
  8
0
  6
Continuous
 62
     7
370
    25
100
AcDbLine
 10
2.0742051562
 20
-1.0197703184
 30
0.0
 11
2.0769672921
 21
-1.0213648655
 31
0.0
  0
LINE
  5
1E3
330
1F
100
AcDbEntity
  8
0
  6
Continuous
 62
     7
370
    25
100
AcDbLine
 10
2.0938391545
 20
-0.9887463317
 30
0.0
 11
2.0966012904
 21
-0.9903408788
 31
0.0
  0
LINE
  5
1E4
330
1F
100
AcDbEntity
  8
0
  6
Continuous
 62
     7
370
    25
100
AcDbLine
 10
2.1039586382
 20
-0.9735959128
 30
0.0
 11
2.1067207741
 21
-0.9751904599
 31
0.0
  0
LINE
  5
1E5
330
1F
100
AcDbEntity
  8
0
  6
Continuous
 62
     7
370
    25
100
AcDbLine
 10
2.0966012904
 20
-0.9903408788
 30
0.0
 11
2.1172865208
 21
-0.9783995494
 31
0.0
  0
LINE
  5
1E6
330
1F
100
AcDbEntity
  8
0
  6
Continuous
 62
     7
370
    25
100
AcDbLine
 10
2.1049894428
 20
-1.0074389044
 30
0.0
 11
2.1077515787
 21
-1.0090334515
 31
0.0
  0
LINE
  5
1E7
330
1F
100
AcDbEntity
  8
0
  6
Continuous
 62
     7
370
    25
100
AcDbLine
 10
2.1235580669
 20
-0.9770952684
 30
0.0
 11
2.1263202027
 21
-0.9786898155
 31
0.0
  0
LINE
  5
1E8
330
1F
100
AcDbEntity
  8
0
  6
Continuous
 62
     7
370
    25
100
AcDbLine
 10
2.0743670051
 20
-1.019676885
 30
0.0
 11
2.077129141
 21
-1.0212714321
 31
0.0
  0
LINE
  5
1E9
330
1F
100
AcDbEntity
  8
0
  6
Continuous
 62
     7
370
    25
100
AcDbLine
 10
2.0938391545
 20
-0.9958320914
 30
0.0
 11
2.0966012904
 21
-0.9974266385
 31
0.0
  0
LINE
  5
1EA
330
1F
100
AcDbEntity
  8
0
  6
Continuous
 62
     7
370
    25
100
AcDbLine
 10
2.1235580669
 20
-0.9786757285
 30
0.0
 11
2.1263202027
 21
-0.9802702756
 31
0.0
  0
LINE
  5
1EB
330
1F
100
AcDbEntity
  8
0
  6
Continuous
 62
     7
370
    25
100
AcDbLine
 10
2.1460362058
 20
-0.9497877165
 30
0.0
 11
2.1460776687
 21
-0.9453259106
 31
0.0
  0
LINE
  5
1EC
330
1F
100
AcDbEntity
  8
0
  6
Continuous
 62
     7
370
    25
100
AcDbLine
 10
2.1773547508
 20
-0.9236767728
 30
0.0
 11
2.1773547508
 21
-0.9148020914
 31
0.0
  0
LINE
  5
1ED
330
1F
100
AcDbEntity
  8
0
  6
Continuous
 62
     7
370
    25
100
AcDbLine
 10
2.1835050084
 20
-0.9282227604
 30
0.0
 11
2.1835050084
 21
-0.9233153988
 31
0.0
  0
LINE
  5
1EE
330
1F
100
AcDbEntity
  8
0
  6
Continuous
 62
     7
370
    25
100
AcDbLine
 10
2.1773547508
 20
-0.9317732285
 30
0.0
 11
2.1835050084
 21
-0.9282227604
 31
0.0
  0
LINE
  5
1EF
330
1F
100
AcDbEntity
  8
0
  6
Continuous
 62
     7
370
    25
100
AcDbLine
 10
2.1773547508
 20
-0.9474998046
 30
0.0
 11
2.1773547508
 21
-0.9317732285
 31
0.0
  0
LINE
  5
1F0
330
1F
100
AcDbEntity
  8
0
  6
Continuous
 62
     7
370
    25
100
AcDbLine
 10
2.1812721223
 20
-0.9623693803
 30
0.0
 11
2.1841319145
 21
-0.955057882
 31
0.0
  0
LINE
  5
1F1
330
1F
100
AcDbEntity
  8
0
  6
Continuous
 62
     7
370
    25
100
AcDbLine
 10
2.1534262573
 20
-0.9455868538
 30
0.0
 11
2.1696677144
 21
-0.9362108602
 31
0.0
  0
LINE
  5
1F2
330
1F
100
AcDbEntity
  8
0
  6
Continuous
 62
     7
370
    25
100
AcDbLine
 10
2.1490889657
 20
-0.9431833574
 30
0.0
 11
2.1534262573
 21
-0.9455868538
 31
0.0
  0
LINE
  5
1F3
330
1F
100
AcDbEntity
  8
0
  6
Continuous
 62
     7
370
    25
100
AcDbLine
 10
2.1344852237
 20
-0.9694044792
 30
0.0
 11
2.1372473595
 21
-0.9709990263
 31
0.0
  0
LINE
  5
1F4
330
1F
100
AcDbEntity
  8
0
  6
Continuous
 62
     7
370
    25
100
AcDbLine
 10
2.1460362058
 20
-0.9497877165
 30
0.0
 11
2.1487983416
 21
-0.9513822636
 31
0.0
  0
LINE
  5
1F5
330
1F
100
AcDbEntity
  8
0
  6
Continuous
 62
     7
370
    25
100
AcDbLine
 10
2.1461116305
 20
-0.9836995707
 30
0.0
 11
2.1488737664
 21
-0.9852941178
 31
0.0
  0
LINE
  5
1F6
330
1F
100
AcDbEntity
  8
0
  6
Continuous
 62
     7
370
    25
100
AcDbLine
 10
2.1534262573
 20
-0.9455868538
 30
0.0
 11
2.1561883932
 21
-0.9471814009
 31
0.0
  0
LINE
  5
1F7
330
1F
100
AcDbEntity
  8
0
  6
Continuous
 62
     7
370
    25
100
AcDbLine
 10
2.1696677144
 20
-0.9362108602
 30
0.0
 11
2.1724298503
 21
-0.9378054073
 31
0.0
  0
LINE
  5
1F8
330
1F
100
AcDbEntity
  8
0
  6
Continuous
 62
     7
370
    25
100
AcDbLine
 10
2.1773547508
 20
-0.9236767728
 30
0.0
 11
2.1801168866
 21
-0.9252713198
 31
0.0
  0
LINE
  5
1F9
330
1F
100
AcDbEntity
  8
0
  6
Continuous
 62
     7
370
    25
100
AcDbLine
 10
2.1835050084
 20
-0.9282227604
 30
0.0
 11
2.1862671443
 21
-0.9298173075
 31
0.0
  0
LINE
  5
1FA
330
1F
100
AcDbEntity
  8
0
  6
Continuous
 62
     7
370
    25
100
AcDbLine
 10
2.1773547508
 20
-0.9474998046
 30
0.0
 11
2.1801168866
 21
-0.9490943517
 31
0.0
  0
LINE
  5
1FB
330
1F
100
AcDbEntity
  8
0
  6
Continuous
 62
     7
370
    25
100
AcDbLine
 10
2.1773547508
 20
-0.9317732285
 30
0.0
 11
2.1801168866
 21
-0.9333677756
 31
0.0
  0
LINE
  5
1FC
330
1F
100
AcDbEntity
  8
0
  6
Continuous
 62
     7
370
    25
100
AcDbLine
 10
2.2246256248
 20
-0.9373038309
 30
0.0
 11
2.2246256248
 21
-0.9006058137
 31
0.0
  0
LINE
  5
1FD
330
1F
100
AcDbEntity
  8
0
  6
Continuous
 62
     7
370
    25
100
AcDbLine
 10
2.2197022956
 20
-0.9401460083
 30
0.0
 11
2.2246256248
 21
-0.9373038309
 31
0.0
  0
LINE
  5
1FE
330
1F
100
AcDbEntity
  8
0
  6
Continuous
 62
     7
370
    25
100
AcDbLine
 10
2.2167814535
 20
-0.9369764785
 30
0.0
 11
2.2169401597
 21
-0.9368848594
 31
0.0
  0
LINE
  5
1FF
330
1F
100
AcDbEntity
  8
0
  6
Continuous
 62
     7
370
    25
100
AcDbLine
 10
2.1812721223
 20
-0.9623693803
 30
0.0
 11
2.1840342582
 21
-0.9639639274
 31
0.0
  0
LINE
  5
200
330
1F
100
AcDbEntity
  8
0
  6
Continuous
 62
     7
370
    25
100
AcDbLine
 10
2.1946034422
 20
-0.9346989704
 30
0.0
 11
2.1973655781
 21
-0.9362935175
 31
0.0
  0
LINE
  5
201
330
1F
100
AcDbEntity
  8
0
  6
Continuous
 62
     7
370
    25
100
AcDbLine
 10
2.2059988608
 20
-0.9151720125
 30
0.0
 11
2.2087609967
 21
-0.9167665596
 31
0.0
  0
LINE
  5
202
330
1F
100
AcDbEntity
  8
0
  6
Continuous
 62
     7
370
    25
100
AcDbLine
 10
2.2050199108
 20
-0.9496925444
 30
0.0
 11
2.2077820466
 21
-0.9512870915
 31
0.0
  0
LINE
  5
203
330
1F
100
AcDbEntity
  8
0
  6
Continuous
 62
     7
370
    25
100
AcDbLine
 10
2.2167814535
 20
-0.9068043882
 30
0.0
 11
2.2195435894
 21
-0.9083989353
 31
0.0
  0
LINE
  5
204
330
1F
100
AcDbEntity
  8
0
  6
Continuous
 62
     7
370
    25
100
AcDbLine
 10
2.2246256248
 20
-0.9373038309
 30
0.0
 11
2.2273877606
 21
-0.938898378
 31
0.0
  0
LINE
  5
205
330
1F
100
AcDbEntity
  8
0
  6
Continuous
 62
     7
370
    25
100
AcDbLine
 10
2.2167814535
 20
-0.9369764785
 30
0.0
 11
2.2195435894
 21
-0.9385710256
 31
0.0
  0
LINE
  5
206
330
1F
100
AcDbEntity
  8
0
  6
Continuous
 62
     7
370
    25
100
AcDbLine
 10
2.2169401597
 20
-0.9368848594
 30
0.0
 11
2.2197022956
 21
-0.9384794065
 31
0.0
  0
LINE
  5
207
330
1F
100
AcDbEntity
  8
0
  6
Continuous
 62
     7
370
    25
100
AcDbLine
 10
8.7566995218
 20
3.3460440964
 30
0.0
 11
8.7527123473
 21
3.3484654545
 31
0.0
  0
ARC
  5
208
330
1F
100
AcDbEntity
  8
0
  6
Continuous
 62
     7
370
    25
100
AcDbCircle
 10
1.767766953
 20
-0.8374816061
 30
0.0
 40
0.0453845051548745
100
AcDbArc
 50
242.6096722366
 51
297.3903277634
  0
ARC
  5
209
330
1F
100
AcDbEntity
  8
0
  6
Continuous
 62
     7
370
    25
100
AcDbCircle
 10
2.2283768551
 20
-0.8986017434
 30
0.0
 40
0.48193911985326
100
AcDbArc
 50
122.4763978922
 51
177.5236019622
  0
ARC
  5
20A
330
1F
100
AcDbEntity
  8
0
  6
Continuous
 62
     7
370
    25
100
AcDbCircle
 10
1.9451465661
 20
-0.530258325
 30
0.0
 40
0.0453780947117735
100
AcDbArc
 50
2.6054784857
 51
57.39452166
  0
ARC
  5
20B
330
1F
100
AcDbEntity
  8
0
  6
Continuous
 62
     7
370
    25
100
AcDbCircle
 10
0.4814890393
 20
0.109855127
 30
0.0
 40
0.4819391198653579
100
AcDbArc
 50
122.476397892
 51
177.5236019605
  0
ARC
  5
20C
330
1F
100
AcDbEntity
  8
0
  6
Continuous
 62
     7
370
    25
100
AcDbCircle
 10
1.767766953
 20
-1.0988389604
 30
0.0
 40
0.0453845051548765
100
AcDbArc
 50
242.6096722366
 51
297.3903277634
  0
ARC
  5
20D
330
1F
100
AcDbEntity
  8
0
  6
Continuous
 62
     7
370
    25
100
AcDbCircle
 10
8.5707927835
 20
3.2946458209
 30
0.0
 40
0.045378094711777
100
AcDbArc
 50
2.6054784857
 51
57.39452166
  0
ARC
  5
20E
330
1F
100
AcDbEntity
  8
0
  6
Continuous
 62
     7
370
    25
100
AcDbCircle
 10
0.1532035722
 20
-0.148224103
 30
0.0
 40
0.1542049821001236
100
AcDbArc
 50
173.4667440381
 51
235.2210755685
  0
ARC
  5
20F
330
1F
100
AcDbEntity
  8
0
  6
Continuous
 62
     7
370
    25
100
AcDbCircle
 10
8.6020781343
 20
2.5674274762
 30
0.0
 40
0.0141592188935569
100
AcDbArc
 50
304.0563508399
 51
7.2558295535
  0
ARC
  5
210
330
1F
100
AcDbEntity
  8
0
  6
Continuous
 62
     7
370
    25
100
AcDbCircle
 10
8.8118267739
 20
2.9323253556
 30
0.0
 40
0.0148505692468702
100
AcDbArc
 50
294.3746582936
 51
354.3052007488
  0
ARC
  5
211
330
1F
100
AcDbEntity
  8
0
  6
Continuous
 62
     7
370
    25
100
AcDbCircle
 10
1.9756062336
 20
-1.2571272244
 30
0.0
 40
0.0149409615475179
100
AcDbArc
 50
306.7699325118
 51
5.5263324113
  0
ARC
  5
212
330
1F
100
AcDbEntity
  8
0
  6
Continuous
 62
     7
370
    25
100
AcDbCircle
 10
1.901846921
 20
-1.1563097875
 30
0.0
 40
0.1559079177666829
100
AcDbArc
 50
173.6756741485
 51
233.0573726454
  0
ARC
  5
213
330
1F
100
AcDbEntity
  8
0
  6
Continuous
 62
     7
370
    25
100
AcDbCircle
 10
4.4263809772
 20
1.0630507676
 30
0.0
 40
0.0141554375362067
100
AcDbArc
 50
52.7456620747
 51
115.9658324699
  0
ARC
  5
214
330
1F
100
AcDbEntity
  8
0
  6
Continuous
 62
     7
370
    25
100
AcDbCircle
 10
8.4626257388
 20
3.392365387
 30
0.0
 40
0.0148516900364688
100
AcDbArc
 50
54.3824225248
 51
114.3071190461
  0
ARC
  5
215
330
1F
100
AcDbEntity
  8
0
  6
Continuous
 62
     7
370
    25
100
AcDbCircle
 10
8.6874805796
 20
3.2043184248
 30
0.0
 40
0.1582199409325791
100
AcDbArc
 50
65.6515204363
 51
125.6589380322
  0
ARC
  5
216
330
1F
100
AcDbEntity
  8
0
  6
Continuous
 62
     7
370
    25
100
AcDbCircle
 10
8.8117561753
 20
3.1937661129
 30
0.0
 40
0.014955704222625
100
AcDbArc
 50
294.4891503707
 51
353.0025054687
  0
ARC
  5
217
330
1F
100
AcDbEntity
  8
0
  6
Continuous
 62
     7
370
    25
100
AcDbCircle
 10
8.5635107023
 20
3.2758847117
 30
0.0
 40
0.1582199408602931
100
AcDbArc
 50
65.6515204266
 51
125.6589380025
  0
ENDSEC
  0
SECTION
  2
OBJECTS
  0
DICTIONARY
  5
C
330
0
100
AcDbDictionary
281
     1
  3
ACAD_GROUP
350
D
  3
ACAD_LAYOUT
350
1A
  3
ACAD_MLINESTYLE
350
17
  3
ACAD_PLOTSETTINGS
350
19
  3
ACAD_PLOTSTYLENAME
350
E
  3
ACAD_SCALELIST
350
47
  3
DWGPROPS
350
218
  0
DICTIONARY
  5
D
102
{ACAD_REACTORS
330
C
102
}
330
C
100
AcDbDictionary
281
     1
  0
DICTIONARY
  5
1A
102
{ACAD_REACTORS
330
C
102
}
330
C
100
AcDbDictionary
281
     1
  3
Layout1
350
1E
  3
Layout2
350
26
  3
Model
350
22
  0
DICTIONARY
  5
17
102
{ACAD_REACTORS
330
C
102
}
330
C
100
AcDbDictionary
281
     1
  3
Standard
350
18
  0
DICTIONARY
  5
19
102
{ACAD_REACTORS
330
C
102
}
330
C
100
AcDbDictionary
281
     1
  0
ACDBDICTIONARYWDFLT
  5
E
102
{ACAD_REACTORS
330
C
102
}
330
C
100
AcDbDictionary
281
     1
  3
Normal
350
F
100
AcDbDictionaryWithDefault
340
F
  0
DICTIONARY
  5
47
102
{ACAD_REACTORS
330
C
102
}
330
C
100
AcDbDictionary
281
     1
  3
A0
350
48
  3
A1
350
49
  3
A2
350
4A
  3
A3
350
4B
  3
A4
350
4C
  3
A5
350
4D
  3
A6
350
4E
  3
A7
350
4F
  3
A8
350
50
  3
A9
350
51
  3
B1
350
52
  3
B2
350
53
  3
B3
350
54
  3
B4
350
55
  3
B5
350
56
  3
B6
350
57
  3
B7
350
58
  0
XRECORD
  5
218
102
{ACAD_REACTORS
330
C
102
}
330
C
100
AcDbXrecord
280
     1
  1
DWGPROPS COOKIE
  2

  3

  4

  6

  7

  8
Alan Ramirez
  9

300
=
301
=
302
=
303
=
304
=
305
=
306
=
307
=
308
=
309
=
 40
0.0
 41
2460425.67258338
 42
2460425.672611875
  1

 90
        0
  0
LAYOUT
  5
1E
102
{ACAD_REACTORS
330
1A
102
}
330
1A
100
AcDbPlotSettings
  1

  2
none_device
  4

  6

 40
0.0
 41
0.0
 42
0.0
 43
0.0
 44
0.0
 45
0.0
 46
0.0
 47
0.0
 48
0.0
 49
0.0
140
0.0
141
0.0
142
1.0
143
1.0
 70
   688
 72
     0
 73
     0
 74
     5
  7

 75
    16
147
1.0
148
0.0
149
0.0
100
AcDbLayout
  1
Layout1
 70
     1
 71
     1
 10
0.0
 20
0.0
 11
12.0
 21
9.0
 12
0.0
 22
0.0
 32
0.0
 14
1.0000000000E+20
 24
1.0000000000E+20
 34
1.0000000000E+20
 15
-1.0000000000E+20
 25
-1.0000000000E+20
 35
-1.0000000000E+20
146
0.0
 13
0.0
 23
0.0
 33
0.0
 16
1.0
 26
0.0
 36
0.0
 17
0.0
 27
1.0
 37
0.0
 76
     0
330
1B
  0
LAYOUT
  5
26
102
{ACAD_REACTORS
330
1A
102
}
330
1A
100
AcDbPlotSettings
  1

  2
none_device
  4

  6

 40
0.0
 41
0.0
 42
0.0
 43
0.0
 44
0.0
 45
0.0
 46
0.0
 47
0.0
 48
0.0
 49
0.0
140
0.0
141
0.0
142
1.0
143
1.0
 70
   688
 72
     0
 73
     0
 74
     5
  7

 75
    16
147
1.0
148
0.0
149
0.0
100
AcDbLayout
  1
Layout2
 70
     1
 71
     2
 10
0.0
 20
0.0
 11
0.0
 21
0.0
 12
0.0
 22
0.0
 32
0.0
 14
0.0
 24
0.0
 34
0.0
 15
0.0
 25
0.0
 35
0.0
146
0.0
 13
0.0
 23
0.0
 33
0.0
 16
1.0
 26
0.0
 36
0.0
 17
0.0
 27
1.0
 37
0.0
 76
     0
330
23
  0
LAYOUT
  5
22
102
{ACAD_REACTORS
330
1A
102
}
330
1A
100
AcDbPlotSettings
  1

  2
none_device
  4
ANSI_A_(11.00_x_8.50_Inches)
  6

 40
6.35
 41
19.05
 42
6.35000508
 43
19.05000254
 44
279.4
 45
215.9
 46
-4.921624157
 47
55.4245515105
 48
0.0
 49
0.0
140
0.0
141
0.0
142
1.233630122
143
1.0
 70
  1696
 72
     0
 73
     0
 74
     0
  7

 75
     0
147
0.5913241897
148
-39.4088153714
149
0.0
100
AcDbLayout
  1
Model
 70
     1
 71
     0
 10
0.0
 20
0.0
 11
12.0
 21
9.0
 12
0.0
 22
0.0
 32
0.0
 14
-0.0010014099
 24
-1.3006398989
 34
0.0
 15
8.8266040494
 25
3.4373111253
 35
0.0
146
0.0
 13
0.0
 23
0.0
 33
0.0
 16
1.0
 26
0.0
 36
0.0
 17
0.0
 27
1.0
 37
0.0
 76
     0
330
1F
331
29
  0
MLINESTYLE
  5
18
102
{ACAD_REACTORS
330
17
102
}
330
17
100
AcDbMlineStyle
  2
Standard
 70
     0
  3

 62
   256
 51
90.0
 52
90.0
 71
     2
 49
0.5
 62
   256
  6
BYLAYER
 49
-0.5
 62
   256
  6
BYLAYER
  0
ACDBPLACEHOLDER
  5
F
102
{ACAD_REACTORS
330
E
102
}
330
E
  0
SCALE
  5
48
102
{ACAD_REACTORS
330
47
102
}
330
47
100
AcDbScale
 70
     0
300
1:1
140
1.0
141
1.0
290
     1
  0
SCALE
  5
49
102
{ACAD_REACTORS
330
47
102
}
330
47
100
AcDbScale
 70
     0
300
1/128" = 1'-0"
140
0.0078125
141
12.0
290
     0
  0
SCALE
  5
4A
102
{ACAD_REACTORS
330
47
102
}
330
47
100
AcDbScale
 70
     0
300
1/64" = 1'-0"
140
0.015625
141
12.0
290
     0
  0
SCALE
  5
4B
102
{ACAD_REACTORS
330
47
102
}
330
47
100
AcDbScale
 70
     0
300
1/32" = 1'-0"
140
0.03125
141
12.0
290
     0
  0
SCALE
  5
4C
102
{ACAD_REACTORS
330
47
102
}
330
47
100
AcDbScale
 70
     0
300
1/16" = 1'-0"
140
0.0625
141
12.0
290
     0
  0
SCALE
  5
4D
102
{ACAD_REACTORS
330
47
102
}
330
47
100
AcDbScale
 70
     0
300
3/32" = 1'-0"
140
0.09375
141
12.0
290
     0
  0
SCALE
  5
4E
102
{ACAD_REACTORS
330
47
102
}
330
47
100
AcDbScale
 70
     0
300
1/8" = 1'-0"
140
0.125
141
12.0
290
     0
  0
SCALE
  5
4F
102
{ACAD_REACTORS
330
47
102
}
330
47
100
AcDbScale
 70
     0
300
3/16" = 1'-0"
140
0.1875
141
12.0
290
     0
  0
SCALE
  5
50
102
{ACAD_REACTORS
330
47
102
}
330
47
100
AcDbScale
 70
     0
300
1/4" = 1'-0"
140
0.25
141
12.0
290
     0
  0
SCALE
  5
51
102
{ACAD_REACTORS
330
47
102
}
330
47
100
AcDbScale
 70
     0
300
3/8" = 1'-0"
140
0.375
141
12.0
290
     0
  0
SCALE
  5
52
102
{ACAD_REACTORS
330
47
102
}
330
47
100
AcDbScale
 70
     0
300
1/2" = 1'-0"
140
0.5
141
12.0
290
     0
  0
SCALE
  5
53
102
{ACAD_REACTORS
330
47
102
}
330
47
100
AcDbScale
 70
     0
300
3/4" = 1'-0"
140
0.75
141
12.0
290
     0
  0
SCALE
  5
54
102
{ACAD_REACTORS
330
47
102
}
330
47
100
AcDbScale
 70
     0
300
1" = 1'-0"
140
1.0
141
12.0
290
     0
  0
SCALE
  5
55
102
{ACAD_REACTORS
330
47
102
}
330
47
100
AcDbScale
 70
     0
300
1-1/2" = 1'-0"
140
1.5
141
12.0
290
     0
  0
SCALE
  5
56
102
{ACAD_REACTORS
330
47
102
}
330
47
100
AcDbScale
 70
     0
300
3" = 1'-0"
140
3.0
141
12.0
290
     0
  0
SCALE
  5
57
102
{ACAD_REACTORS
330
47
102
}
330
47
100
AcDbScale
 70
     0
300
6" = 1'-0"
140
6.0
141
12.0
290
     0
  0
SCALE
  5
58
102
{ACAD_REACTORS
330
47
102
}
330
47
100
AcDbScale
 70
     0
300
1'-0" = 1'-0"
140
12.0
141
12.0
290
     0
  0
ENDSEC
  0
EOF
