  0
SECTION
  2
HEADER
  9
$ACADVER
  1
AC1015
  9
$ACADMAINTVER
 70
     6
  9
$DWGCODEPAGE
  3
ANSI_1252
  9
$INSBASE
 10
0.0
 20
0.0
 30
0.0
  9
$EXTMIN
 10
-1.5479143373
 20
-5.3258564258
 30
0.0
  9
$EXTMAX
 10
4.663229394
 20
4.518276039
 30
0.0
  9
$LIMMIN
 10
0.0
 20
0.0
  9
$LIMMAX
 10
12.0
 20
9.0
  9
$ORTHOMODE
 70
     0
  9
$REGENMODE
 70
     1
  9
$FILLMODE
 70
     1
  9
$QTEXTMODE
 70
     0
  9
$MIRRTEXT
 70
     1
  9
$LTSCALE
 40
1.0
  9
$ATTMODE
 70
     1
  9
$TEXTSIZE
 40
0.125
  9
$TRACEWID
 40
0.05
  9
$TEXTSTYLE
  7
Standard
  9
$CLAYER
  8
0
  9
$CELTYPE
  6
ByLayer
  9
$CECOLOR
 62
   256
  9
$CELTSCALE
 40
1.0
  9
$DISPSILH
 70
     0
  9
$DIMSCALE
 40
1.0
  9
$DIMASZ
 40
0.13
  9
$DIMEXO
 40
0.0
  9
$DIMDLI
 40
0.38
  9
$DIMRND
 40
0.0
  9
$DIMDLE
 40
0.0
  9
$DIMEXE
 40
0.125
  9
$DIMTP
 40
0.0
  9
$DIMTM
 40
0.0
  9
$DIMTXT
 40
0.125
  9
$DIMCEN
 40
0.09
  9
$DIMTSZ
 40
0.0
  9
$DIMTOL
 70
     0
  9
$DIMLIM
 70
     0
  9
$DIMTIH
 70
     1
  9
$DIMTOH
 70
     1
  9
$DIMSE1
 70
     0
  9
$DIMSE2
 70
     0
  9
$DIMTAD
 70
     0
  9
$DIMZIN
 70
     1
  9
$DIMBLK
  1

  9
$DIMASO
 70
     1
  9
$DIMSHO
 70
     1
  9
$DIMPOST
  1

  9
$DIMAPOST
  1

  9
$DIMALT
 70
     0
  9
$DIMALTD
 70
     2
  9
$DIMALTF
 40
25.4
  9
$DIMLFAC
 40
1.0
  9
$DIMTOFL
 70
     0
  9
$DIMTVP
 40
0.0
  9
$DIMTIX
 70
     0
  9
$DIMSOXD
 70
     0
  9
$DIMSAH
 70
     0
  9
$DIMBLK1
  1

  9
$DIMBLK2
  1

  9
$DIMSTYLE
  2
Standard
  9
$DIMCLRD
 70
     0
  9
$DIMCLRE
 70
     0
  9
$DIMCLRT
 70
     0
  9
$DIMTFAC
 40
1.0
  9
$DIMGAP
 40
0.06
  9
$DIMJUST
 70
     0
  9
$DIMSD1
 70
     0
  9
$DIMSD2
 70
     0
  9
$DIMTOLJ
 70
     1
  9
$DIMTZIN
 70
     1
  9
$DIMALTZ
 70
     0
  9
$DIMALTTZ
 70
     0
  9
$DIMUPT
 70
     0
  9
$DIMDEC
 70
     3
  9
$DIMTDEC
 70
     3
  9
$DIMALTU
 70
     2
  9
$DIMALTTD
 70
     2
  9
$DIMTXSTY
  7
Standard
  9
$DIMAUNIT
 70
     0
  9
$DIMADEC
 70
     2
  9
$DIMALTRND
 40
0.0
  9
$DIMAZIN
 70
     0
  9
$DIMDSEP
 70
    46
  9
$DIMATFIT
 70
     3
  9
$DIMFRAC
 70
     0
  9
$DIMLDRBLK
  1

  9
$DIMLUNIT
 70
     2
  9
$DIMLWD
 70
    -2
  9
$DIMLWE
 70
    -2
  9
$DIMTMOVE
 70
     0
  9
$LUNITS
 70
     2
  9
$LUPREC
 70
     3
  9
$SKETCHINC
 40
0.1
  9
$FILLETRAD
 40
0.0
  9
$AUNITS
 70
     0
  9
$AUPREC
 70
     2
  9
$MENU
  1
.
  9
$ELEVATION
 40
0.0
  9
$PELEVATION
 40
0.0
  9
$THICKNESS
 40
0.0
  9
$LIMCHECK
 70
     0
  9
$CHAMFERA
 40
0.0
  9
$CHAMFERB
 40
0.0
  9
$CHAMFERC
 40
0.0
  9
$CHAMFERD
 40
0.0
  9
$SKPOLY
 70
     0
  9
$TDCREATE
 40
2460425.42824235
  9
$TDUCREATE
 40
2460425.67824235
  9
$TDUPDATE
 40
2460425.428280961
  9
$TDUUPDATE
 40
2460425.678280961
  9
$TDINDWG
 40
0.0000000116
  9
$TDUSRTIMER
 40
0.0000000116
  9
$USRTIMER
 70
     1
  9
$ANGBASE
 50
0.0
  9
$ANGDIR
 70
     0
  9
$PDMODE
 70
     0
  9
$PDSIZE
 40
-1.0
  9
$PLINEWID
 40
0.0
  9
$SPLFRAME
 70
     0
  9
$SPLINETYPE
 70
     6
  9
$SPLINESEGS
 70
     8
  9
$HANDSEED
  5
2E6
  9
$SURFTAB1
 70
     6
  9
$SURFTAB2
 70
     6
  9
$SURFTYPE
 70
     6
  9
$SURFU
 70
     6
  9
$SURFV
 70
     6
  9
$UCSBASE
  2

  9
$UCSNAME
  2

  9
$UCSORG
 10
0.0
 20
0.0
 30
0.0
  9
$UCSXDIR
 10
1.0
 20
0.0
 30
0.0
  9
$UCSYDIR
 10
0.0
 20
1.0
 30
0.0
  9
$UCSORTHOREF
  2

  9
$UCSORTHOVIEW
 70
     0
  9
$UCSORGTOP
 10
0.0
 20
0.0
 30
0.0
  9
$UCSORGBOTTOM
 10
0.0
 20
0.0
 30
0.0
  9
$UCSORGLEFT
 10
0.0
 20
0.0
 30
0.0
  9
$UCSORGRIGHT
 10
0.0
 20
0.0
 30
0.0
  9
$UCSORGFRONT
 10
0.0
 20
0.0
 30
0.0
  9
$UCSORGBACK
 10
0.0
 20
0.0
 30
0.0
  9
$PUCSBASE
  2

  9
$PUCSNAME
  2

  9
$PUCSORG
 10
0.0
 20
0.0
 30
0.0
  9
$PUCSXDIR
 10
1.0
 20
0.0
 30
0.0
  9
$PUCSYDIR
 10
0.0
 20
1.0
 30
0.0
  9
$PUCSORTHOREF
  2

  9
$PUCSORTHOVIEW
 70
     0
  9
$PUCSORGTOP
 10
0.0
 20
0.0
 30
0.0
  9
$PUCSORGBOTTOM
 10
0.0
 20
0.0
 30
0.0
  9
$PUCSORGLEFT
 10
0.0
 20
0.0
 30
0.0
  9
$PUCSORGRIGHT
 10
0.0
 20
0.0
 30
0.0
  9
$PUCSORGFRONT
 10
0.0
 20
0.0
 30
0.0
  9
$PUCSORGBACK
 10
0.0
 20
0.0
 30
0.0
  9
$USERI1
 70
     0
  9
$USERI2
 70
     0
  9
$USERI3
 70
     0
  9
$USERI4
 70
     0
  9
$USERI5
 70
     0
  9
$USERR1
 40
0.0
  9
$USERR2
 40
0.0
  9
$USERR3
 40
0.0
  9
$USERR4
 40
0.0
  9
$USERR5
 40
0.0
  9
$WORLDVIEW
 70
     1
  9
$SHADEDGE
 70
     3
  9
$SHADEDIF
 70
    70
  9
$TILEMODE
 70
     1
  9
$MAXACTVP
 70
    64
  9
$PINSBASE
 10
0.0
 20
0.0
 30
0.0
  9
$PLIMCHECK
 70
     0
  9
$PEXTMIN
 10
1.0000000000E+20
 20
1.0000000000E+20
 30
1.0000000000E+20
  9
$PEXTMAX
 10
-1.0000000000E+20
 20
-1.0000000000E+20
 30
-1.0000000000E+20
  9
$PLIMMIN
 10
0.0
 20
0.0
  9
$PLIMMAX
 10
12.0
 20
9.0
  9
$UNITMODE
 70
     0
  9
$VISRETAIN
 70
     1
  9
$PLINEGEN
 70
     0
  9
$PSLTSCALE
 70
     1
  9
$TREEDEPTH
 70
  3020
  9
$CMLSTYLE
  2
Standard
  9
$CMLJUST
 70
     0
  9
$CMLSCALE
 40
1.0
  9
$PROXYGRAPHICS
 70
     1
  9
$MEASUREMENT
 70
     0
  9
$CELWEIGHT
370
    -1
  9
$ENDCAPS
280
     0
  9
$JOINSTYLE
280
     0
  9
$LWDISPLAY
290
     1
  9
$INSUNITS
 70
     1
  9
$HYPERLINKBASE
  1

  9
$STYLESHEET
  1

  9
$XEDIT
290
     1
  9
$CEPSNTYPE
380
     0
  9
$PSTYLEMODE
290
     1
  9
$FINGERPRINTGUID
  2
{cce8bed4-3391-4016-afe0-e6cfc74ed32a}
  9
$VERSIONGUID
  2
{FAEB1C32-E019-11D5-929B-00C0DF256EC4}
  9
$EXTNAMES
290
     1
  9
$PSVPSCALE
 40
0.0
  9
$OLESTARTUP
290
     0
  0
ENDSEC
  0
SECTION
  2
CLASSES
  0
CLASS
  1
ACDBDICTIONARYWDFLT
  2
AcDbDictionaryWithDefault
  3
ObjectDBX Classes
 90
        0
280
     0
281
     0
  0
CLASS
  1
VISUALSTYLE
  2
AcDbVisualStyle
  3
ObjectDBX Classes
 90
     4095
280
     0
281
     0
  0
CLASS
  1
MATERIAL
  2
AcDbMaterial
  3
ObjectDBX Classes
 90
     1153
280
     0
281
     0
  0
CLASS
  1
SCALE
  2
AcDbScale
  3
ObjectDBX Classes
 90
     1153
280
     0
281
     0
  0
CLASS
  1
TABLESTYLE
  2
AcDbTableStyle
  3
ObjectDBX Classes
 90
     4095
280
     0
281
     0
  0
CLASS
  1
MLEADERSTYLE
  2
AcDbMLeaderStyle
  3
ACDB_MLEADERSTYLE_CLASS
 90
     4095
280
     0
281
     0
  0
CLASS
  1
SUN
  2
AcDbSun
  3
SCENEOE
 90
     1153
280
     0
281
     0
  0
CLASS
  1
ACDBPLACEHOLDER
  2
AcDbPlaceHolder
  3
ObjectDBX Classes
 90
        0
280
     0
281
     0
  0
CLASS
  1
LAYOUT
  2
AcDbLayout
  3
ObjectDBX Classes
 90
        0
280
     0
281
     0
  0
ENDSEC
  0
SECTION
  2
TABLES
  0
TABLE
  2
VPORT
  5
8
330
0
100
AcDbSymbolTable
 70
     1
  0
VPORT
  5
29
330
8
100
AcDbSymbolTableRecord
100
AcDbViewportTableRecord
  2
*Active
 70
     0
 10
0.0
 20
0.0
 11
1.0
 21
1.0
 12
1.5576575283
 22
-0.4037901934
 13
0.0
 23
0.0
 14
0.5
 24
0.5
 15
0.5
 25
0.5
 16
0.0
 26
0.0
 36
1.0
 17
0.0
 27
0.0
 37
0.0
 40
10.0410151141
 41
0.6309488168
 42
50.0
 43
0.0
 44
0.0
 50
0.0
 51
0.0
 71
     0
 72
   100
 73
     1
 74
     3
 75
     0
 76
     0
 77
     0
 78
     0
281
     0
 65
     1
110
0.0
120
0.0
130
0.0
111
1.0
121
0.0
131
0.0
112
0.0
122
1.0
132
0.0
 79
     0
146
0.0
  0
ENDTAB
  0
TABLE
  2
LTYPE
  5
5
330
0
100
AcDbSymbolTable
 70
     6
  0
LTYPE
  5
14
330
5
100
AcDbSymbolTableRecord
100
AcDbLinetypeTableRecord
  2
ByBlock
 70
     0
  3

 72
    65
 73
     0
 40
0.0
  0
LTYPE
  5
15
330
5
100
AcDbSymbolTableRecord
100
AcDbLinetypeTableRecord
  2
ByLayer
 70
     0
  3

 72
    65
 73
     0
 40
0.0
  0
LTYPE
  5
16
330
5
100
AcDbSymbolTableRecord
100
AcDbLinetypeTableRecord
  2
Continuous
 70
     0
  3
Solid line
 72
    65
 73
     0
 40
0.0
  0
LTYPE
  5
5E
330
5
100
AcDbSymbolTableRecord
100
AcDbLinetypeTableRecord
  2
HIDDEN
 70
     0
  3
Hidden __ __ __ __ __ __ __ __ __ __ __ __ __ __
 72
    65
 73
     2
 40
0.075
 49
0.05
 74
     0
 49
-0.025
 74
     0
  0
LTYPE
  5
5F
330
5
100
AcDbSymbolTableRecord
100
AcDbLinetypeTableRecord
  2
PHANTOM
 70
     0
  3
Phantom ______  __  __  ______  __  __  ______
 72
    65
 73
     6
 40
0.5
 49
0.25
 74
     0
 49
-0.05
 74
     0
 49
0.05
 74
     0
 49
-0.05
 74
     0
 49
0.05
 74
     0
 49
-0.05
 74
     0
  0
LTYPE
  5
60
330
5
100
AcDbSymbolTableRecord
100
AcDbLinetypeTableRecord
  2
CENTER
 70
     0
  3
Center ____ _ ____ _ ____ _ ____ _ ____ _ ____
 72
    65
 73
     4
 40
0.4
 49
0.25
 74
     0
 49
-0.05
 74
     0
 49
0.05
 74
     0
 49
-0.05
 74
     0
  0
LTYPE
  5
61
330
5
100
AcDbSymbolTableRecord
100
AcDbLinetypeTableRecord
  2
CENTERX2
 70
     0
  3
Center (2x) ________  __  ________  __  _____
 72
    65
 73
     4
 40
0.8
 49
0.5
 74
     0
 49
-0.1
 74
     0
 49
0.1
 74
     0
 49
-0.1
 74
     0
  0
LTYPE
  5
62
330
5
100
AcDbSymbolTableRecord
100
AcDbLinetypeTableRecord
  2
DOT2
 70
     0
  3
Dot (.5x) ........................................
 72
    65
 73
     2
 40
0.025
 49
0.0
 74
     0
 49
-0.025
 74
     0
  0
ENDTAB
  0
TABLE
  2
LAYER
  5
2
330
0
100
AcDbSymbolTable
 70
     1
  0
LAYER
  5
10
330
2
100
AcDbSymbolTableRecord
100
AcDbLayerTableRecord
  2
0
 70
     0
 62
     7
  6
Continuous
370
    -3
390
F
  0
ENDTAB
  0
TABLE
  2
STYLE
  5
3
330
0
100
AcDbSymbolTable
 70
     1
  0
STYLE
  5
11
330
3
100
AcDbSymbolTableRecord
100
AcDbTextStyleTableRecord
  2
Standard
 70
     0
 40
0.0
 41
1.0
 50
0.0
 71
     0
 42
0.125
  3
txt
  4

  0
ENDTAB
  0
TABLE
  2
VIEW
  5
6
330
0
100
AcDbSymbolTable
 70
     0
  0
ENDTAB
  0
TABLE
  2
UCS
  5
7
330
0
100
AcDbSymbolTable
 70
     0
  0
ENDTAB
  0
TABLE
  2
APPID
  5
9
330
0
100
AcDbSymbolTable
 70
     1
  0
APPID
  5
12
330
9
100
AcDbSymbolTableRecord
100
AcDbRegAppTableRecord
  2
ACAD
 70
     0
  0
ENDTAB
  0
TABLE
  2
DIMSTYLE
  5
A
330
0
100
AcDbSymbolTable
 70
     1
100
AcDbDimStyleTable
  0
DIMSTYLE
105
27
330
A
100
AcDbSymbolTableRecord
100
AcDbDimStyleTableRecord
  2
Standard
 70
     0
178
     0
340
11
  0
ENDTAB
  0
TABLE
  2
BLOCK_RECORD
  5
1
330
0
100
AcDbSymbolTable
 70
     1
  0
BLOCK_RECORD
  5
1F
330
1
100
AcDbSymbolTableRecord
100
AcDbBlockTableRecord
  2
*Model_Space
340
22
  0
BLOCK_RECORD
  5
1B
330
1
100
AcDbSymbolTableRecord
100
AcDbBlockTableRecord
  2
*Paper_Space
340
1E
  0
BLOCK_RECORD
  5
23
330
1
100
AcDbSymbolTableRecord
100
AcDbBlockTableRecord
  2
*Paper_Space0
340
26
  0
ENDTAB
  0
ENDSEC
  0
SECTION
  2
BLOCKS
  0
BLOCK
  5
20
330
1F
100
AcDbEntity
  8
0
100
AcDbBlockBegin
  2
*Model_Space
 70
     0
 10
0.0
 20
0.0
 30
0.0
  3
*Model_Space
  1

  0
ENDBLK
  5
21
330
1F
100
AcDbEntity
  8
0
100
AcDbBlockEnd
  0
BLOCK
  5
1C
330
1B
100
AcDbEntity
 67
     1
  8
0
100
AcDbBlockBegin
  2
*Paper_Space
 70
     0
 10
0.0
 20
0.0
 30
0.0
  3
*Paper_Space
  1

  0
ENDBLK
  5
1D
330
1B
100
AcDbEntity
 67
     1
  8
0
100
AcDbBlockEnd
  0
BLOCK
  5
24
330
23
100
AcDbEntity
  8
0
100
AcDbBlockBegin
  2
*Paper_Space0
 70
     0
 10
0.0
 20
0.0
 30
0.0
  3
*Paper_Space0
  1

  0
ENDBLK
  5
25
330
23
100
AcDbEntity
  8
0
100
AcDbBlockEnd
  0
ENDSEC
  0
SECTION
  2
ENTITIES
  0
SPLINE
  5
63
330
1F
100
AcDbEntity
  8
0
  6
Continuous
 62
     7
370
    25
100
AcDbSpline
210
0.0
220
0.0
230
1.0
 70
     8
 71
     3
 72
    11
 73
     7
 74
     0
 42
0.00000001
 43
0.00000001
 40
0.0
 40
0.0
 40
0.0
 40
0.0
 40
0.2152940630536479
 40
0.4521232847054923
 40
0.712549516999859
 40
1.0
 40
1.0
 40
1.0
 40
1.0
 10
3.66865222456785
 20
0.6380628027260539
 30
0.0
 10
3.676244194445681
 20
0.6351006612304414
 30
0.0
 10
3.692187534033703
 20
0.6288800849462506
 30
0.0
 10
3.72134808561613
 20
0.6251514731262603
 30
0.0
 10
3.754966148621319
 20
0.6262798149398223
 30
0.0
 10
3.776012144279182
 20
0.6326887266898875
 30
0.0
 10
3.787054193426716
 20
0.6360512437062779
 30
0.0
  0
SPLINE
  5
64
330
1F
100
AcDbEntity
  8
0
  6
Continuous
 62
     7
370
    25
100
AcDbSpline
210
0.0
220
0.0
230
1.0
 70
     8
 71
     3
 72
    11
 73
     7
 74
     0
 42
0.00000001
 43
0.00000001
 40
0.0
 40
0.0
 40
0.0
 40
0.0
 40
0.2730331434973673
 40
0.5307453940735626
 40
0.7730869173238191
 40
1.0
 40
1.0
 40
1.0
 40
1.0
 10
3.780959445743824
 20
0.6337340751783714
 30
0.0
 10
3.873047088845188
 20
0.6711035643295284
 30
0.0
 10
4.052054999024453
 20
0.7437456032842257
 30
0.0
 10
4.283282150357746
 20
0.8687676960730198
 30
0.0
 10
4.480160918844887
 20
0.9961300637236652
 30
0.0
 10
4.586770140746856
 20
1.085859298431832
 30
0.0
 10
4.638322170024703
 20
1.129248829395748
 30
0.0
  0
LWPOLYLINE
  5
65
330
1F
100
AcDbEntity
  8
0
  6
Continuous
 62
     7
370
    25
100
AcDbPolyline
 90
        3
 70
   128
 43
0.0
 10
1.0485991322
 20
1.831085669
 10
2.2343637506
 20
1.2910808915
 10
3.6693482996
 20
0.6377434757
  0
SPLINE
  5
66
330
1F
100
AcDbEntity
  8
0
  6
Continuous
 62
     7
370
    25
100
AcDbSpline
210
0.0
220
0.0
230
1.0
 70
     8
 71
     3
 72
    11
 73
     7
 74
     0
 42
0.00000001
 43
0.00000001
 40
0.0
 40
0.0
 40
0.0
 40
0.0
 40
0.0967716175379676
 40
0.5015484578196784
 40
0.7376350910929356
 40
0.9999999999999999
 40
0.9999999999999999
 40
0.9999999999999999
 40
0.9999999999999999
 10
4.661753952832372
 20
1.566013465933672
 30
0.0
 10
4.662239188799129
 20
1.569589594715395
 30
0.0
 10
4.664754072367229
 20
1.588123974124054
 30
0.0
 10
4.658826835347024
 20
1.615579401938215
 30
0.0
 10
4.645556041810094
 20
1.645669569800022
 30
0.0
 10
4.633551514342212
 20
1.658415947575675
 30
0.0
 10
4.627232812344008
 20
1.66512512983515
 30
0.0
  0
LWPOLYLINE
  5
69
330
1F
100
AcDbEntity
  8
0
  6
Continuous
 62
     7
370
    25
100
AcDbPolyline
 90
        3
 70
   128
 43
0.0
 10
4.6045794792
 20
1.6814182728
 10
2.8125160322
 20
2.684971559
 10
2.4626483425
 20
2.8808959779
  0
SPLINE
  5
6A
330
1F
100
AcDbEntity
  8
0
  6
Continuous
 62
     7
370
    25
100
AcDbSpline
210
0.0
220
0.0
230
1.0
 70
     8
 71
     3
 72
    11
 73
     7
 74
     0
 42
0.00000001
 43
0.00000001
 40
0.0
 40
0.0
 40
0.0
 40
0.0
 40
0.2703723769540705
 40
0.5491247572058018
 40
0.8309674854779169
 40
1.0
 40
1.0
 40
1.0
 40
1.0
 10
4.634420850080741
 20
1.125767690045389
 30
0.0
 10
4.639011809289139
 20
1.13039861395865
 30
0.0
 10
4.648336021285403
 20
1.1398039940428
 30
0.0
 10
4.657541684166443
 20
1.156774864968547
 30
0.0
 10
4.662645851483363
 20
1.172429961783636
 30
0.0
 10
4.662668753124596
 20
1.182106811173558
 30
0.0
 10
4.662677338918707
 20
1.185734648831916
 30
0.0
  0
SPLINE
  5
6B
330
1F
100
AcDbEntity
  8
0
  6
Continuous
 62
     7
370
    25
100
AcDbSpline
210
0.0
220
0.0
230
1.0
 70
     8
 71
     3
 72
    11
 73
     7
 74
     0
 42
0.00000001
 43
0.00000001
 40
0.0
 40
0.0
 40
0.0
 40
0.0
 40
0.2257246784689863
 40
0.4672795309551784
 40
0.7250825088088001
 40
1.0
 40
1.0
 40
1.0
 40
1.0
 10
0.5518212955096274
 20
1.850597744877972
 30
0.0
 10
0.5821513750087697
 20
1.86497107893313
 30
0.0
 10
0.6449385962303058
 20
1.894725755475859
 30
0.0
 10
0.7605369817581534
 20
1.907123809890875
 30
0.0
 10
0.8958806306510793
 20
1.891913461665848
 30
0.0
 10
0.9966153752808629
 20
1.851790740811567
 30
0.0
 10
1.048600881524056
 20
1.83108487648313
 30
0.0
  0
SPLINE
  5
6C
330
1F
100
AcDbEntity
  8
0
  6
Continuous
 62
     7
370
    25
100
AcDbSpline
210
0.0
220
0.0
230
1.0
 70
     8
 71
     3
 72
     9
 73
     5
 74
     0
 42
0.00000001
 43
0.00000001
 40
0.0
 40
0.0
 40
0.0
 40
0.0
 40
0.7899834699721997
 40
0.9999999999999999
 40
0.9999999999999999
 40
0.9999999999999999
 40
0.9999999999999999
 10
-0.3361388479795013
 20
3.546495874639015
 30
0.0
 10
-0.3554032052824513
 20
3.519639265665791
 30
0.0
 10
-0.3797889779412486
 20
3.485642846760759
 30
0.0
 10
-0.3841497230895796
 20
3.449168830829016
 30
0.0
 10
-0.3850655516539673
 20
3.441508684566851
 30
0.0
  0
LWPOLYLINE
  5
6E
330
1F
100
AcDbEntity
  8
0
  6
Continuous
 62
     7
370
    25
100
AcDbPolyline
 90
        3
 70
   128
 43
0.0
 10
0.5433880847
 20
-4.3215799448
 10
0.9543704318
 20
-1.17254602
 10
1.3294489227
 20
1.7031848814
  0
SPLINE
  5
6F
330
1F
100
AcDbEntity
  8
0
  6
Continuous
 62
     7
370
    25
100
AcDbSpline
210
0.0
220
0.0
230
1.0
 70
     8
 71
     3
 72
    11
 73
     7
 74
     0
 42
0.00000001
 43
0.00000001
 40
0.0
 40
0.0
 40
0.0
 40
0.0
 40
0.2495489237421543
 40
0.4993143265040026
 40
0.7495086044517375
 40
1.0
 40
1.0
 40
1.0
 40
1.0
 10
-0.5844739699479615
 20
-4.946217718417612
 30
0.0
 10
-0.5789678885445628
 20
-4.94867301287833
 30
0.0
 10
-0.5679509493152236
 20
-4.953585731721744
 30
0.0
 10
-0.5469645306265976
 20
-4.955677733904547
 30
0.0
 10
-0.5259341430988485
 20
-4.953531211999958
 30
0.0
 10
-0.514982231142311
 20
-4.948512370670679
 30
0.0
 10
-0.5095030256145007
 20
-4.946001460862081
 30
0.0
  0
SPLINE
  5
78
330
1F
100
AcDbEntity
  8
0
  6
Continuous
 62
     7
370
    25
100
AcDbSpline
210
0.0
220
0.0
230
1.0
 70
     8
 71
     3
 72
    11
 73
     7
 74
     0
 42
0.00000001
 43
0.00000001
 40
0.0
 40
0.0
 40
0.0
 40
0.0
 40
0.2985293904692581
 40
0.6090972229410367
 40
0.928286833533893
 40
1.0
 40
1.0
 40
1.0
 40
1.0
 10
0.5223756442652558
 20
-4.350310584467553
 30
0.0
 10
0.5253806843657257
 20
-4.348337842237611
 30
0.0
 10
0.531511945268196
 20
-4.344312805332712
 30
0.0
 10
0.5381243639116033
 20
-4.336208547604785
 30
0.0
 10
0.5419619270308942
 20
-4.329449937887254
 30
0.0
 10
0.5424486223238628
 20
-4.325420428010181
 30
0.0
 10
0.5425379091302283
 20
-4.324681193270625
 30
0.0
  0
LWPOLYLINE
  5
7E
330
1F
100
AcDbEntity
  8
0
  6
Continuous
 62
     7
370
    25
100
AcDbPolyline
 90
        3
 70
   128
 43
0.0
 10
0.9945516318
 20
3.2251644054
 10
1.5464406717
 20
3.0291112848
 10
2.2161628797
 20
2.7911959692
  0
SPLINE
  5
7F
330
1F
100
AcDbEntity
  8
0
  6
Continuous
 62
     7
370
    25
100
AcDbSpline
210
0.0
220
0.0
230
1.0
 70
     8
 71
     3
 72
    21
 73
    17
 74
     0
 42
0.00000001
 43
0.00000001
 40
0.0
 40
0.0
 40
0.0
 40
0.0
 40
0.1174238059642936
 40
0.2017638048995485
 40
0.2607089098162371
 40
0.3194128780940973
 40
0.3802907583117974
 40
0.4451881159893171
 40
0.5110886364232906
 40
0.5609905034763537
 40
0.6098000927095016
 40
0.6748571793328629
 40
0.7382495846338869
 40
0.7981000574110265
 40
0.8825341376453251
 40
0.9999999999999999
 40
0.9999999999999999
 40
0.9999999999999999
 40
0.9999999999999999
 10
2.244584417986508
 20
2.790959279797346
 30
0.0
 10
2.28180809654319
 20
2.805193417582421
 30
0.0
 10
2.345767793269743
 20
2.829651267295235
 30
0.0
 10
2.425095055118892
 20
2.863656150118923
 30
0.0
 10
2.485144151295202
 20
2.890901712999592
 30
0.0
 10
2.537009762022531
 20
2.915722589196951
 30
0.0
 10
2.589306153363405
 20
2.942105774371056
 30
0.0
 10
2.642160151133042
 20
2.970305933187672
 30
0.0
 10
2.690469399640403
 20
2.997636060060988
 30
0.0
 10
2.733195183289725
 20
3.023112819041906
 30
0.0
 10
2.774621361710373
 20
3.048947356649264
 30
0.0
 10
2.818049054223782
 20
3.077485479372715
 30
0.0
 10
2.862454754310499
 20
3.108454139381418
 30
0.0
 10
2.909509043319006
 20
3.143284730919333
 30
0.0
 10
2.966335402822357
 20
3.188047343085881
 30
0.0
 10
3.006155473626709
 20
3.223694235645408
 30
0.0
 10
3.029322884652576
 20
3.24443368173477
 30
0.0
  0
LWPOLYLINE
  5
82
330
1F
100
AcDbEntity
  8
0
  6
Continuous
 62
     7
370
    25
100
AcDbPolyline
 90
        3
 70
   128
 43
0.0
 10
3.0143762727
 20
3.4067872224
 10
2.2535045826
 20
3.8016341618
 10
1.5941024365
 20
4.1438321045
  0
SPLINE
  5
85
330
1F
100
AcDbEntity
  8
0
  6
Continuous
 62
     7
370
    25
100
AcDbSpline
210
0.0
220
0.0
230
1.0
 70
     8
 71
     3
 72
    11
 73
     7
 74
     0
 42
0.00000001
 43
0.00000001
 40
0.0
 40
0.0
 40
0.0
 40
0.0
 40
0.1909596359605827
 40
0.4597471916430372
 40
0.7291485980450546
 40
0.9999999999999999
 40
0.9999999999999999
 40
0.9999999999999999
 40
0.9999999999999999
 10
0.6654242138085769
 20
3.216309791099492
 30
0.0
 10
0.6832217929330946
 20
3.225429604674685
 30
0.0
 10
0.7260705707880681
 20
3.247386122649868
 30
0.0
 10
0.8049917241769966
 20
3.258514066249734
 30
0.0
 10
0.8977992411631538
 20
3.254553888121887
 30
0.0
 10
0.9636467171233539
 20
3.234467127467664
 30
0.0
 10
0.9966588197966467
 20
3.224396791506845
 30
0.0
  0
LWPOLYLINE
  5
87
330
1F
100
AcDbEntity
  8
0
  6
Continuous
 62
     7
370
    25
100
AcDbPolyline
 90
        3
 70
   128
 43
0.0
 10
-0.3162815884
 20
4.0695936286
 10
-0.3432591477
 20
3.8394986155
 10
-0.3607676762
 20
3.6902384946
  0
SPLINE
  5
89
330
1F
100
AcDbEntity
  8
0
  6
Continuous
 62
     7
370
    25
100
AcDbSpline
210
0.0
220
0.0
230
1.0
 70
     8
 71
     3
 72
    26
 73
    22
 74
     0
 42
0.00000001
 43
0.00000001
 40
0.0
 40
0.0
 40
0.0
 40
0.0
 40
0.0763350228448335
 40
0.1346857743350559
 40
0.1758812560774802
 40
0.2313681692204832
 40
0.2881153838914162
 40
0.3455171964203874
 40
0.4026117295519989
 40
0.4598025071928919
 40
0.5172370123819311
 40
0.5743626108685855
 40
0.6320059825956607
 40
0.6904256397989513
 40
0.7504519958056747
 40
0.7994984823443506
 40
0.8466919746498492
 40
0.8770365735432453
 40
0.9152767806261484
 40
0.9628341112505879
 40
0.9999999999999999
 40
0.9999999999999999
 40
0.9999999999999999
 40
0.9999999999999999
 10
1.095438633680035
 20
4.400242202532469
 30
0.0
 10
1.06429260074177
 20
4.416874574162199
 30
0.0
 10
1.009338434129646
 20
4.446220787322209
 30
0.0
 10
0.9212772991066627
 20
4.474666077523765
 30
0.0
 10
0.8387261940899866
 20
4.494840140540177
 30
0.0
 10
0.7517011390892803
 20
4.509289600660796
 30
0.0
 10
0.6506500152446418
 20
4.518045032467693
 30
0.0
 10
0.5454264988164661
 20
4.519387463805245
 30
0.0
 10
0.4386278420327328
 20
4.513193818571836
 30
0.0
 10
0.3324469754590998
 20
4.499519759970671
 30
0.0
 10
0.2288082521446624
 20
4.478672832250683
 30
0.0
 10
0.1293770471594081
 20
4.450885120183921
 30
0.0
 10
0.0356894440475994
 20
4.416508699591634
 30
0.0
 10
-0.051476267634615
 20
4.375552099260646
 30
0.0
 10
-0.1247862015202702
 20
4.331244710009838
 30
0.0
 10
-0.1838808699900241
 20
4.28619416612793
 30
0.0
 10
-0.2245849426830872
 20
4.246953699036663
 30
0.0
 10
-0.2561111943477385
 20
4.209566931849141
 30
0.0
 10
-0.2822104429088371
 20
4.170416759923842
 30
0.0
 10
-0.3037694976085687
 20
4.127528042936365
 30
0.0
 10
-0.3095184754424181
 20
4.097345278323534
 30
0.0
 10
-0.3120404035770524
 20
4.084104878819826
 30
0.0
  0
SPLINE
  5
8A
330
1F
100
AcDbEntity
  8
0
  6
Continuous
 62
     7
370
    25
100
AcDbSpline
210
0.0
220
0.0
230
1.0
 70
     8
 71
     3
 72
    12
 73
     8
 74
     0
 42
0.00000001
 43
0.00000001
 40
0.0
 40
0.0
 40
0.0
 40
0.0
 40
0.2484679649092281
 40
0.4967997413746797
 40
0.7465798626479245
 40
0.8731764334018457
 40
1.0
 40
1.0
 40
1.0
 40
1.0
 10
0.4183873432134874
 20
2.949290083320921
 30
0.0
 10
0.4219831880119273
 20
2.947787739168897
 30
0.0
 10
0.4291729066806546
 20
2.944783874318739
 30
0.0
 10
0.4430296865005576
 20
2.943619299568888
 30
0.0
 10
0.4544307128581993
 20
2.94505917780941
 30
0.0
 10
0.4626335899748331
 20
2.947600152018711
 30
0.0
 10
0.4660643343537088
 20
2.949394947365895
 30
0.0
 10
0.4677812430522906
 20
2.950293148864884
 30
0.0
  0
SPLINE
  5
8D
330
1F
100
AcDbEntity
  8
0
  6
Continuous
 62
     7
370
    25
100
AcDbSpline
210
0.0
220
0.0
230
1.0
 70
     8
 71
     3
 72
     9
 73
     5
 74
     0
 42
0.00000001
 43
0.00000001
 40
0.0
 40
0.0
 40
0.0
 40
0.0
 40
0.4019177937372424
 40
0.9999999999999999
 40
0.9999999999999999
 40
0.9999999999999999
 40
0.9999999999999999
 10
0.0078200813335829
 20
3.194472047470198
 30
0.0
 10
0.0334677223926538
 20
3.177169416759157
 30
0.0
 10
0.0972808738846189
 20
3.134119243363868
 30
0.0
 10
0.1608020526034949
 20
3.091099950356519
 30
0.0
 10
0.1987929393160913
 20
3.06537087668282
 30
0.0
  0
SPLINE
  5
8E
330
1F
100
AcDbEntity
  8
0
  6
Continuous
 62
     7
370
    25
100
AcDbSpline
210
0.0
220
0.0
230
1.0
 70
     8
 71
     3
 72
     9
 73
     5
 74
     0
 42
0.00000001
 43
0.00000001
 40
0.0
 40
0.0
 40
0.0
 40
0.0
 40
0.500363659549421
 40
0.9999999999999999
 40
0.9999999999999999
 40
0.9999999999999999
 40
0.9999999999999999
 10
1.597090894126461
 20
4.142289974070994
 30
0.0
 10
1.513416514391521
 20
4.185299853957172
 30
0.0
 10
1.346189382408577
 20
4.271257095386154
 30
0.0
 10
1.17913801825026
 20
4.357183277633302
 30
0.0
 10
1.095673085994921
 20
4.400115120880156
 30
0.0
  0
SPLINE
  5
90
330
1F
100
AcDbEntity
  8
0
  6
Continuous
 62
     7
370
    25
100
AcDbSpline
210
0.0
220
0.0
230
1.0
 70
     8
 71
     3
 72
    10
 73
     6
 74
     0
 42
0.00000001
 43
0.00000001
 40
0.0
 40
0.0
 40
0.0
 40
0.0
 40
0.2978180603019398
 40
0.8219553135166241
 40
1.0
 40
1.0
 40
1.0
 40
1.0
 10
0.7885126828666776
 20
3.0862702061177
 30
0.0
 10
0.8043111425363607
 20
3.091777521108158
 30
0.0
 10
0.8479136959131065
 20
3.106977293798328
 30
0.0
 10
0.8956147905097954
 20
3.130058212630785
 30
0.0
 10
0.9267561820669343
 20
3.147521214232028
 30
0.0
 10
0.9346523682018711
 20
3.151949118838188
 30
0.0
  0
SPLINE
  5
91
330
1F
100
AcDbEntity
  8
0
  6
Continuous
 62
     7
370
    25
100
AcDbSpline
210
0.0
220
0.0
230
1.0
 70
     8
 71
     3
 72
    11
 73
     7
 74
     0
 42
0.00000001
 43
0.00000001
 40
0.0
 40
0.0
 40
0.0
 40
0.0
 40
0.2509512375853319
 40
0.5422383745051995
 40
0.8357789574005526
 40
1.0
 40
1.0
 40
1.0
 40
1.0
 10
-0.3287863387365418
 20
3.302450279454032
 30
0.0
 10
-0.3198757259511081
 20
3.287660789722922
 30
0.0
 10
-0.3006222795879441
 20
3.255704665701693
 30
0.0
 10
-0.2571879390041772
 20
3.210660655184896
 30
0.0
 10
-0.2118747360547376
 20
3.1727815028627
 30
0.0
 10
-0.1778491837783145
 20
3.152882224156602
 30
0.0
 10
-0.1656425868102607
 20
3.145743398807141
 30
0.0
  0
SPLINE
  5
92
330
1F
100
AcDbEntity
  8
0
  6
Continuous
 62
     7
370
    25
100
AcDbSpline
210
0.0
220
0.0
230
1.0
 70
     8
 71
     3
 72
     9
 73
     5
 74
     0
 42
0.00000001
 43
0.00000001
 40
0.0
 40
0.0
 40
0.0
 40
0.0
 40
0.3630950744882056
 40
1.0
 40
1.0
 40
1.0
 40
1.0
 10
0.9346523682018711
 20
3.151949118838189
 30
0.0
 10
0.9465462032431733
 20
3.159027405389887
 30
0.0
 10
0.9793030095922172
 20
3.178521711562108
 30
0.0
 10
1.006998895461095
 20
3.200486711665054
 30
0.0
 10
1.024638541587396
 20
3.214476328419487
 30
0.0
  0
SPLINE
  5
93
330
1F
100
AcDbEntity
  8
0
  6
Continuous
 62
     7
370
    25
100
AcDbSpline
210
0.0
220
0.0
230
1.0
 70
     8
 71
     3
 72
    17
 73
    13
 74
     0
 42
0.00000001
 43
0.00000001
 40
0.0
 40
0.0
 40
0.0
 40
0.0
 40
0.2500000000000003
 40
0.2500000000000003
 40
0.3750000000000003
 40
0.3750000000000003
 40
0.5000000000000003
 40
0.6250000000000003
 40
0.6250000000000003
 40
0.7500000000000003
 40
0.7500000000000003
 40
1.0
 40
1.0
 40
1.0
 40
1.0
 10
3.675736444393876
 20
1.159194182424164
 30
0.0
 10
3.720463290501604
 20
1.175606931766093
 30
0.0
 10
3.764687456285447
 20
1.192827543440215
 30
0.0
 10
3.831077485363794
 20
1.220458548220935
 30
0.0
 10
3.853239135743779
 20
1.229980881921678
 30
0.0
 10
3.897601610352156
 20
1.249663706230313
 30
0.0
 10
3.941912549661851
 20
1.269936750530437
 30
0.0
 10
3.985165111851357
 20
1.290939184375908
 30
0.0
 10
4.027410832219341
 20
1.312080787775241
 30
0.0
 10
4.04798048419056
 20
1.322700296925439
 30
0.0
 10
4.108060145103977
 20
1.35467981879536
 30
0.0
 10
4.146040433649962
 20
1.376202580587197
 30
0.0
 10
4.182725804729396
 20
1.398153697674402
 30
0.0
  0
SPLINE
  5
94
330
1F
100
AcDbEntity
  8
0
  6
Continuous
 62
     7
370
    25
100
AcDbSpline
210
0.0
220
0.0
230
1.0
 70
     8
 71
     3
 72
    25
 73
    21
 74
     0
 42
0.00000001
 43
0.00000001
 40
0.0
 40
0.0
 40
0.0
 40
0.0
 40
0.0373798347226817
 40
0.0757528725126351
 40
0.1150832683645964
 40
0.1553257370633822
 40
0.1964252649518076
 40
0.2383170229185171
 40
0.2809265118939056
 40
0.3241699648090535
 40
0.3679550186916672
 40
0.4121816577507113
 40
0.4567434137223557
 40
0.501528794528386
 40
0.6135750640251376
 40
0.7506891733366556
 40
0.8158235424234571
 40
0.8792428339343749
 40
0.9406997663374833
 40
0.9999999999999999
 40
0.9999999999999999
 40
0.9999999999999999
 40
0.9999999999999999
 10
4.18272580472941
 20
1.398153697674192
 30
0.0
 10
4.18439610047869
 20
1.397223376873837
 30
0.0
 10
4.187781072667363
 20
1.395338016130324
 30
0.0
 10
4.1929193382962
 20
1.392020539367906
 30
0.0
 10
4.198156275688103
 20
1.388285763253693
 30
0.0
 10
4.203463014143121
 20
1.384093392052
 30
0.0
 10
4.208805502305789
 20
1.379452276411728
 30
0.0
 10
4.214146688459638
 20
1.37436589375501
 30
0.0
 10
4.219446594703565
 20
1.368848204830371
 30
0.0
 10
4.224663190315437
 20
1.362919768790019
 30
0.0
 10
4.229753284342849
 20
1.356608930101316
 30
0.0
 10
4.234673455092671
 20
1.349951552486767
 30
0.0
 10
4.239381577111375
 20
1.342989638464542
 30
0.0
 10
4.246064850901078
 20
1.332164711190576
 30
0.0
 10
4.254683223633744
 20
1.315635551906705
 30
0.0
 10
4.261597705301838
 20
1.29736347784677
 30
0.0
 10
4.265650347441336
 20
1.282117092783671
 30
0.0
 10
4.267696703795085
 20
1.271405752900136
 30
0.0
 10
4.268928662869592
 20
1.261277218763889
 30
0.0
 10
4.269081866527373
 20
1.254961614367862
 30
0.0
 10
4.269157100262981
 20
1.251860209883088
 30
0.0
  0
SPLINE
  5
95
330
1F
100
AcDbEntity
  8
0
  6
Continuous
 62
     7
370
    25
100
AcDbSpline
210
0.0
220
0.0
230
1.0
 70
     8
 71
     3
 72
     8
 73
     4
 74
     0
 42
0.00000001
 43
0.00000001
 40
0.0
 40
0.0
 40
0.0
 40
0.0
 40
1.0
 40
1.0
 40
1.0
 40
1.0
 10
3.797571833005069
 20
1.024819059794151
 30
0.0
 10
3.968169670959771
 20
1.090577835012249
 30
0.0
 10
4.126702123379277
 20
1.166902084907416
 30
0.0
 10
4.269157135778071
 20
1.251860189380934
 30
0.0
  0
SPLINE
  5
96
330
1F
100
AcDbEntity
  8
0
  6
Continuous
 62
     7
370
    25
100
AcDbSpline
210
0.0
220
0.0
230
1.0
 70
     8
 71
     3
 72
    14
 73
    10
 74
     0
 42
0.00000001
 43
0.00000001
 40
0.0
 40
0.0
 40
0.0
 40
0.0
 40
0.25
 40
0.25
 40
0.5
 40
0.5
 40
0.75
 40
0.75
 40
1.0
 40
1.0
 40
1.0
 40
1.0
 10
3.797571834284631
 20
1.024819058622109
 30
0.0
 10
3.791746320572914
 20
1.03255246536606
 30
0.0
 10
3.784945584924599
 20
1.041187422222771
 30
0.0
 10
3.7697302287669
 20
1.059829375850367
 30
0.0
 10
3.761335935227893
 20
1.069818906852144
 30
0.0
 10
3.743564911922328
 20
1.090431520346304
 30
0.0
 10
3.734182302274879
 20
1.101060742517177
 30
0.0
 10
3.715363371980154
 20
1.121826289687222
 30
0.0
 10
3.705926501518294
 20
1.13195977732014
 30
0.0
 10
3.697176491221471
 20
1.141003571590222
 30
0.0
  0
SPLINE
  5
97
330
1F
100
AcDbEntity
  8
0
  6
Continuous
 62
     7
370
    25
100
AcDbSpline
210
0.0
220
0.0
230
1.0
 70
     8
 71
     3
 72
     8
 73
     4
 74
     0
 42
0.00000001
 43
0.00000001
 40
0.0
 40
0.0
 40
0.0
 40
0.0
 40
1.0
 40
1.0
 40
1.0
 40
1.0
 10
3.697176169547237
 20
1.141003904136135
 30
0.0
 10
3.689501717458024
 20
1.148939283796735
 30
0.0
 10
3.682235775329782
 20
1.154851261022019
 30
0.0
 10
3.675736444393876
 20
1.159194182424164
 30
0.0
  0
LWPOLYLINE
  5
98
330
1F
100
AcDbEntity
  8
0
  6
Continuous
 62
     7
370
    25
100
AcDbPolyline
 90
       10
 70
   128
 43
0.0
 10
-0.1186019278
 20
3.1096494311
 10
0.4231831159
 20
2.8311470435
 10
0.941349175
 20
2.5647862571
 10
1.4337287927
 20
2.311681212
 10
1.8914573868
 20
2.0763886463
 10
2.3101232485
 20
1.861176319
 10
2.6870925382
 20
1.6673980715
 10
3.0359636091
 20
1.488063713
 10
3.3633093418
 20
1.3197944688
 10
3.6757364444
 20
1.1591941824
  0
SPLINE
  5
99
330
1F
100
AcDbEntity
  8
0
  6
Continuous
 62
     7
370
    25
100
AcDbSpline
210
0.0
220
0.0
230
1.0
 70
     8
 71
     3
 72
    10
 73
     6
 74
     0
 42
0.00000001
 43
0.00000001
 40
0.0
 40
0.0
 40
0.0
 40
0.0
 40
0.3938414903581604
 40
0.8109085922270503
 40
1.0
 40
1.0
 40
1.0
 40
1.0
 10
0.9189667645154557
 20
3.144058911465028
 30
0.0
 10
0.8842299296816558
 20
3.125725099625398
 30
0.0
 10
0.8127077601715728
 20
3.087976294806713
 30
0.0
 10
0.7077803742177152
 20
3.052620947433884
 30
0.0
 10
0.6389131273246649
 20
3.040471011482153
 30
0.0
 10
0.6174299600386877
 20
3.036680833736695
 30
0.0
  0
SPLINE
  5
9A
330
1F
100
AcDbEntity
  8
0
  6
Continuous
 62
     7
370
    25
100
AcDbSpline
210
0.0
220
0.0
230
1.0
 70
     8
 71
     3
 72
    11
 73
     7
 74
     0
 42
0.00000001
 43
0.00000001
 40
0.0
 40
0.0
 40
0.0
 40
0.0
 40
0.1033201147216886
 40
0.4012774113155601
 40
0.7005188160188461
 40
1.0
 40
1.0
 40
1.0
 40
1.0
 10
0.2940868371916739
 20
3.014999114822201
 30
0.0
 10
0.2767944374986436
 20
3.015487895072599
 30
0.0
 10
0.2096337553512735
 20
3.017386232817482
 30
0.0
 10
0.0986271181973663
 20
3.038732145344999
 30
0.0
 10
-0.0339155556446362
 20
3.076386841825556
 30
0.0
 10
-0.1060128780546719
 20
3.114362325683379
 30
0.0
 10
-0.1420759761994596
 20
3.133357671913739
 30
0.0
  0
LWPOLYLINE
  5
9D
330
1F
100
AcDbEntity
  8
0
  6
Continuous
 62
     7
370
    25
100
AcDbPolyline
 90
       10
 70
   128
 43
0.0
 10
-0.1547204191
 20
3.0412026997
 10
0.387060756
 20
2.7627217075
 10
0.9052246566
 20
2.4963804449
 10
1.3975914419
 20
2.2432993437
 10
1.8553212156
 20
2.0080221594
 10
2.2740038551
 20
1.7928156951
 10
2.6509781272
 20
1.5990478126
 10
2.9998500704
 20
1.4197248512
 10
3.3272022551
 20
1.2514633248
 10
3.6396283656
 20
1.0908740442
  0
SPLINE
  5
A0
330
1F
100
AcDbEntity
  8
0
  6
Continuous
 62
     7
370
    25
100
AcDbSpline
210
0.0
220
0.0
230
1.0
 70
     8
 71
     3
 72
    20
 73
    16
 74
     0
 42
0.00000001
 43
0.00000001
 40
0.0
 40
0.0
 40
0.0
 40
0.0
 40
0.0340873408257329
 40
0.0698922691854041
 40
0.1073811942648263
 40
0.1465480415214485
 40
0.1873854387279401
 40
0.2820983592262771
 40
0.3930304944060536
 40
0.521052607287527
 40
0.6545468130704771
 40
0.751089101713025
 40
0.8408028247599054
 40
0.9236997180064161
 40
1.0
 40
1.0
 40
1.0
 40
1.0
 10
3.653000517440907
 20
1.08189826485718
 30
0.0
 10
3.654385156282601
 20
1.08093899406107
 30
0.0
 10
3.657224202928773
 20
1.078972116883817
 30
0.0
 10
3.661811663018604
 20
1.075975176284978
 30
0.0
 10
3.666777428031102
 20
1.072863907866844
 30
0.0
 10
3.672141454988553
 20
1.069656226225667
 30
0.0
 10
3.680351802197476
 20
1.064976301604159
 30
0.0
 10
3.692436877561106
 20
1.058624917741279
 30
0.0
 10
3.709431075580491
 20
1.050667841830312
 30
0.0
 10
3.728737639043643
 20
1.0427902355305
 30
0.0
 10
3.747146764220427
 20
1.036452269151474
 30
0.0
 10
3.763082504810828
 20
1.031811933595468
 30
0.0
 10
3.775996488340974
 20
1.028646295163195
 30
0.0
 10
3.787453633209584
 20
1.026318201660605
 30
0.0
 10
3.794293575553677
 20
1.02530477527455
 30
0.0
 10
3.797571834284631
 20
1.024819058622109
 30
0.0
  0
SPLINE
  5
A2
330
1F
100
AcDbEntity
  8
0
  6
Continuous
 62
     7
370
    25
100
AcDbSpline
210
0.0
220
0.0
230
1.0
 70
     8
 71
     3
 72
    25
 73
    21
 74
     0
 42
0.00000001
 43
0.00000001
 40
0.0
 40
0.0
 40
0.0
 40
0.0
 40
0.0427823802846977
 40
0.0861414686500155
 40
0.1300596213902286
 40
0.1745161843940432
 40
0.2194893146595141
 40
0.2649583266575388
 40
0.3109151665737186
 40
0.3573656343539828
 40
0.40431349090152
 40
0.451760677690298
 40
0.4997092479779188
 40
0.5558418085043224
 40
0.6170901993557446
 40
0.6834628985265756
 40
0.7549729603956301
 40
0.8316302231505098
 40
0.9133573655230529
 40
1.0
 40
1.0
 40
1.0
 40
1.0
 10
3.797474686208827
 20
0.66238075990859
 30
0.0
 10
3.795563072645141
 20
0.6616947817712474
 30
0.0
 10
3.791714076895688
 20
0.6603135784857062
 30
0.0
 10
3.785659929685496
 20
0.6584592214854891
 30
0.0
 10
3.779372678426593
 20
0.6567607057155113
 30
0.0
 10
3.772851431909712
 20
0.6552476028093087
 30
0.0
 10
3.766121374818281
 20
0.6539290456855437
 30
0.0
 10
3.759202011683413
 20
0.6528208980257657
 30
0.0
 10
3.752116565715971
 20
0.651936012375037
 30
0.0
 10
3.744889770205212
 20
0.6512832557206932
 30
0.0
 10
3.737546863832194
 20
0.6508720946768884
 30
0.0
 10
3.730114841772834
 20
0.6507121829037656
 30
0.0
 10
3.72222287177312
 20
0.6508183391009863
 30
0.0
 10
3.713672813926008
 20
0.6512670823706762
 30
0.0
 10
3.704301091557258
 20
0.6521751649858024
 30
0.0
 10
3.694369378025792
 20
0.6536314411374825
 30
0.0
 10
3.684011488085769
 20
0.6557358787238695
 30
0.0
 10
3.673437753707837
 20
0.6586057522998261
 30
0.0
 10
3.662784748059337
 20
0.6622676179533616
 30
0.0
 10
3.656242759775878
 20
0.6653448310389888
 30
0.0
 10
3.652876270194419
 20
0.6669283566192594
 30
0.0
  0
LWPOLYLINE
  5
A3
330
1F
100
AcDbEntity
  8
0
  6
Continuous
 62
     7
370
    25
100
AcDbPolyline
 90
        3
 70
   128
 43
0.0
 10
3.6528762654
 20
0.6669283537
 10
3.6529431537
 20
0.8912414009
 10
3.6530005174
 20
1.0818982649
  0
LWPOLYLINE
  5
A4
330
1F
100
AcDbEntity
  8
0
  6
Continuous
 62
     7
370
    25
100
AcDbPolyline
 90
        5
 70
   128
 43
0.0
 10
-0.5885282263
 20
-4.937247781
 10
-0.7539127289
 20
-4.8447967573
 10
-0.8998895532
 20
-4.7631915779
 10
-1.0009603382
 20
-4.7066883075
 10
-1.0900376219
 20
-4.6568886648
  0
SPLINE
  5
A6
330
1F
100
AcDbEntity
  8
0
  6
Continuous
 62
     7
370
    25
100
AcDbSpline
210
0.0
220
0.0
230
1.0
 70
     8
 71
     3
 72
     8
 73
     4
 74
     0
 42
0.00000001
 43
0.00000001
 40
0.0
 40
0.0
 40
0.0
 40
0.0
 40
1.0
 40
1.0
 40
1.0
 40
1.0
 10
3.639628365570074
 20
1.090874044163157
 30
0.0
 10
3.643691118123912
 20
1.088785874567693
 30
0.0
 10
3.648181177962841
 20
1.085914933095358
 30
0.0
 10
3.653000517437854
 20
1.08189826485534
 30
0.0
  0
LWPOLYLINE
  5
A7
330
1F
100
AcDbEntity
  8
0
  6
Continuous
 62
     7
370
    25
100
AcDbPolyline
 90
        8
 70
   128
 43
0.0
 10
3.6528762654
 20
0.6669283537
 10
3.183190433
 20
0.8807368634
 10
2.7460857091
 20
1.0797308065
 10
2.3444116634
 20
1.2626092409
 10
1.9778620164
 20
1.4295081066
 10
1.6288465359
 20
1.588434094
 10
1.3141468028
 20
1.731743352
 10
1.0321349415
 20
1.8601744263
  0
SPLINE
  5
A8
330
1F
100
AcDbEntity
  8
0
  6
Continuous
 62
     7
370
    25
100
AcDbSpline
210
0.0
220
0.0
230
1.0
 70
     8
 71
     3
 72
    34
 73
    30
 74
     0
 42
0.00000001
 43
0.00000001
 40
0.0
 40
0.0
 40
0.0
 40
0.0
 40
0.0624999999999998
 40
0.0624999999999998
 40
0.1249999999999997
 40
0.1249999999999997
 40
0.1874999999999995
 40
0.1874999999999995
 40
0.2499999999999993
 40
0.2499999999999993
 40
0.3124999999999992
 40
0.3124999999999992
 40
0.374999999999999
 40
0.374999999999999
 40
0.4999999999999991
 40
0.4999999999999991
 40
0.6249999999999992
 40
0.6249999999999992
 40
0.6874999999999992
 40
0.6874999999999992
 40
0.7499999999999993
 40
0.7499999999999993
 40
0.8124999999999993
 40
0.8124999999999993
 40
0.8749999999999996
 40
0.8749999999999996
 40
0.9374999999999997
 40
0.9374999999999997
 40
1.0
 40
1.0
 40
1.0
 40
1.0
 10
1.032134941485279
 20
1.860174426339775
 30
0.0
 10
1.005692474702035
 20
1.87221686105532
 30
0.0
 10
0.9806326308816911
 20
1.882364848979766
 30
0.0
 10
0.9336405593007805
 20
1.89939944285687
 30
0.0
 10
0.9115732623263605
 20
1.906344359534554
 30
0.0
 10
0.8685449178122855
 20
1.918077179163958
 30
0.0
 10
0.8475081771592536
 20
1.922855120242014
 30
0.0
 10
0.8054578363854972
 20
1.930447423786793
 30
0.0
 10
0.7844810317824806
 20
1.933221505904833
 30
0.0
 10
0.7430777759503508
 20
1.936592474846008
 30
0.0
 10
0.7227238021047515
 20
1.937176612024959
 30
0.0
 10
0.6829258984086578
 20
1.9361708601008
 30
0.0
 10
0.663476162884609
 20
1.934584513122583
 30
0.0
 10
0.6064302364120954
 20
1.926630051795095
 30
0.0
 10
0.5701174549923675
 20
1.917095245222459
 30
0.0
 10
0.5015452632850103
 20
1.889687885865272
 30
0.0
 10
0.4693069708818502
 20
1.871794288471441
 30
0.0
 10
0.4248198063322319
 20
1.838463576316744
 30
0.0
 10
0.4106337438553096
 20
1.82626412513672
 30
0.0
 10
0.3837536451631371
 20
1.799714320910536
 30
0.0
 10
0.3710487856380375
 20
1.785346498996556
 30
0.0
 10
0.3472051540897447
 20
1.754282099899387
 30
0.0
 10
0.3361264897583784
 20
1.737683019750689
 30
0.0
 10
0.3158909143750892
 20
1.702433290285964
 30
0.0
 10
0.3066718501653237
 20
1.6837681150942
 30
0.0
 10
0.2897941894614965
 20
1.642961264918972
 30
0.0
 10
0.2820853778231552
 20
1.620815182813318
 30
0.0
 10
0.2685147245135497
 20
1.570447367411593
 30
0.0
 10
0.2626136895344132
 20
1.542065027936127
 30
0.0
 10
0.2584219124706021
 20
1.510179205845916
 30
0.0
  0
SPLINE
  5
AA
330
1F
100
AcDbEntity
  8
0
  6
Continuous
 62
     7
370
    25
100
AcDbSpline
210
0.0
220
0.0
230
1.0
 70
     8
 71
     3
 72
    26
 73
    22
 74
     0
 42
0.00000001
 43
0.00000001
 40
0.0
 40
0.0
 40
0.0
 40
0.0
 40
0.0544680766893848
 40
0.1087320594408782
 40
0.1627919547603808
 40
0.2166477692281846
 40
0.2702995095001007
 40
0.3237471823086089
 40
0.3769907944640294
 40
0.4300303528557153
 40
0.4828658644532701
 40
0.5354973363077876
 40
0.5879247755531158
 40
0.6401481894071459
 40
0.692167585173126
 40
0.7439829702410004
 40
0.795594352088776
 40
0.8470017382839152
 40
0.8982051364847567
 40
0.9492045544419633
 40
1.0
 40
1.0
 40
1.0
 40
1.0
 10
4.645079357590747
 20
1.51405379346247
 30
0.0
 10
4.63921262557789
 20
1.508913093413832
 30
0.0
 10
4.627501144418322
 20
1.498650955713547
 30
0.0
 10
4.609538912935176
 20
1.483433162876777
 30
0.0
 10
4.591336841836309
 20
1.468381839626092
 30
0.0
 10
4.572870500924074
 20
1.453508185063242
 30
0.0
 10
4.554154493312985
 20
1.438810249862491
 30
0.0
 10
4.535192986518065
 20
1.424289506157225
 30
0.0
 10
4.515992890647074
 20
1.409946433873001
 30
0.0
 10
4.496560345478717
 20
1.395781697733819
 30
0.0
 10
4.476901654239967
 20
1.381795834942364
 30
0.0
 10
4.457023033945253
 20
1.367989339010446
 30
0.0
 10
4.436930676608745
 20
1.354362640451605
 30
0.0
 10
4.416630744266886
 20
1.340916106066047
 30
0.0
 10
4.39612932018452
 20
1.327650066264902
 30
0.0
 10
4.375432599974583
 20
1.314564712541
 30
0.0
 10
4.35454617225288
 20
1.301660483612674
 30
0.0
 10
4.333477682820134
 20
1.288936636753082
 30
0.0
 10
4.312226944856525
 20
1.276396552493672
 30
0.0
 10
4.290822623287467
 20
1.264028059301899
 30
0.0
 10
4.276369340576156
 20
1.255910707389434
 30
0.0
 10
4.269157179669949
 20
1.251860164042683
 30
0.0
  0
SPLINE
  5
AC
330
1F
100
AcDbEntity
  8
0
  6
Continuous
 62
     7
370
    25
100
AcDbSpline
210
0.0
220
0.0
230
1.0
 70
     8
 71
     3
 72
    47
 73
    43
 74
     0
 42
0.00000001
 43
0.00000001
 40
0.0
 40
0.0
 40
0.0
 40
0.0
 40
0.0249979632969587
 40
0.0499962251734715
 40
0.0749947944900177
 40
0.0999936831085081
 40
0.1249929015538966
 40
0.1499924430360656
 40
0.1749922942554276
 40
0.199992440113503
 40
0.2249928649381949
 40
0.2499935537090208
 40
0.274994493282271
 40
0.2999956736161552
 40
0.3249970861250757
 40
0.3499987007943658
 40
0.3750004725067927
 40
0.4000023528226707
 40
0.4250042913170819
 40
0.4500062368330587
 40
0.4750081387347395
 40
0.5000099481605651
 40
0.525011619276543
 40
0.5500131148217432
 40
0.5750144211924152
 40
0.6000155281130882
 40
0.6250164219977573
 40
0.6500170871733484
 40
0.6750175071064525
 40
0.7000176656301536
 40
0.725017548170941
 40
0.7500171442360816
 40
0.7750164614869867
 40
0.8000155159189277
 40
0.8250143205914761
 40
0.850012886601845
 40
0.8750112242901117
 40
0.900009344444522
 40
0.9250072596462702
 40
0.9500049902182632
 40
0.9750025623960761
 40
0.9999999999999999
 40
0.9999999999999999
 40
0.9999999999999999
 40
0.9999999999999999
 10
4.645151602827172
 20
1.15173446504229
 30
0.0
 10
4.639768496113568
 20
1.146974337363501
 30
0.0
 10
4.629002218389695
 20
1.137454025150218
 30
0.0
 10
4.612489776241141
 20
1.123277785185115
 30
0.0
 10
4.595714019328033
 20
1.109180043989717
 30
0.0
 10
4.578650758420761
 20
1.095169980374634
 30
0.0
 10
4.561309049990775
 20
1.081247443617011
 30
0.0
 10
4.543689334846865
 20
1.067414699964867
 30
0.0
 10
4.525794430505131
 20
1.053673352103666
 30
0.0
 10
4.507626519381501
 20
1.040025182011594
 30
0.0
 10
4.489187954017106
 20
1.026471923896841
 30
0.0
 10
4.47048104192236
 20
1.013015324535534
 30
0.0
 10
4.451508100164294
 20
0.9996571283485236
 30
0.0
 10
4.432271452922315
 20
0.9863990772712365
 30
0.0
 10
4.412773396699959
 20
0.9732429329477763
 30
0.0
 10
4.393016514240393
 20
0.9601903571123602
 30
0.0
 10
4.373003471376623
 20
0.9472429856024753
 30
0.0
 10
4.352736917210797
 20
0.9344024639558615
 30
0.0
 10
4.33221950603395
 20
0.9216704356573648
 30
0.0
 10
4.311453890600347
 20
0.9090485448273558
 30
0.0
 10
4.290442724276507
 20
0.8965384353088813
 30
0.0
 10
4.269188659160412
 20
0.8841417516238456
 30
0.0
 10
4.247694350237662
 20
0.871860135366093
 30
0.0
 10
4.225962430404216
 20
0.8596952329666047
 30
0.0
 10
4.203995799691858
 20
0.8476485501914648
 30
0.0
 10
4.181797367999929
 20
0.8357215757010097
 30
0.0
 10
4.159370037488184
 20
0.8239157998150639
 30
0.0
 10
4.13671671157898
 20
0.8122327122019127
 30
0.0
 10
4.113840293822776
 20
0.8006738024348585
 30
0.0
 10
4.090743685731695
 20
0.7892405613618614
 30
0.0
 10
4.067429796202908
 20
0.7779344748876224
 30
0.0
 10
4.043901499993908
 20
0.7667570446312367
 30
0.0
 10
4.020161830732687
 20
0.7557096690293656
 30
0.0
 10
3.996213898256448
 20
0.7447936883021422
 30
0.0
 10
3.972060794677081
 20
0.734010447616549
 30
0.0
 10
3.947705589319817
 20
0.7233613112693907
 30
0.0
 10
3.923151455860453
 20
0.7128475602954706
 30
0.0
 10
3.898401173090013
 20
0.7024707898653099
 30
0.0
 10
3.873458992975828
 20
0.6922314214006178
 30
0.0
 10
3.84832366969867
 20
0.6821342471452594
 30
0.0
 10
3.823014857517447
 20
0.672167454282873
 30
0.0
 10
3.805987991900531
 20
0.6656430493983013
 30
0.0
 10
3.797474582008076
 20
0.6623808557370385
 30
0.0
  0
SPLINE
  5
AD
330
1F
100
AcDbEntity
  8
0
  6
Continuous
 62
     7
370
    25
100
AcDbSpline
210
0.0
220
0.0
230
1.0
 70
     8
 71
     3
 72
    17
 73
    13
 74
     0
 42
0.00000001
 43
0.00000001
 40
0.0
 40
0.0
 40
0.0
 40
0.0
 40
0.2500000000000007
 40
0.2500000000000007
 40
0.3750000000000005
 40
0.3750000000000005
 40
0.5000000000000003
 40
0.6250000000000001
 40
0.6250000000000001
 40
0.75
 40
0.75
 40
1.0
 40
1.0
 40
1.0
 40
1.0
 10
4.576979910114364
 20
1.679470921831357
 30
0.0
 10
4.550336020847256
 20
1.654649332719049
 30
0.0
 10
4.522253808440428
 20
1.63011365760146
 30
0.0
 10
4.477011981280945
 20
1.593295857133909
 30
0.0
 10
4.46139219502597
 20
1.581008586041564
 30
0.0
 10
4.429050077911039
 20
1.556416869652452
 30
0.0
 10
4.395683119298893
 20
1.531857137610792
 30
0.0
 10
4.360995128367279
 20
1.507877295119885
 30
0.0
 10
4.326010946613403
 20
1.484445357832288
 30
0.0
 10
4.308404105878653
 20
1.473030240985682
 30
0.0
 10
4.255285638807473
 20
1.439670898546238
 30
0.0
 10
4.219409376497504
 20
1.418558882662683
 30
0.0
 10
4.182725804729396
 20
1.398153697674402
 30
0.0
  0
SPLINE
  5
AE
330
1F
100
AcDbEntity
  8
0
  6
Continuous
 62
     7
370
    25
100
AcDbSpline
210
0.0
220
0.0
230
1.0
 70
     8
 71
     3
 72
    13
 73
     9
 74
     0
 42
0.00000001
 43
0.00000001
 40
0.0
 40
0.0
 40
0.0
 40
0.0
 40
0.1802959740282168
 40
0.3551628651978769
 40
0.5246243511001665
 40
0.6886226839551663
 40
0.8470967376016009
 40
1.0
 40
1.0
 40
1.0
 40
1.0
 10
4.57697990657536
 20
1.679471161875801
 30
0.0
 10
4.578576000451289
 20
1.678753063990269
 30
0.0
 10
4.581720126531505
 20
1.67733849162451
 30
0.0
 10
4.586357449152691
 20
1.674933104717432
 30
0.0
 10
4.590832551316256
 20
1.672394648077681
 30
0.0
 10
4.595135965450201
 20
1.669724500191475
 30
0.0
 10
4.599264652640996
 20
1.666970940409233
 30
0.0
 10
4.601934101633426
 20
1.665022903873496
 30
0.0
 10
4.603244946832213
 20
1.664066311577791
 30
0.0
  0
SPLINE
  5
AF
330
1F
100
AcDbEntity
  8
0
  6
Continuous
 62
     7
370
    25
100
AcDbSpline
210
0.0
220
0.0
230
1.0
 70
     8
 71
     3
 72
    14
 73
    10
 74
     0
 42
0.00000001
 43
0.00000001
 40
0.0
 40
0.0
 40
0.0
 40
0.0
 40
0.25
 40
0.25
 40
0.5
 40
0.5
 40
0.75
 40
0.75
 40
1.0
 40
1.0
 40
1.0
 40
1.0
 10
4.603247930995752
 20
1.664064090470431
 30
0.0
 10
4.613896725740762
 20
1.656132849784219
 30
0.0
 10
4.62311518035083
 20
1.645830872839795
 30
0.0
 10
4.6376106276382
 20
1.622559082943476
 30
0.0
 10
4.642943307938515
 20
1.609599296003668
 30
0.0
 10
4.64977311388422
 20
1.582661847744322
 30
0.0
 10
4.651276603737302
 20
1.568673622214961
 30
0.0
 10
4.650755561643594
 20
1.540996058725707
 30
0.0
 10
4.648736409516649
 20
1.527330603293617
 30
0.0
 10
4.64507904390169
 20
1.514053906879724
 30
0.0
  0
SPLINE
  5
B0
330
1F
100
AcDbEntity
  8
0
  6
Continuous
 62
     7
370
    25
100
AcDbSpline
210
0.0
220
0.0
230
1.0
 70
     8
 71
     3
 72
     9
 73
     5
 74
     0
 42
0.00000001
 43
0.00000001
 40
0.0
 40
0.0
 40
0.0
 40
0.0
 40
0.0713188368535084
 40
1.0
 40
1.0
 40
1.0
 40
1.0
 10
1.02337010359741
 20
3.216032074582959
 30
0.0
 10
1.021662144162324
 20
3.214179792194286
 30
0.0
 10
0.997713920797524
 20
3.188207938608415
 30
0.0
 10
0.9602151843217552
 20
3.16695633966305
 30
0.0
 10
0.9253908141149143
 20
3.147220380035748
 30
0.0
  0
SPLINE
  5
B7
330
1F
100
AcDbEntity
  8
0
  6
Continuous
 62
     7
370
    25
100
AcDbSpline
210
0.0
220
0.0
230
1.0
 70
     8
 71
     3
 72
    10
 73
     6
 74
     0
 42
0.00000001
 43
0.00000001
 40
0.0
 40
0.0
 40
0.0
 40
0.0
 40
0.3419872407808628
 40
0.9522191956201351
 40
1.0
 40
1.0
 40
1.0
 40
1.0
 10
-0.3867208055332966
 20
3.438775846548871
 30
0.0
 10
-0.3889424160143866
 20
3.434064186189516
 30
0.0
 10
-0.3951282027719707
 20
3.42094517792717
 30
0.0
 10
-0.3967853714360922
 20
3.406730877713994
 30
0.0
 10
-0.3975225794433094
 20
3.397442572412509
 30
0.0
 10
-0.3975761109152858
 20
3.396768113304516
 30
0.0
  0
SPLINE
  5
B8
330
1F
100
AcDbEntity
  8
0
  6
Continuous
 62
     7
370
    25
100
AcDbSpline
210
0.0
220
0.0
230
1.0
 70
     8
 71
     3
 72
    19
 73
    15
 74
     0
 42
0.00000001
 43
0.00000001
 40
0.0
 40
0.0
 40
0.0
 40
0.0
 40
0.0742460187473374
 40
0.1495831702819094
 40
0.2262020249290757
 40
0.3042837688117843
 40
0.3839996134827748
 40
0.465510473789542
 40
0.5489668819642693
 40
0.6345090996836594
 40
0.7222673879344182
 40
0.8123623959322619
 40
0.9049056339778134
 40
0.9999999999999999
 40
0.9999999999999999
 40
0.9999999999999999
 40
0.9999999999999999
 10
0.9250055300356758
 20
3.147504124433915
 30
0.0
 10
0.9262285663217277
 20
3.148189599210616
 30
0.0
 10
0.9286926128541085
 20
3.149570622624089
 30
0.0
 10
0.9321511559961975
 20
3.151537254295308
 30
0.0
 10
0.9354496431303927
 20
3.153442901834927
 30
0.0
 10
0.9385565126957411
 20
3.155277397199175
 30
0.0
 10
0.9414635189209608
 20
3.157041092219137
 30
0.0
 10
0.944155904965397
 20
3.158730712580711
 30
0.0
 10
0.9466208570543562
 20
3.160343299474688
 30
0.0
 10
0.9488445352158277
 20
3.161874797079218
 30
0.0
 10
0.9508156696673903
 20
3.163321561200133
 30
0.0
 10
0.9525141451491865
 20
3.164675480595912
 30
0.0
 10
0.9539549944206399
 20
3.165942539044747
 30
0.0
 10
0.954653882231929
 20
3.166684307526201
 30
0.0
 10
0.9550080771901591
 20
3.167060234323122
 30
0.0
  0
SPLINE
  5
B9
330
1F
100
AcDbEntity
  8
0
  6
Continuous
 62
     7
370
    25
100
AcDbSpline
210
0.0
220
0.0
230
1.0
 70
     8
 71
     3
 72
    11
 73
     7
 74
     0
 42
0.00000001
 43
0.00000001
 40
0.0
 40
0.0
 40
0.0
 40
0.0
 40
0.2108063970151313
 40
0.4944317308744411
 40
0.7597269154241941
 40
1.0
 40
1.0
 40
1.0
 40
1.0
 10
-1.126925669589568
 20
-4.63052298768394
 30
0.0
 10
-1.156989348863873
 20
-4.610817608673756
 30
0.0
 10
-1.227501615998641
 20
-4.564600013811853
 30
0.0
 10
-1.295248337914775
 20
-4.477399235613213
 30
0.0
 10
-1.336664284673009
 20
-4.381595461028565
 30
0.0
 10
-1.33468467086358
 20
-4.318656051750723
 30
0.0
 10
-1.333743852490854
 20
-4.288743877802935
 30
0.0
  0
SPLINE
  5
BA
330
1F
100
AcDbEntity
  8
0
  6
Continuous
 62
     7
370
    25
100
AcDbSpline
210
0.0
220
0.0
230
1.0
 70
     8
 71
     3
 72
    22
 73
    18
 74
     0
 42
0.00000001
 43
0.00000001
 40
0.0
 40
0.0
 40
0.0
 40
0.0
 40
0.0517980731024939
 40
0.1042076318019812
 40
0.157213395584296
 40
0.2108206159292081
 40
0.2650270067135562
 40
0.319829881543136
 40
0.3752275835177139
 40
0.431219212093686
 40
0.4910371329857345
 40
0.558004498517616
 40
0.6321149500283872
 40
0.7133656843118333
 40
0.8017461159529304
 40
0.8973111059682773
 40
1.0
 40
1.0
 40
1.0
 40
1.0
 10
-0.5055565046776457
 20
-4.939145116852206
 30
0.0
 10
-0.5067057861452747
 20
-4.939776605312608
 30
0.0
 10
-0.5090179165555805
 20
-4.941047037068608
 30
0.0
 10
-0.5128342461433006
 20
-4.942729173072124
 30
0.0
 10
-0.516908545190783
 20
-4.944240106215927
 30
0.0
 10
-0.5212454052643987
 20
-4.945546380795295
 30
0.0
 10
-0.5258138490458186
 20
-4.94663602700859
 30
0.0
 10
-0.5305884039276789
 20
-4.947492247274212
 30
0.0
 10
-0.5355379236332029
 20
-4.948100624508609
 30
0.0
 10
-0.5407266959091458
 20
-4.948455925607006
 30
0.0
 10
-0.5463223595736478
 20
-4.948526859228857
 30
0.0
 10
-0.5524846467791509
 20
-4.948235867027355
 30
0.0
 10
-0.5592403868822229
 20
-4.947467135277166
 30
0.0
 10
-0.5664717010253101
 20
-4.946101124568239
 30
0.0
 10
-0.5739818645624282
 20
-4.944006590972763
 30
0.0
 10
-0.5816068484268708
 20
-4.941122678714519
 30
0.0
 10
-0.5861664861508825
 20
-4.938569989052129
 30
0.0
 10
-0.5885282262868429
 20
-4.937247781018237
 30
0.0
  0
LWPOLYLINE
  5
BB
330
1F
100
AcDbEntity
  8
0
  6
Continuous
 62
     7
370
    25
100
AcDbPolyline
 90
        9
 70
   128
 43
0.0
 10
0.3406969047
 20
1.504280208
 10
0.2237034558
 20
0.6139925867
 10
0.1079236723
 20
-0.2672409217
 10
-0.0054134144
 20
-1.1300404595
 10
-0.1182924466
 20
-1.9895060741
 10
-0.2094845334
 20
-2.6839521727
 10
-0.3046837932
 20
-3.4090016725
 10
-0.4036113171
 20
-4.1625346343
 10
-0.5055565047
 20
-4.9391451169
  0
SPLINE
  5
BF
330
1F
100
AcDbEntity
  8
0
  6
Continuous
 62
     7
370
    25
100
AcDbSpline
210
0.0
220
0.0
230
1.0
 70
     8
 71
     3
 72
     8
 73
     4
 74
     0
 42
0.00000001
 43
0.00000001
 40
0.6470588235294118
 40
0.6470588235294118
 40
0.6470588235294118
 40
0.6470588235294118
 40
0.7058823529411765
 40
0.7058823529411765
 40
0.7058823529411765
 40
0.7058823529411765
 10
0.0149239161349273
 20
-4.461391840472602
 30
0.0
 10
0.0134233536433033
 20
-4.472855055429649
 30
0.0
 10
0.004834333773391
 20
-4.483028419002582
 30
0.0
 10
-0.004224427903701
 20
-4.488257930805479
 30
0.0
  0
SPLINE
  5
C0
330
1F
100
AcDbEntity
  8
0
  6
Continuous
 62
     7
370
    25
100
AcDbSpline
210
0.0
220
0.0
230
1.0
 70
     8
 71
     3
 72
     8
 73
     4
 74
     0
 42
0.00000001
 43
0.00000001
 40
0.5882352941176471
 40
0.5882352941176471
 40
0.5882352941176471
 40
0.5882352941176471
 40
0.6470588235294118
 40
0.6470588235294118
 40
0.6470588235294118
 40
0.6470588235294118
 10
-0.004224427903701
 20
-4.488257930805479
 30
0.0
 10
-0.0101039929504147
 20
-4.491652131459355
 30
0.0
 10
-0.0141300411189426
 20
-4.491601375075552
 30
0.0
 10
-0.0178526493206971
 20
-4.489783029810398
 30
0.0
  0
SPLINE
  5
C2
330
1F
100
AcDbEntity
  8
0
  6
Continuous
 62
     7
370
    25
100
AcDbSpline
210
0.0
220
0.0
230
1.0
 70
     8
 71
     3
 72
     8
 73
     4
 74
     0
 42
0.00000001
 43
0.00000001
 40
0.4705882352941177
 40
0.4705882352941177
 40
0.4705882352941177
 40
0.4705882352941177
 40
0.5294117647058824
 40
0.5294117647058824
 40
0.5294117647058824
 40
0.5294117647058824
 10
-0.0303327335101513
 20
-4.503691101493573
 30
0.0
 10
-0.0251690140230812
 20
-4.507397205452673
 30
0.0
 10
-0.0194373137058845
 20
-4.509202157119038
 30
0.0
 10
-0.005153199948911
 20
-4.500956113769105
 30
0.0
  0
SPLINE
  5
C3
330
1F
100
AcDbEntity
  8
0
  6
Continuous
 62
     7
370
    25
100
AcDbSpline
210
0.0
220
0.0
230
1.0
 70
     8
 71
     3
 72
     8
 73
     4
 74
     0
 42
0.00000001
 43
0.00000001
 40
0.411764705882353
 40
0.411764705882353
 40
0.411764705882353
 40
0.411764705882353
 40
0.4705882352941177
 40
0.4705882352941177
 40
0.4705882352941177
 40
0.4705882352941177
 10
-0.0051531999489113
 20
-4.500956113769105
 30
0.0
 10
0.0066421206490565
 20
-4.494146820127789
 30
0.0
 10
0.0249413106296044
 20
-4.475497714021144
 30
0.0
 10
0.0275422081267066
 20
-4.455628733384258
 30
0.0
  0
SPLINE
  5
C7
330
1F
100
AcDbEntity
  8
0
  6
Continuous
 62
     7
370
    25
100
AcDbSpline
210
0.0
220
0.0
230
1.0
 70
     8
 71
     3
 72
     8
 73
     4
 74
     0
 42
0.00000001
 43
0.00000001
 40
0.1764705882352941
 40
0.1764705882352941
 40
0.1764705882352941
 40
0.1764705882352941
 40
0.2352941176470588
 40
0.2352941176470588
 40
0.2352941176470588
 40
0.2352941176470588
 10
0.0173342227105683
 20
-4.437257843827278
 30
0.0
 10
0.0160142081458973
 20
-4.447341802866442
 30
0.0
 10
0.0100288261403291
 20
-4.45704910443757
 30
0.0
 10
-0.0005527206127638
 20
-4.463157701352989
 30
0.0
  0
SPLINE
  5
C8
330
1F
100
AcDbEntity
  8
0
  6
Continuous
 62
     7
370
    25
100
AcDbSpline
210
0.0
220
0.0
230
1.0
 70
     8
 71
     3
 72
     8
 73
     4
 74
     0
 42
0.00000001
 43
0.00000001
 40
0.1176470588235294
 40
0.1176470588235294
 40
0.1176470588235294
 40
0.1176470588235294
 40
0.1764705882352941
 40
0.1764705882352941
 40
0.1764705882352941
 40
0.1764705882352941
 10
-0.000552720612764
 20
-4.463157701352989
 30
0.0
 10
-0.0089600532079901
 20
-4.46801115115163
 30
0.0
 10
-0.0148964675982324
 20
-4.467199933987434
 30
0.0
 10
-0.0134730060453729
 20
-4.456325714583309
 30
0.0
  0
SPLINE
  5
CC
330
1F
100
AcDbEntity
  8
0
  6
Continuous
 62
     7
370
    25
100
AcDbSpline
210
0.0
220
0.0
230
1.0
 70
     8
 71
     3
 72
     8
 73
     4
 74
     0
 42
0.00000001
 43
0.00000001
 40
0.8823529411764707
 40
0.8823529411764707
 40
0.8823529411764707
 40
0.8823529411764707
 40
0.9411764705882354
 40
0.9411764705882354
 40
0.9411764705882354
 40
0.9411764705882354
 10
-0.0270487800686221
 20
-4.463642980981372
 30
0.0
 10
-0.0294447207988589
 20
-4.48194623977156
 30
0.0
 10
-0.0193234114006082
 20
-4.48615580476678
 30
0.0
 10
-0.0051896274317686
 20
-4.477996544956296
 30
0.0
  0
SPLINE
  5
CD
330
1F
100
AcDbEntity
  8
0
  6
Continuous
 62
     7
370
    25
100
AcDbSpline
210
0.0
220
0.0
230
1.0
 70
     8
 71
     3
 72
     8
 73
     4
 74
     0
 42
0.00000001
 43
0.00000001
 40
0.823529411764706
 40
0.823529411764706
 40
0.823529411764706
 40
0.823529411764706
 40
0.8823529411764707
 40
0.8823529411764707
 40
0.8823529411764707
 40
0.8823529411764707
 10
-0.0051896274317686
 20
-4.477996544956296
 30
0.0
 10
0.0035907457487853
 20
-4.472927743411637
 30
0.0
 10
0.0089348236236042
 20
-4.467352811731996
 30
0.0
 10
0.0150916453361252
 20
-4.458085554030664
 30
0.0
  0
SPLINE
  5
CE
330
1F
100
AcDbEntity
  8
0
  6
Continuous
 62
     7
370
    25
100
AcDbSpline
210
0.0
220
0.0
230
1.0
 70
     8
 71
     3
 72
     8
 73
     4
 74
     0
 42
0.00000001
 43
0.00000001
 40
0.6363636363636365
 40
0.6363636363636365
 40
0.6363636363636365
 40
0.6363636363636365
 40
0.7272727272727274
 40
0.7272727272727274
 40
0.7272727272727274
 40
0.7272727272727274
 10
-0.1169988901488035
 20
-4.50113982377376
 30
0.0
 10
-0.1162259435516472
 20
-4.495235069361333
 30
0.0
 10
-0.1113072428972744
 20
-4.488781161021719
 30
0.0
 10
-0.1063213049244046
 20
-4.48590284029676
 30
0.0
  0
SPLINE
  5
CF
330
1F
100
AcDbEntity
  8
0
  6
Continuous
 62
     7
370
    25
100
AcDbSpline
210
0.0
220
0.0
230
1.0
 70
     8
 71
     3
 72
     8
 73
     4
 74
     0
 42
0.00000001
 43
0.00000001
 40
0.5454545454545455
 40
0.5454545454545455
 40
0.5454545454545455
 40
0.5454545454545455
 40
0.6363636363636365
 40
0.6363636363636365
 40
0.6363636363636365
 40
0.6363636363636365
 10
-0.1063213049244046
 20
-4.48590284029676
 30
0.0
 10
-0.1050100951057535
 20
-4.485145894980487
 30
0.0
 10
-0.1026011719462533
 20
-4.484515892154166
 30
0.0
 10
-0.1014222518836156
 20
-4.484828524453311
 30
0.0
  0
SPLINE
  5
D1
330
1F
100
AcDbEntity
  8
0
  6
Continuous
 62
     7
370
    25
100
AcDbSpline
210
0.0
220
0.0
230
1.0
 70
     8
 71
     3
 72
     8
 73
     4
 74
     0
 42
0.00000001
 43
0.00000001
 40
0.3636363636363636
 40
0.3636363636363636
 40
0.3636363636363636
 40
0.3636363636363636
 40
0.4545454545454546
 40
0.4545454545454546
 40
0.4545454545454546
 40
0.4545454545454546
 10
-0.0948028042085351
 20
-4.468213142688362
 30
0.0
 10
-0.0964745152179815
 20
-4.468067339765934
 30
0.0
 10
-0.0989828115607743
 20
-4.468768390065867
 30
0.0
 10
-0.1020200300579375
 20
-4.470521738983198
 30
0.0
  0
SPLINE
  5
D2
330
1F
100
AcDbEntity
  8
0
  6
Continuous
 62
     7
370
    25
100
AcDbSpline
210
0.0
220
0.0
230
1.0
 70
     8
 71
     3
 72
     8
 73
     4
 74
     0
 42
0.00000001
 43
0.00000001
 40
0.2727272727272727
 40
0.2727272727272727
 40
0.2727272727272727
 40
0.2727272727272727
 40
0.3636363636363636
 40
0.3636363636363636
 40
0.3636363636363636
 40
0.3636363636363636
 10
-0.1020200300579375
 20
-4.470521738983198
 30
0.0
 10
-0.1074847962448105
 20
-4.4736764813523
 30
0.0
 10
-0.1126585819141425
 20
-4.479916480458472
 30
0.0
 10
-0.1155977078293683
 20
-4.486562826890573
 30
0.0
  0
SPLINE
  5
DB
330
1F
100
AcDbEntity
  8
0
  6
Continuous
 62
     7
370
    25
100
AcDbSpline
210
0.0
220
0.0
230
1.0
 70
     8
 71
     3
 72
     8
 73
     4
 74
     0
 42
0.00000001
 43
0.00000001
 40
0.3333333333333333
 40
0.3333333333333333
 40
0.3333333333333333
 40
0.3333333333333333
 40
0.4444444444444444
 40
0.4444444444444444
 40
0.4444444444444444
 40
0.4444444444444444
 10
0.1055565376846778
 20
-4.384473102068808
 30
0.0
 10
0.1088780771219866
 20
-4.359098936866962
 30
0.0
 10
0.0906582161605237
 20
-4.359290955055088
 30
0.0
 10
0.0774431142302239
 20
-4.366919871013408
 30
0.0
  0
SPLINE
  5
DC
330
1F
100
AcDbEntity
  8
0
  6
Continuous
 62
     7
370
    25
100
AcDbSpline
210
0.0
220
0.0
230
1.0
 70
     8
 71
     3
 72
     8
 73
     4
 74
     0
 42
0.00000001
 43
0.00000001
 40
0.2222222222222222
 40
0.2222222222222222
 40
0.2222222222222222
 40
0.2222222222222222
 40
0.3333333333333333
 40
0.3333333333333333
 40
0.3333333333333333
 40
0.3333333333333333
 10
0.0774431142302233
 20
-4.366919871013407
 30
0.0
 10
0.0553251481809178
 20
-4.379688301029996
 30
0.0
 10
0.0402435290513911
 20
-4.404171151598853
 30
0.0
 10
0.0379890046158722
 20
-4.421394091912587
 30
0.0
  0
SPLINE
  5
DD
330
1F
100
AcDbEntity
  8
0
  6
Continuous
 62
     7
370
    25
100
AcDbSpline
210
0.0
220
0.0
230
1.0
 70
     8
 71
     3
 72
     8
 73
     4
 74
     0
 42
0.00000001
 43
0.00000001
 40
0.1111111111111111
 40
0.1111111111111111
 40
0.1111111111111111
 40
0.1111111111111111
 40
0.2222222222222222
 40
0.2222222222222222
 40
0.2222222222222222
 40
0.2222222222222222
 10
0.0379890046158717
 20
-4.421394091912586
 30
0.0
 10
0.0357406792508062
 20
-4.438569675799945
 30
0.0
 10
0.0463512188158216
 20
-4.448242647747072
 30
0.0
 10
0.0684691848651272
 20
-4.435474217730483
 30
0.0
  0
SPLINE
  5
DE
330
1F
100
AcDbEntity
  8
0
  6
Continuous
 62
     7
370
    25
100
AcDbSpline
210
0.0
220
0.0
230
1.0
 70
     8
 71
     3
 72
     8
 73
     4
 74
     0
 42
0.00000001
 43
0.00000001
 40
0.0
 40
0.0
 40
0.0
 40
0.0
 40
0.1111111111111111
 40
0.1111111111111111
 40
0.1111111111111111
 40
0.1111111111111111
 10
0.0684691848651274
 20
-4.435474217730483
 30
0.0
 10
0.0798735559343064
 20
-4.428781170000263
 30
0.0
 10
0.0911564431592841
 20
-4.416803683786247
 30
0.0
 10
0.100025665481936
 20
-4.402602437657835
 30
0.0
  0
SPLINE
  5
E0
330
1F
100
AcDbEntity
  8
0
  6
Continuous
 62
     7
370
    25
100
AcDbSpline
210
0.0
220
0.0
230
1.0
 70
     8
 71
     3
 72
     8
 73
     4
 74
     0
 42
0.00000001
 43
0.00000001
 40
0.7777777777777779
 40
0.7777777777777779
 40
0.7777777777777779
 40
0.7777777777777779
 40
0.8888888888888891
 40
0.8888888888888891
 40
0.8888888888888891
 40
0.8888888888888891
 10
0.0893540883056323
 20
-4.402675160615011
 30
0.0
 10
0.0837815098181901
 20
-4.411824030777459
 30
0.0
 10
0.0770312418909843
 20
-4.419078085944926
 30
0.0
 10
0.0696845694675534
 20
-4.42331922965969
 30
0.0
  0
SPLINE
  5
E1
330
1F
100
AcDbEntity
  8
0
  6
Continuous
 62
     7
370
    25
100
AcDbSpline
210
0.0
220
0.0
230
1.0
 70
     8
 71
     3
 72
     8
 73
     4
 74
     0
 42
0.00000001
 43
0.00000001
 40
0.6666666666666667
 40
0.6666666666666667
 40
0.6666666666666667
 40
0.6666666666666667
 40
0.7777777777777779
 40
0.7777777777777779
 40
0.7777777777777779
 40
0.7777777777777779
 10
0.0696845694675536
 20
-4.423319229659691
 30
0.0
 10
0.0601274923816952
 20
-4.428836412824811
 30
0.0
 10
0.0520364033364101
 20
-4.426948840566694
 30
0.0
 10
0.052567459438133
 20
-4.417446198668659
 30
0.0
  0
SPLINE
  5
E2
330
1F
100
AcDbEntity
  8
0
  6
Continuous
 62
     7
370
    25
100
AcDbSpline
210
0.0
220
0.0
230
1.0
 70
     8
 71
     3
 72
     8
 73
     4
 74
     0
 42
0.00000001
 43
0.00000001
 40
0.5
 40
0.5
 40
0.5
 40
0.5
 40
0.625
 40
0.625
 40
0.625
 40
0.625
 10
0.1413234544070779
 20
-4.393416343150948
 30
0.0
 10
0.1533888118466851
 20
-4.386451160559142
 30
0.0
 10
0.1649624127526421
 20
-4.37366833500026
 30
0.0
 10
0.1718232643707197
 20
-4.361264010510012
 30
0.0
  0
SPLINE
  5
E4
330
1F
100
AcDbEntity
  8
0
  6
Continuous
 62
     7
370
    25
100
AcDbSpline
210
0.0
220
0.0
230
1.0
 70
     8
 71
     3
 72
     8
 73
     4
 74
     0
 42
0.00000001
 43
0.00000001
 40
0.25
 40
0.25
 40
0.25
 40
0.25
 40
0.375
 40
0.375
 40
0.375
 40
0.375
 10
0.1608248376466358
 20
-4.360904322452877
 30
0.0
 10
0.1563998214169117
 20
-4.36891463567667
 30
0.0
 10
0.1504897420646179
 20
-4.375962743646197
 30
0.0
 10
0.1430456336674106
 20
-4.380260135951338
 30
0.0
  0
SPLINE
  5
E5
330
1F
100
AcDbEntity
  8
0
  6
Continuous
 62
     7
370
    25
100
AcDbSpline
210
0.0
220
0.0
230
1.0
 70
     8
 71
     3
 72
     8
 73
     4
 74
     0
 42
0.00000001
 43
0.00000001
 40
0.125
 40
0.125
 40
0.125
 40
0.125
 40
0.25
 40
0.25
 40
0.25
 40
0.25
 10
0.1430456336674103
 20
-4.380260135951338
 30
0.0
 10
0.1310916316263901
 20
-4.387161034439864
 30
0.0
 10
0.1236828335969788
 20
-4.382715320004698
 30
0.0
 10
0.1252109044637403
 20
-4.371041960905656
 30
0.0
  0
SPLINE
  5
E6
330
1F
100
AcDbEntity
  8
0
  6
Continuous
 62
     7
370
    25
100
AcDbSpline
210
0.0
220
0.0
230
1.0
 70
     8
 71
     3
 72
     8
 73
     4
 74
     0
 42
0.00000001
 43
0.00000001
 40
0.0
 40
0.0
 40
0.0
 40
0.0
 40
0.125
 40
0.125
 40
0.125
 40
0.125
 10
0.1252109044637403
 20
-4.371041960905656
 30
0.0
 10
0.1267420748657284
 20
-4.359344923593418
 30
0.0
 10
0.1365027295346678
 20
-4.344998439537054
 30
0.0
 10
0.1484400282658911
 20
-4.338107183664024
 30
0.0
  0
SPLINE
  5
E8
330
1F
100
AcDbEntity
  8
0
  6
Continuous
 62
     7
370
    25
100
AcDbSpline
210
0.0
220
0.0
230
1.0
 70
     8
 71
     3
 72
     8
 73
     4
 74
     0
 42
0.00000001
 43
0.00000001
 40
0.75
 40
0.75
 40
0.75
 40
0.75
 40
0.875
 40
0.875
 40
0.875
 40
0.875
 10
0.1502973837721732
 20
-4.324861996433872
 30
0.0
 10
0.1281627144130502
 20
-4.337640069065969
 30
0.0
 10
0.1130838791685102
 20
-4.362121312532231
 30
0.0
 10
0.1108293547329913
 20
-4.379344252845965
 30
0.0
  0
SPLINE
  5
E9
330
1F
100
AcDbEntity
  8
0
  6
Continuous
 62
     7
370
    25
100
AcDbSpline
210
0.0
220
0.0
230
1.0
 70
     8
 71
     3
 72
     8
 73
     4
 74
     0
 42
0.00000001
 43
0.00000001
 40
0.625
 40
0.625
 40
0.625
 40
0.625
 40
0.75
 40
0.75
 40
0.75
 40
0.75
 10
0.1108293547329905
 20
-4.379344252845965
 30
0.0
 10
0.1085810293679253
 20
-4.396519836733323
 30
0.0
 10
0.1191887850479541
 20
-4.406194415783045
 30
0.0
 10
0.1413234544070771
 20
-4.393416343150947
 30
0.0
  0
SPLINE
  5
EA
330
1F
100
AcDbEntity
  8
0
  6
Continuous
 62
     7
370
    25
100
AcDbSpline
210
0.0
220
0.0
230
1.0
 70
     8
 71
     3
 72
     8
 73
     4
 74
     0
 42
0.00000001
 43
0.00000001
 40
0.7333333333333333
 40
0.7333333333333333
 40
0.7333333333333333
 40
0.7333333333333333
 40
0.7999999999999999
 40
0.7999999999999999
 40
0.7999999999999999
 40
0.7999999999999999
 10
0.1865971180345888
 20
-4.342277829331391
 30
0.0
 10
0.1848245713268208
 20
-4.355818807495218
 30
0.0
 10
0.1907074469427808
 20
-4.357019362502834
 30
0.0
 10
0.2038361188336549
 20
-4.355771702856158
 30
0.0
  0
SPLINE
  5
ED
330
1F
100
AcDbEntity
  8
0
  6
Continuous
 62
     7
370
    25
100
AcDbSpline
210
0.0
220
0.0
230
1.0
 70
     8
 71
     3
 72
     8
 73
     4
 74
     0
 42
0.00000001
 43
0.00000001
 40
0.5333333333333333
 40
0.5333333333333333
 40
0.5333333333333333
 40
0.5333333333333333
 40
0.6
 40
0.6
 40
0.6
 40
0.6
 10
0.2045403533124563
 20
-4.341230406496835
 30
0.0
 10
0.2007736371955591
 20
-4.341144857576568
 30
0.0
 10
0.1996385948488713
 20
-4.33882595070391
 30
0.0
 10
0.200553732624553
 20
-4.33183495826174
 30
0.0
  0
SPLINE
  5
FC
330
1F
100
AcDbEntity
  8
0
  6
Continuous
 62
     7
370
    25
100
AcDbSpline
210
0.0
220
0.0
230
1.0
 70
     8
 71
     3
 72
     8
 73
     4
 74
     0
 42
0.00000001
 43
0.00000001
 40
0.3636363636363636
 40
0.3636363636363636
 40
0.3636363636363636
 40
0.3636363636363636
 40
0.4545454545454546
 40
0.4545454545454546
 40
0.4545454545454546
 40
0.4545454545454546
 10
0.2742336660615205
 20
-4.262256714981358
 30
0.0
 10
0.2714485501549763
 20
-4.258761680786892
 30
0.0
 10
0.2647651657754328
 20
-4.258781152453703
 30
0.0
 10
0.2553667701325667
 20
-4.264206730771648
 30
0.0
  0
SPLINE
  5
FD
330
1F
100
AcDbEntity
  8
0
  6
Continuous
 62
     7
370
    25
100
AcDbSpline
210
0.0
220
0.0
230
1.0
 70
     8
 71
     3
 72
     8
 73
     4
 74
     0
 42
0.00000001
 43
0.00000001
 40
0.2727272727272727
 40
0.2727272727272727
 40
0.2727272727272727
 40
0.2727272727272727
 40
0.3636363636363636
 40
0.3636363636363636
 40
0.3636363636363636
 40
0.3636363636363636
 10
0.2553667701325667
 20
-4.264206730771648
 30
0.0
 10
0.2347660213893494
 20
-4.276099289880869
 30
0.0
 10
0.219413492588683
 20
-4.301884963865878
 30
0.0
 10
0.2173213063106631
 20
-4.317867757764168
 30
0.0
  0
SPLINE
  5
FE
330
1F
100
AcDbEntity
  8
0
  6
Continuous
 62
     7
370
    25
100
AcDbSpline
210
0.0
220
0.0
230
1.0
 70
     8
 71
     3
 72
     8
 73
     4
 74
     0
 42
0.00000001
 43
0.00000001
 40
0.1818181818181818
 40
0.1818181818181818
 40
0.1818181818181818
 40
0.1818181818181818
 40
0.2727272727272727
 40
0.2727272727272727
 40
0.2727272727272727
 40
0.2727272727272727
 10
0.2173213063106625
 20
-4.317867757764167
 30
0.0
 10
0.2151241232768375
 20
-4.334652651134004
 30
0.0
 10
0.2248734099856934
 20
-4.345183980450119
 30
0.0
 10
0.2456885178712467
 20
-4.333167674442054
 30
0.0
  0
SPLINE
  5
FF
330
1F
100
AcDbEntity
  8
0
  6
Continuous
 62
     7
370
    25
100
AcDbSpline
210
0.0
220
0.0
230
1.0
 70
     8
 71
     3
 72
     8
 73
     4
 74
     0
 42
0.00000001
 43
0.00000001
 40
0.0909090909090909
 40
0.0909090909090909
 40
0.0909090909090909
 40
0.0909090909090909
 40
0.1818181818181818
 40
0.1818181818181818
 40
0.1818181818181818
 40
0.1818181818181818
 10
0.2456885178712464
 20
-4.333167674442054
 30
0.0
 10
0.2543714550780242
 20
-4.328155121487771
 30
0.0
 10
0.2626997550306784
 20
-4.319875171152414
 30
0.0
 10
0.2677912820928285
 20
-4.311471881081506
 30
0.0
  0
SPLINE
  5
104
330
1F
100
AcDbEntity
  8
0
  6
Continuous
 62
     7
370
    25
100
AcDbSpline
210
0.0
220
0.0
230
1.0
 70
     8
 71
     3
 72
     8
 73
     4
 74
     0
 42
0.00000001
 43
0.00000001
 40
0.25
 40
0.25
 40
0.25
 40
0.25
 40
0.5
 40
0.5
 40
0.5
 40
0.5
 10
-0.0712317304636342
 20
-4.516121839516879
 30
0.0
 10
-0.0491304677240854
 20
-4.503363052115763
 30
0.0
 10
-0.0340206940946766
 20
-4.478842059410504
 30
0.0
 10
-0.0317723687296114
 20
-4.461666475523146
 30
0.0
  0
SPLINE
  5
105
330
1F
100
AcDbEntity
  8
0
  6
Continuous
 62
     7
370
    25
100
AcDbSpline
210
0.0
220
0.0
230
1.0
 70
     8
 71
     3
 72
     8
 73
     4
 74
     0
 42
0.00000001
 43
0.00000001
 40
0.0
 40
0.0
 40
0.0
 40
0.0
 40
0.25
 40
0.25
 40
0.25
 40
0.25
 10
-0.0317723687296106
 20
-4.461666475523147
 30
0.0
 10
-0.0295178442940917
 20
-4.444443535209413
 30
0.0
 10
-0.040156538358989
 20
-4.434808705398688
 30
0.0
 10
-0.0622578010985381
 20
-4.447567492799804
 30
0.0
  0
SPLINE
  5
106
330
1F
100
AcDbEntity
  8
0
  6
Continuous
 62
     7
370
    25
100
AcDbSpline
210
0.0
220
0.0
230
1.0
 70
     8
 71
     3
 72
     8
 73
     4
 74
     0
 42
0.00000001
 43
0.00000001
 40
0.75
 40
0.75
 40
0.75
 40
0.75
 40
1.0
 40
1.0
 40
1.0
 40
1.0
 10
-0.0622578010985381
 20
-4.447567492799804
 30
0.0
 10
-0.0844230931922492
 20
-4.460363243560291
 30
0.0
 10
-0.0994880090119783
 20
-4.48483645151365
 30
0.0
 10
-0.1017425334474972
 20
-4.502059391827384
 30
0.0
  0
SPLINE
  5
107
330
1F
100
AcDbEntity
  8
0
  6
Continuous
 62
     7
370
    25
100
AcDbSpline
210
0.0
220
0.0
230
1.0
 70
     8
 71
     3
 72
     8
 73
     4
 74
     0
 42
0.00000001
 43
0.00000001
 40
0.5
 40
0.5
 40
0.5
 40
0.5
 40
0.75
 40
0.75
 40
0.75
 40
0.75
 10
-0.1017425334474978
 20
-4.502059391827384
 30
0.0
 10
-0.1039908588125632
 20
-4.519234975714742
 30
0.0
 10
-0.0933970225573453
 20
-4.528917590277366
 30
0.0
 10
-0.0712317304636342
 20
-4.516121839516879
 30
0.0
  0
SPLINE
  5
110
330
1F
100
AcDbEntity
  8
0
  6
Continuous
 62
     7
370
    25
100
AcDbSpline
210
0.0
220
0.0
230
1.0
 70
     8
 71
     3
 72
     8
 73
     4
 74
     0
 42
0.00000001
 43
0.00000001
 40
0.5454545454545455
 40
0.5454545454545455
 40
0.5454545454545455
 40
0.5454545454545455
 40
0.6363636363636365
 40
0.6363636363636365
 40
0.6363636363636365
 40
0.6363636363636365
 10
-0.1679897993026017
 20
-4.545939513432443
 30
0.0
 10
-0.1496579168060817
 20
-4.535356742927807
 30
0.0
 10
-0.1367641347742059
 20
-4.516459959524143
 30
0.0
 10
-0.1346049210469074
 20
-4.499965124265773
 30
0.0
  0
SPLINE
  5
111
330
1F
100
AcDbEntity
  8
0
  6
Continuous
 62
     7
370
    25
100
AcDbSpline
210
0.0
220
0.0
230
1.0
 70
     8
 71
     3
 72
     8
 73
     4
 74
     0
 42
0.00000001
 43
0.00000001
 40
0.4545454545454546
 40
0.4545454545454546
 40
0.4545454545454546
 40
0.4545454545454546
 40
0.5454545454545455
 40
0.5454545454545455
 40
0.5454545454545455
 40
0.5454545454545455
 10
-0.1346049210469074
 20
-4.499965124265773
 30
0.0
 10
-0.1324395082491571
 20
-4.483422932581057
 30
0.0
 10
-0.1420950508529404
 20
-4.477581902762146
 30
0.0
 10
-0.1604269333494604
 20
-4.488164673266783
 30
0.0
  0
SPLINE
  5
113
330
1F
100
AcDbEntity
  8
0
  6
Continuous
 62
     7
370
    25
100
AcDbSpline
210
0.0
220
0.0
230
1.0
 70
     8
 71
     3
 72
     8
 73
     4
 74
     0
 42
0.00000001
 43
0.00000001
 40
0.5454545454545455
 40
0.5454545454545455
 40
0.5454545454545455
 40
0.5454545454545455
 40
0.6363636363636365
 40
0.6363636363636365
 40
0.6363636363636365
 40
0.6363636363636365
 10
-0.1693574267764278
 20
-4.544928044762619
 30
0.0
 10
-0.1510255442799077
 20
-4.534345274257982
 30
0.0
 10
-0.1381317622480319
 20
-4.515448490854319
 30
0.0
 10
-0.1359725485207334
 20
-4.498953655595949
 30
0.0
  0
SPLINE
  5
118
330
1F
100
AcDbEntity
  8
0
  6
Continuous
 62
     7
370
    25
100
AcDbSpline
210
0.0
220
0.0
230
1.0
 70
     8
 71
     3
 72
     9
 73
     5
 74
     0
 42
0.00000001
 43
0.00000001
 40
0.0
 40
0.0
 40
0.0
 40
0.0
 40
0.8426684352570398
 40
1.0
 40
1.0
 40
1.0
 40
1.0
 10
-0.1359725485207334
 20
-4.498953655595949
 30
0.0
 10
-0.1355059642090714
 20
-4.494427176217226
 30
0.0
 10
-0.1349522656342344
 20
-4.489055574304378
 30
0.0
 10
-0.1376264170494266
 20
-4.486960364751045
 30
0.0
 10
-0.1380471454759383
 20
-4.486630722153555
 30
0.0
  0
SPLINE
  5
119
330
1F
100
AcDbEntity
  8
0
  6
Continuous
 62
     7
370
    25
100
AcDbSpline
210
0.0
220
0.0
230
1.0
 70
     8
 71
     3
 72
    10
 73
     6
 74
     0
 42
0.00000001
 43
0.00000001
 40
0.0
 40
0.0
 40
0.0
 40
0.0
 40
0.165244545686057
 40
0.5402501235040857
 40
1.0
 40
1.0
 40
1.0
 40
1.0
 10
-0.1533237648246507
 20
-4.500761616780825
 30
0.0
 10
-0.1536759084834466
 20
-4.500351018523645
 30
0.0
 10
-0.154827206121537
 20
-4.499008609561031
 30
0.0
 10
-0.1590960601527542
 20
-4.499698587929952
 30
0.0
 10
-0.1628419396204538
 20
-4.501581444190078
 30
0.0
 10
-0.1649050200277077
 20
-4.50261844601927
 30
0.0
  0
LWPOLYLINE
  5
11C
330
1F
100
AcDbEntity
  8
0
  6
Continuous
 62
     7
370
    25
100
AcDbPolyline
 90
        3
 70
   128
 43
0.0
 10
-1.0860061275
 20
-4.6658416311
 10
-1.0860164678
 20
-4.6658356965
 10
-1.0862946893
 20
-4.6656660375
  0
SPLINE
  5
122
330
1F
100
AcDbEntity
  8
0
  6
Continuous
 62
     7
370
    25
100
AcDbSpline
210
0.0
220
0.0
230
1.0
 70
     8
 71
     3
 72
     8
 73
     4
 74
     0
 42
0.00000001
 43
0.00000001
 40
0.2
 40
0.2
 40
0.2
 40
0.2
 40
0.4
 40
0.4
 40
0.4
 40
0.4
 10
-0.1672301013345869
 20
-4.531839545919567
 30
0.0
 10
-0.1564759537136305
 20
-4.525631308644035
 30
0.0
 10
-0.150768385871478
 20
-4.516237608002756
 30
0.0
 10
-0.1497854457627103
 20
-4.508728654647218
 30
0.0
  0
SPLINE
  5
124
330
1F
100
AcDbEntity
  8
0
  6
Continuous
 62
     7
370
    25
100
AcDbSpline
210
0.0
220
0.0
230
1.0
 70
     8
 71
     3
 72
     8
 73
     4
 74
     0
 42
0.00000001
 43
0.00000001
 40
0.4
 40
0.4
 40
0.4
 40
0.4
 40
0.6000000000000001
 40
0.6000000000000001
 40
0.6000000000000001
 40
0.6000000000000001
 10
-0.1497854457627111
 20
-4.508728654647217
 30
0.0
 10
-0.1487990186768152
 20
-4.50119306330184
 30
0.0
 10
-0.1527832449329255
 20
-4.497421677413563
 30
0.0
 10
-0.1635373925538816
 20
-4.503629914689094
 30
0.0
  0
SPLINE
  5
12C
330
1F
100
AcDbEntity
  8
0
  6
Continuous
 62
     7
370
    25
100
AcDbSpline
210
0.0
220
0.0
230
1.0
 70
     8
 71
     3
 72
     8
 73
     4
 74
     0
 42
0.00000001
 43
0.00000001
 40
0.5454545454545455
 40
0.5454545454545455
 40
0.5454545454545455
 40
0.5454545454545455
 40
0.6363636363636365
 40
0.6363636363636365
 40
0.6363636363636365
 40
0.6363636363636365
 10
-0.1076889323982317
 20
-4.484891371626937
 30
0.0
 10
-0.1063777225795806
 20
-4.484134426310663
 30
0.0
 10
-0.1039687994200804
 20
-4.483504423484341
 30
0.0
 10
-0.1027898793574428
 20
-4.483817055783486
 30
0.0
  0
SPLINE
  5
12D
330
1F
100
AcDbEntity
  8
0
  6
Continuous
 62
     7
370
    25
100
AcDbSpline
210
0.0
220
0.0
230
1.0
 70
     8
 71
     3
 72
     8
 73
     4
 74
     0
 42
0.00000001
 43
0.00000001
 40
0.6363636363636365
 40
0.6363636363636365
 40
0.6363636363636365
 40
0.6363636363636365
 40
0.7272727272727274
 40
0.7272727272727274
 40
0.7272727272727274
 40
0.7272727272727274
 10
-0.1183665176226307
 20
-4.500128355103935
 30
0.0
 10
-0.1175935710254744
 20
-4.494223600691508
 30
0.0
 10
-0.1126748703711015
 20
-4.487769692351895
 30
0.0
 10
-0.1076889323982317
 20
-4.484891371626937
 30
0.0
  0
SPLINE
  5
134
330
1F
100
AcDbEntity
  8
0
  6
Continuous
 62
     7
370
    25
100
AcDbSpline
210
0.0
220
0.0
230
1.0
 70
     8
 71
     3
 72
     9
 73
     5
 74
     0
 42
0.00000001
 43
0.00000001
 40
0.0
 40
0.0
 40
0.0
 40
0.0
 40
0.7546422158631552
 40
1.0
 40
1.0
 40
1.0
 40
1.0
 10
-0.0331399962034377
 20
-4.460655006853322
 30
0.0
 10
-0.0327960422907473
 20
-4.455816096329931
 30
0.0
 10
-0.0323402582046465
 20
-4.449403904669205
 30
0.0
 10
-0.0356407469826032
 20
-4.44678320226295
 30
0.0
 10
-0.0364505475957312
 20
-4.44614019252767
 30
0.0
  0
SPLINE
  5
135
330
1F
100
AcDbEntity
  8
0
  6
Continuous
 62
     7
370
    25
100
AcDbSpline
210
0.0
220
0.0
230
1.0
 70
     8
 71
     3
 72
     8
 73
     4
 74
     0
 42
0.00000001
 43
0.00000001
 40
0.25
 40
0.25
 40
0.25
 40
0.25
 40
0.5
 40
0.5
 40
0.5
 40
0.5
 10
-0.0725993579374608
 20
-4.515110370847054
 30
0.0
 10
-0.0504980951979118
 20
-4.502351583445939
 30
0.0
 10
-0.0353883215685032
 20
-4.477830590740679
 30
0.0
 10
-0.0331399962034377
 20
-4.460655006853322
 30
0.0
  0
SPLINE
  5
136
330
1F
100
AcDbEntity
  8
0
  6
Continuous
 62
     7
370
    25
100
AcDbSpline
210
0.0
220
0.0
230
1.0
 70
     8
 71
     3
 72
     9
 73
     5
 74
     0
 42
0.00000001
 43
0.00000001
 40
0.0
 40
0.0
 40
0.0
 40
0.0
 40
0.6209602845837665
 40
1.0
 40
1.0
 40
1.0
 40
1.0
 10
-0.0886979884559467
 20
-4.492727953088839
 30
0.0
 10
-0.0888459102011768
 20
-4.49579444898197
 30
0.0
 10
-0.0890841247036214
 20
-4.500732761413961
 30
0.0
 10
-0.0862962360419214
 20
-4.502598217783253
 30
0.0
 10
-0.0852395155169786
 20
-4.503305299834591
 30
0.0
  0
SPLINE
  5
137
330
1F
100
AcDbEntity
  8
0
  6
Continuous
 62
     7
370
    25
100
AcDbSpline
210
0.0
220
0.0
230
1.0
 70
     8
 71
     3
 72
    10
 73
     6
 74
     0
 42
0.00000001
 43
0.00000001
 40
0.0
 40
0.0
 40
0.0
 40
0.0
 40
0.1796075721214268
 40
0.5749278073648119
 40
1.0
 40
1.0
 40
1.0
 40
1.0
 10
-0.0510320495708033
 20
-4.458379462496182
 30
0.0
 10
-0.0515179408091737
 20
-4.457813222346231
 30
0.0
 10
-0.053073289400519
 20
-4.456000675113349
 30
0.0
 10
-0.0582464610359387
 20
-4.456347778215269
 30
0.0
 10
-0.0629250351061729
 20
-4.458571755136586
 30
0.0
 10
-0.0653491576003104
 20
-4.45972407043618
 30
0.0
  0
SPLINE
  5
138
330
1F
100
AcDbEntity
  8
0
  6
Continuous
 62
     7
370
    25
100
AcDbSpline
210
0.0
220
0.0
230
1.0
 70
     8
 71
     3
 72
     8
 73
     4
 74
     0
 42
0.00000001
 43
0.00000001
 40
0.5
 40
0.5
 40
0.5
 40
0.5
 40
0.75
 40
0.75
 40
0.75
 40
0.75
 10
-0.0653491576003104
 20
-4.45972407043618
 30
0.0
 10
-0.0772808885615812
 20
-4.466612112104032
 30
0.0
 10
-0.0871668180539586
 20
-4.481030915776601
 30
0.0
 10
-0.0886979884559467
 20
-4.492727953088839
 30
0.0
  0
SPLINE
  5
13C
330
1F
100
AcDbEntity
  8
0
  6
Continuous
 62
     7
370
    25
100
AcDbSpline
210
0.0
220
0.0
230
1.0
 70
     8
 71
     3
 72
     8
 73
     4
 74
     0
 42
0.00000001
 43
0.00000001
 40
0.5
 40
0.5
 40
0.5
 40
0.5
 40
0.75
 40
0.75
 40
0.75
 40
0.75
 10
-0.0639815301264838
 20
-4.460735539106005
 30
0.0
 10
-0.0759132610877546
 20
-4.467623580773856
 30
0.0
 10
-0.085799190580132
 20
-4.482042384446426
 30
0.0
 10
-0.0873303609821201
 20
-4.493739421758663
 30
0.0
  0
SPLINE
  5
13D
330
1F
100
AcDbEntity
  8
0
  6
Continuous
 62
     7
370
    25
100
AcDbSpline
210
0.0
220
0.0
230
1.0
 70
     8
 71
     3
 72
     8
 73
     4
 74
     0
 42
0.00000001
 43
0.00000001
 40
0.25
 40
0.25
 40
0.25
 40
0.25
 40
0.5
 40
0.5
 40
0.5
 40
0.5
 10
-0.0462068122746982
 20
-4.469999302412518
 30
0.0
 10
-0.0446756418727101
 20
-4.458302265100279
 30
0.0
 10
-0.052077638014855
 20
-4.453863568463969
 30
0.0
 10
-0.0639815301264838
 20
-4.460735539106005
 30
0.0
  0
SPLINE
  5
13E
330
1F
100
AcDbEntity
  8
0
  6
Continuous
 62
     7
370
    25
100
AcDbSpline
210
0.0
220
0.0
230
1.0
 70
     8
 71
     3
 72
     8
 73
     4
 74
     0
 42
0.00000001
 43
0.00000001
 40
0.0
 40
0.0
 40
0.0
 40
0.0
 40
0.25
 40
0.25
 40
0.25
 40
0.25
 10
-0.0695095512033009
 20
-4.50296563231727
 30
0.0
 10
-0.0576056590916721
 20
-4.496093661675236
 30
0.0
 10
-0.04773488314146
 20
-4.48167266151156
 30
0.0
 10
-0.0462068122746985
 20
-4.469999302412518
 30
0.0
  0
SPLINE
  5
13F
330
1F
100
AcDbEntity
  8
0
  6
Continuous
 62
     7
370
    25
100
AcDbSpline
210
0.0
220
0.0
230
1.0
 70
     8
 71
     3
 72
     8
 73
     4
 74
     0
 42
0.00000001
 43
0.00000001
 40
0.75
 40
0.75
 40
0.75
 40
0.75
 40
1.0
 40
1.0
 40
1.0
 40
1.0
 10
-0.0873303609821204
 20
-4.493739421758663
 30
0.0
 10
-0.0888584318488817
 20
-4.505412780857706
 30
0.0
 10
-0.0814412821645717
 20
-4.509853673985122
 30
0.0
 10
-0.0695095512033009
 20
-4.50296563231727
 30
0.0
  0
SPLINE
  5
143
330
1F
100
AcDbEntity
  8
0
  6
Continuous
 62
     7
370
    25
100
AcDbSpline
210
0.0
220
0.0
230
1.0
 70
     8
 71
     3
 72
     9
 73
     5
 74
     0
 42
0.00000001
 43
0.00000001
 40
0.0
 40
0.0
 40
0.0
 40
0.0
 40
0.4464564220326422
 40
0.9999999999999999
 40
0.9999999999999999
 40
0.9999999999999999
 40
0.9999999999999999
 10
-0.0129178538817059
 20
-4.464105727099998
 30
0.0
 10
-0.013665783751118
 20
-4.463216594377774
 30
0.0
 10
-0.0153410421470147
 20
-4.461225061322484
 30
0.0
 10
-0.0150189342673826
 20
-4.457420330323735
 30
0.0
 10
-0.0148406335191995
 20
-4.455314245913486
 30
0.0
  0
SPLINE
  5
145
330
1F
100
AcDbEntity
  8
0
  6
Continuous
 62
     7
370
    25
100
AcDbSpline
210
0.0
220
0.0
230
1.0
 70
     8
 71
     3
 72
     8
 73
     4
 74
     0
 42
0.00000001
 43
0.00000001
 40
0.411764705882353
 40
0.411764705882353
 40
0.411764705882353
 40
0.411764705882353
 40
0.4705882352941177
 40
0.4705882352941177
 40
0.4705882352941177
 40
0.4705882352941177
 10
-0.0065208274227384
 20
-4.49994464509928
 30
0.0
 10
0.005274493175229
 20
-4.493135351457964
 30
0.0
 10
0.0235736831557772
 20
-4.474486245351319
 30
0.0
 10
0.0261745806528792
 20
-4.454617264714433
 30
0.0
  0
SPLINE
  5
146
330
1F
100
AcDbEntity
  8
0
  6
Continuous
 62
     7
370
    25
100
AcDbSpline
210
0.0
220
0.0
230
1.0
 70
     8
 71
     3
 72
     8
 73
     4
 74
     0
 42
0.00000001
 43
0.00000001
 40
0.4705882352941177
 40
0.4705882352941177
 40
0.4705882352941177
 40
0.4705882352941177
 40
0.5294117647058824
 40
0.5294117647058824
 40
0.5294117647058824
 40
0.5294117647058824
 10
-0.031700360983979
 20
-4.502679632823748
 30
0.0
 10
-0.0265366414969086
 20
-4.506385736782848
 30
0.0
 10
-0.0208049411797119
 20
-4.508190688449213
 30
0.0
 10
-0.0065208274227384
 20
-4.49994464509928
 30
0.0
  0
SPLINE
  5
148
330
1F
100
AcDbEntity
  8
0
  6
Continuous
 62
     7
370
    25
100
AcDbSpline
210
0.0
220
0.0
230
1.0
 70
     8
 71
     3
 72
     8
 73
     4
 74
     0
 42
0.00000001
 43
0.00000001
 40
0.823529411764706
 40
0.823529411764706
 40
0.823529411764706
 40
0.823529411764706
 40
0.8823529411764707
 40
0.8823529411764707
 40
0.8823529411764707
 40
0.8823529411764707
 10
-0.0065572549055952
 20
-4.476985076286471
 30
0.0
 10
0.0022231182749587
 20
-4.471916274741813
 30
0.0
 10
0.0075671961497776
 20
-4.466341343062171
 30
0.0
 10
0.0137240178622986
 20
-4.45707408536084
 30
0.0
  0
SPLINE
  5
14C
330
1F
100
AcDbEntity
  8
0
  6
Continuous
 62
     7
370
    25
100
AcDbSpline
210
0.0
220
0.0
230
1.0
 70
     8
 71
     3
 72
     8
 73
     4
 74
     0
 42
0.00000001
 43
0.00000001
 40
0.0
 40
0.0
 40
0.0
 40
0.0
 40
0.1111111111111111
 40
0.1111111111111111
 40
0.1111111111111111
 40
0.1111111111111111
 10
0.0671015573913008
 20
-4.434462749060658
 30
0.0
 10
0.0785059284604798
 20
-4.427769701330439
 30
0.0
 10
0.0897888156854573
 20
-4.415792215116421
 30
0.0
 10
0.0986580380081094
 20
-4.401590968988011
 30
0.0
  0
SPLINE
  5
14D
330
1F
100
AcDbEntity
  8
0
  6
Continuous
 62
     7
370
    25
100
AcDbSpline
210
0.0
220
0.0
230
1.0
 70
     8
 71
     3
 72
     9
 73
     5
 74
     0
 42
0.00000001
 43
0.00000001
 40
0.0
 40
0.0
 40
0.0
 40
0.0
 40
0.605829023007601
 40
1.0
 40
1.0
 40
1.0
 40
1.0
 10
0.1041889102108503
 20
-4.383461633398984
 30
0.0
 10
0.1045217327121199
 20
-4.379214450626012
 30
0.0
 10
0.1050710997589766
 20
-4.372203920242558
 30
0.0
 10
0.1023031911483704
 20
-4.368153963840721
 30
0.0
 10
0.101212161907102
 20
-4.366557588569033
 30
0.0
  0
SPLINE
  5
150
330
1F
100
AcDbEntity
  8
0
  6
Continuous
 62
     7
370
    25
100
AcDbSpline
210
0.0
220
0.0
230
1.0
 70
     8
 71
     3
 72
     9
 73
     5
 74
     0
 42
0.00000001
 43
0.00000001
 40
0.0
 40
0.0
 40
0.0
 40
0.0
 40
0.4210030114033464
 40
1.0
 40
1.0
 40
1.0
 40
1.0
 10
0.0541434748405032
 20
-4.423793973813464
 30
0.0
 10
0.0533308020516141
 20
-4.423173603626687
 30
0.0
 10
0.0514004766931796
 20
-4.421700050777956
 30
0.0
 10
0.0512734056915741
 20
-4.418365452411305
 30
0.0
 10
0.0511998319643064
 20
-4.416434729998834
 30
0.0
  0
SPLINE
  5
151
330
1F
100
AcDbEntity
  8
0
  6
Continuous
 62
     7
370
    25
100
AcDbSpline
210
0.0
220
0.0
230
1.0
 70
     8
 71
     3
 72
    10
 73
     6
 74
     0
 42
0.00000001
 43
0.00000001
 40
0.0
 40
0.0
 40
0.0
 40
0.0
 40
0.3252437001912714
 40
0.6560397118195449
 40
1.0
 40
1.0
 40
1.0
 40
1.0
 10
0.0858939509026563
 20
-4.377938067861187
 30
0.0
 10
0.0848740603468454
 20
-4.377268847951257
 30
0.0
 10
0.0828168684445018
 20
-4.37591898372146
 30
0.0
 10
0.0780087060686043
 20
-4.376638934698832
 30
0.0
 10
0.0744451358807104
 20
-4.378430267032324
 30
0.0
 10
0.072628588737502
 20
-4.379343407355473
 30
0.0
  0
SPLINE
  5
152
330
1F
100
AcDbEntity
  8
0
  6
Continuous
 62
     7
370
    25
100
AcDbSpline
210
0.0
220
0.0
230
1.0
 70
     8
 71
     3
 72
     8
 73
     4
 74
     0
 42
0.00000001
 43
0.00000001
 40
0.3333333333333333
 40
0.3333333333333333
 40
0.3333333333333333
 40
0.3333333333333333
 40
0.6666666666666666
 40
0.6666666666666666
 40
0.6666666666666666
 40
0.6666666666666666
 10
0.072628588737502
 20
-4.379343407355472
 30
0.0
 10
0.0639901936901834
 20
-4.384330246668431
 30
0.0
 10
0.0561765285086471
 20
-4.393908257502577
 30
0.0
 10
0.0527127925968388
 20
-4.404876802189037
 30
0.0
  0
SPLINE
  5
157
330
1F
100
AcDbEntity
  8
0
  6
Continuous
 62
     7
370
    25
100
AcDbSpline
210
0.0
220
0.0
230
1.0
 70
     8
 71
     3
 72
     8
 73
     4
 74
     0
 42
0.00000001
 43
0.00000001
 40
0.3333333333333333
 40
0.3333333333333333
 40
0.3333333333333333
 40
0.3333333333333333
 40
0.6666666666666666
 40
0.6666666666666666
 40
0.6666666666666666
 40
0.6666666666666666
 10
0.0739962162113292
 20
-4.380354876025296
 30
0.0
 10
0.0653578211640105
 20
-4.385341715338255
 30
0.0
 10
0.0575441559824743
 20
-4.394919726172402
 30
0.0
 10
0.054080420070666
 20
-4.405888270858862
 30
0.0
  0
SPLINE
  5
158
330
1F
100
AcDbEntity
  8
0
  6
Continuous
 62
     7
370
    25
100
AcDbSpline
210
0.0
220
0.0
230
1.0
 70
     8
 71
     3
 72
     8
 73
     4
 74
     0
 42
0.00000001
 43
0.00000001
 40
0.0
 40
0.0
 40
0.0
 40
0.0
 40
0.3333333333333333
 40
0.3333333333333333
 40
0.3333333333333333
 40
0.3333333333333333
 10
0.0907274817539091
 20
-4.384732372465084
 30
0.0
 10
0.0891618850348565
 20
-4.376442838588174
 30
0.0
 10
0.0826401790285804
 20
-4.375364822507174
 30
0.0
 10
0.0739962162113292
 20
-4.380354876025296
 30
0.0
  0
SPLINE
  5
160
330
1F
100
AcDbEntity
  8
0
  6
Continuous
 62
     7
370
    25
100
AcDbSpline
210
0.0
220
0.0
230
1.0
 70
     8
 71
     3
 72
     8
 73
     4
 74
     0
 42
0.00000001
 43
0.00000001
 40
0.0
 40
0.0
 40
0.0
 40
0.0
 40
0.125
 40
0.125
 40
0.125
 40
0.125
 10
0.1238432769899137
 20
-4.370030492235832
 30
0.0
 10
0.1253744473919018
 20
-4.358333454923593
 30
0.0
 10
0.1351351020608415
 20
-4.34398697086723
 30
0.0
 10
0.1470724007920645
 20
-4.3370957149942
 30
0.0
  0
SPLINE
  5
161
330
1F
100
AcDbEntity
  8
0
  6
Continuous
 62
     7
370
    25
100
AcDbSpline
210
0.0
220
0.0
230
1.0
 70
     8
 71
     3
 72
    10
 73
     6
 74
     0
 42
0.00000001
 43
0.00000001
 40
0.0
 40
0.0
 40
0.0
 40
0.0
 40
0.0340283537170279
 40
0.5084121117178597
 40
1.0
 40
1.0
 40
1.0
 40
1.0
 10
0.1269866535426845
 20
-4.38097868438074
 30
0.0
 10
0.1268704806646883
 20
-4.380951594109097
 30
0.0
 10
0.1251347605438276
 20
-4.38054684275591
 30
0.0
 10
0.1237064141290776
 20
-4.376776677462519
 30
0.0
 10
0.1237971175548122
 20
-4.372305763242541
 30
0.0
 10
0.1238432769899137
 20
-4.370030492235832
 30
0.0
  0
SPLINE
  5
162
330
1F
100
AcDbEntity
  8
0
  6
Continuous
 62
     7
370
    25
100
AcDbSpline
210
0.0
220
0.0
230
1.0
 70
     8
 71
     3
 72
     8
 73
     4
 74
     0
 42
0.00000001
 43
0.00000001
 40
0.5
 40
0.5
 40
0.5
 40
0.5
 40
0.625
 40
0.625
 40
0.625
 40
0.625
 10
0.1399558269332507
 20
-4.392404874481122
 30
0.0
 10
0.1520211843728579
 20
-4.385439691889316
 30
0.0
 10
0.1635947852788147
 20
-4.372656866330435
 30
0.0
 10
0.1704556368968926
 20
-4.360252541840188
 30
0.0
  0
SPLINE
  5
168
330
1F
100
AcDbEntity
  8
0
  6
Continuous
 62
     7
370
    25
100
AcDbSpline
210
0.0
220
0.0
230
1.0
 70
     8
 71
     3
 72
    10
 73
     6
 74
     0
 42
0.00000001
 43
0.00000001
 40
0.0
 40
0.0
 40
0.0
 40
0.0
 40
0.3110959456153917
 40
0.6176621532775591
 40
1.0
 40
1.0
 40
1.0
 40
1.0
 10
0.2005116686940457
 20
-4.339418767112158
 30
0.0
 10
0.2000071396514652
 20
-4.338868596087811
 30
0.0
 10
0.1990054278026821
 20
-4.337776264849301
 30
0.0
 10
0.1987897501182005
 20
-4.334588006781266
 30
0.0
 10
0.1990446417431455
 20
-4.332167086584003
 30
0.0
 10
0.1991861051507258
 20
-4.330823489591915
 30
0.0
  0
SPLINE
  5
16A
330
1F
100
AcDbEntity
  8
0
  6
Continuous
 62
     7
370
    25
100
AcDbSpline
210
0.0
220
0.0
230
1.0
 70
     8
 71
     3
 72
     9
 73
     5
 74
     0
 42
0.00000001
 43
0.00000001
 40
0.0
 40
0.0
 40
0.0
 40
0.0
 40
0.13027410934546
 40
1.0
 40
1.0
 40
1.0
 40
1.0
 10
0.1880381543429637
 20
-4.353072509713251
 30
0.0
 10
0.1884726834604102
 20
-4.353450419044286
 30
0.0
 10
0.191808182122651
 20
-4.356351297299628
 30
0.0
 10
0.1975097179950805
 20
-4.355500336674197
 30
0.0
 10
0.2024684913598281
 20
-4.354760234186333
 30
0.0
  0
SPLINE
  5
176
330
1F
100
AcDbEntity
  8
0
  6
Continuous
 62
     7
370
    25
100
AcDbSpline
210
0.0
220
0.0
230
1.0
 70
     8
 71
     3
 72
     8
 73
     4
 74
     0
 42
0.00000001
 43
0.00000001
 40
0.0909090909090909
 40
0.0909090909090909
 40
0.0909090909090909
 40
0.0909090909090909
 40
0.1818181818181818
 40
0.1818181818181818
 40
0.1818181818181818
 40
0.1818181818181818
 10
0.2443208903974201
 20
-4.332156205772229
 30
0.0
 10
0.2530038276041979
 20
-4.327143652817946
 30
0.0
 10
0.2613321275568521
 20
-4.31886370248259
 30
0.0
 10
0.2664236546190019
 20
-4.310460412411682
 30
0.0
  0
SPLINE
  5
177
330
1F
100
AcDbEntity
  8
0
  6
Continuous
 62
     7
370
    25
100
AcDbSpline
210
0.0
220
0.0
230
1.0
 70
     8
 71
     3
 72
     8
 73
     4
 74
     0
 42
0.00000001
 43
0.00000001
 40
0.1818181818181818
 40
0.1818181818181818
 40
0.1818181818181818
 40
0.1818181818181818
 40
0.2727272727272727
 40
0.2727272727272727
 40
0.2727272727272727
 40
0.2727272727272727
 10
0.2159536788368356
 20
-4.316856289094342
 30
0.0
 10
0.2137564958030109
 20
-4.333641182464179
 30
0.0
 10
0.2235057825118668
 20
-4.344172511780294
 30
0.0
 10
0.2443208903974201
 20
-4.332156205772229
 30
0.0
  0
SPLINE
  5
17A
330
1F
100
AcDbEntity
  8
0
  6
Continuous
 62
     7
370
    25
100
AcDbSpline
210
0.0
220
0.0
230
1.0
 70
     8
 71
     3
 72
     9
 73
     5
 74
     0
 42
0.00000001
 43
0.00000001
 40
0.0
 40
0.0
 40
0.0
 40
0.0
 40
0.6245334206051749
 40
0.9999999999999999
 40
0.9999999999999999
 40
0.9999999999999999
 40
0.9999999999999999
 10
0.2303519318773824
 20
-4.308544354538537
 30
0.0
 10
0.2302314880887702
 20
-4.311598097973206
 30
0.0
 10
0.2300386340562421
 20
-4.316487737716921
 30
0.0
 10
0.2328358268015452
 20
-4.318316542635043
 30
0.0
 10
0.2338860791935324
 20
-4.31900319776203
 30
0.0
  0
SPLINE
  5
17B
330
1F
100
AcDbEntity
  8
0
  6
Continuous
 62
     7
370
    25
100
AcDbSpline
210
0.0
220
0.0
230
1.0
 70
     8
 71
     3
 72
    10
 73
     6
 74
     0
 42
0.00000001
 43
0.00000001
 40
0.0
 40
0.0
 40
0.0
 40
0.0
 40
0.1883973634910349
 40
0.5895917683020881
 40
1.0
 40
1.0
 40
1.0
 40
1.0
 10
0.2669089382726921
 20
-4.274850370546714
 30
0.0
 10
0.2664148644043986
 20
-4.274285688557211
 30
0.0
 10
0.264868654413552
 20
-4.272518509619299
 30
0.0
 10
0.2599931581793425
 20
-4.27267556499468
 30
0.0
 10
0.2555514949625813
 20
-4.274729868050368
 30
0.0
 10
0.2533054510679613
 20
-4.275768680452559
 30
0.0
  0
SPLINE
  5
17C
330
1F
100
AcDbEntity
  8
0
  6
Continuous
 62
     7
370
    25
100
AcDbSpline
210
0.0
220
0.0
230
1.0
 70
     8
 71
     3
 72
     8
 73
     4
 74
     0
 42
0.00000001
 43
0.00000001
 40
0.5
 40
0.5
 40
0.5
 40
0.5
 40
0.75
 40
0.75
 40
0.75
 40
0.75
 10
0.2533054510679613
 20
-4.275768680452559
 30
0.0
 10
0.2423035376850949
 20
-4.282119949857917
 30
0.0
 10
0.2318831022793708
 20
-4.296847317226298
 30
0.0
 10
0.2303519318773824
 20
-4.308544354538537
 30
0.0
  0
SPLINE
  5
180
330
1F
100
AcDbEntity
  8
0
  6
Continuous
 62
     7
370
    25
100
AcDbSpline
210
0.0
220
0.0
230
1.0
 70
     8
 71
     3
 72
     8
 73
     4
 74
     0
 42
0.00000001
 43
0.00000001
 40
0.5
 40
0.5
 40
0.5
 40
0.5
 40
0.75
 40
0.75
 40
0.75
 40
0.75
 10
0.2546730785417878
 20
-4.276780149122383
 30
0.0
 10
0.2436711651589215
 20
-4.283131418527741
 30
0.0
 10
0.2332507297531974
 20
-4.297858785896123
 30
0.0
 10
0.2317195593512093
 20
-4.309555823208361
 30
0.0
  0
SPLINE
  5
181
330
1F
100
AcDbEntity
  8
0
  6
Continuous
 62
     7
370
    25
100
AcDbSpline
210
0.0
220
0.0
230
1.0
 70
     8
 71
     3
 72
     8
 73
     4
 74
     0
 42
0.00000001
 43
0.00000001
 40
0.25
 40
0.25
 40
0.25
 40
0.25
 40
0.5
 40
0.5
 40
0.5
 40
0.5
 10
0.2718214222763624
 20
-4.286405510509931
 30
0.0
 10
0.2733525926783505
 20
-4.274708473197693
 30
0.0
 10
0.2654216583928115
 20
-4.270575126052017
 30
0.0
 10
0.2546730785417878
 20
-4.276780149122383
 30
0.0
  0
SPLINE
  5
182
330
1F
100
AcDbEntity
  8
0
  6
Continuous
 62
     7
370
    25
100
AcDbSpline
210
0.0
220
0.0
230
1.0
 70
     8
 71
     3
 72
     8
 73
     4
 74
     0
 42
0.00000001
 43
0.00000001
 40
0.0
 40
0.0
 40
0.0
 40
0.0
 40
0.25
 40
0.25
 40
0.25
 40
0.25
 10
0.2491450574649705
 20
-4.31901024233365
 30
0.0
 10
0.2598936373159944
 20
-4.312805219263283
 30
0.0
 10
0.2702933514096009
 20
-4.298078869608973
 30
0.0
 10
0.2718214222763624
 20
-4.286405510509931
 30
0.0
  0
SPLINE
  5
183
330
1F
100
AcDbEntity
  8
0
  6
Continuous
 62
     7
370
    25
100
AcDbSpline
210
0.0
220
0.0
230
1.0
 70
     8
 71
     3
 72
     8
 73
     4
 74
     0
 42
0.00000001
 43
0.00000001
 40
0.75
 40
0.75
 40
0.75
 40
0.75
 40
1.0
 40
1.0
 40
1.0
 40
1.0
 10
0.231719559351209
 20
-4.309555823208361
 30
0.0
 10
0.2301914884844475
 20
-4.321229182307403
 30
0.0
 10
0.2381431440821044
 20
-4.325361511739008
 30
0.0
 10
0.2491450574649705
 20
-4.31901024233365
 30
0.0
  0
LWPOLYLINE
  5
190
330
1F
100
AcDbEntity
  8
0
  6
Continuous
 62
     7
370
    25
100
AcDbPolyline
 90
       14
 70
   128
 43
0.0
 10
-1.2479500507
 20
-4.7369602723
 10
-1.3272259831
 20
-4.6853022417
 10
-1.3951377969
 20
-4.6285044925
 10
-1.4506951848
 20
-4.5673952638
 10
-1.4930879951
 20
-4.5028656657
 10
-1.5216980452
 20
-4.4358566852
 10
-1.536108136
 20
-4.367345464
 10
-1.536108136
 20
-4.29833105
 10
-1.5216980452
 20
-4.2298198288
 10
-1.4930879951
 20
-4.1628108483
 10
-1.4506951848
 20
-4.0982812502
 10
-1.3951377969
 20
-4.0371720215
 10
-1.3272259831
 20
-3.9803742723
 10
-1.2993828662
 20
-3.9607696983
  0
LWPOLYLINE
  5
1A1
330
1F
100
AcDbEntity
  8
0
  6
Continuous
 62
     7
370
    25
100
AcDbPolyline
 90
       10
 70
   128
 43
0.0
 10
-1.5350766325
 20
-4.2487990468
 10
-1.5373559759
 20
-4.2573362836
 10
-1.5474912874
 20
-4.3242134144
 10
-1.5441090354
 20
-4.3913176044
 10
-1.5272549591
 20
-4.4577413848
 10
-1.4971569809
 20
-4.5225864877
 10
-1.4542221243
 20
-4.5849759945
 10
-1.3990310097
 20
-4.6440661941
 10
-1.3323300022
 20
-4.6990579928
 10
-1.2550211185
 20
-4.749207721
  0
LWPOLYLINE
  5
1A2
330
1F
100
AcDbEntity
  8
0
  6
Continuous
 62
     7
370
    25
100
AcDbPolyline
 90
        8
 70
   128
 43
0.0
 10
-1.2550211185
 20
-4.9346653566
 10
-1.3323300022
 20
-4.8845156284
 10
-1.3990310097
 20
-4.8295238297
 10
-1.4542221243
 20
-4.7704336301
 10
-1.4971569809
 20
-4.7080441233
 10
-1.5272549591
 20
-4.6431990204
 10
-1.5441090354
 20
-4.57677524
 10
-1.5479143373
 20
-4.5264613007
  0
SPLINE
  5
1A6
330
1F
100
AcDbEntity
  8
0
  6
Continuous
 62
     7
370
    25
100
AcDbSpline
210
0.0
220
0.0
230
1.0
 70
     8
 71
     3
 72
     9
 73
     5
 74
     0
 42
0.00000001
 43
0.00000001
 40
0.0
 40
0.0
 40
0.0
 40
0.0
 40
0.5600003902106861
 40
1.0
 40
1.0
 40
1.0
 40
1.0
 10
1.572435047688511
 20
4.14264480846427
 30
0.0
 10
1.479231193227681
 20
4.190542713796364
 30
0.0
 10
1.312795854806284
 20
4.276074628004624
 30
0.0
 10
1.146467954458246
 20
4.361661821054263
 30
0.0
 10
1.073283743208033
 20
4.399320152599065
 30
0.0
  0
SPLINE
  5
1A8
330
1F
100
AcDbEntity
  8
0
  6
Continuous
 62
     7
370
    25
100
AcDbSpline
210
0.0
220
0.0
230
1.0
 70
     8
 71
     3
 72
    11
 73
     7
 74
     0
 42
0.00000001
 43
0.00000001
 40
0.0
 40
0.0
 40
0.0
 40
0.0
 40
0.2801097707688637
 40
0.5599557008670261
 40
0.7797615690797284
 40
1.0
 40
1.0
 40
1.0
 40
1.0
 10
2.219770898151188
 20
2.959801975626918
 30
0.0
 10
2.306374051236657
 20
2.994258354413954
 30
0.0
 10
2.479498784265994
 20
3.063138656875648
 30
0.0
 10
2.689753785378758
 20
3.177827016566907
 30
0.0
 10
2.861856620112709
 20
3.292452888504906
 30
0.0
 10
2.948819546462328
 20
3.36798658529309
 30
0.0
 10
2.992343751832586
 20
3.405790558427189
 30
0.0
  0
SPLINE
  5
1AA
330
1F
100
AcDbEntity
  8
0
  6
Continuous
 62
     7
370
    25
100
AcDbSpline
210
0.0
220
0.0
230
1.0
 70
     8
 71
     3
 72
     9
 73
     5
 74
     0
 42
0.00000001
 43
0.00000001
 40
0.0
 40
0.0
 40
0.0
 40
0.0
 40
0.5599999595326917
 40
1.0
 40
1.0
 40
1.0
 40
1.0
 10
0.1219923459059329
 20
3.747037835127095
 30
0.0
 10
0.2082711268039586
 20
3.714390773825091
 30
0.0
 10
0.3623403895410907
 20
3.656092445858698
 30
0.0
 10
0.5164661849497992
 20
3.59783078757158
 30
0.0
 10
0.5842815411666874
 20
3.572195655567557
 30
0.0
  0
SPLINE
  5
1AB
330
1F
100
AcDbEntity
  8
0
  6
Continuous
 62
     7
370
    25
100
AcDbSpline
210
0.0
220
0.0
230
1.0
 70
     8
 71
     3
 72
    23
 73
    19
 74
     0
 42
0.00000001
 43
0.00000001
 40
0.0
 40
0.0
 40
0.0
 40
0.0
 40
0.0630149313644395
 40
0.1254712839067446
 40
0.1879300843246126
 40
0.2505895215637428
 40
0.3130307623634132
 40
0.3754796460942101
 40
0.4381415659107869
 40
0.5005959924314796
 40
0.5634509080126842
 40
0.6258862559890515
 40
0.688548170296916
 40
0.7510135015977023
 40
0.8134549860711124
 40
0.8760377298284296
 40
0.9378794042459492
 40
1.0
 40
1.0
 40
1.0
 40
1.0
 10
1.073283743208033
 20
4.399320152599065
 30
0.0
 10
1.0359291360711
 20
4.418705889100134
 30
0.0
 10
0.9615510416128716
 20
4.457305522482254
 30
0.0
 10
0.8169754947199411
 20
4.494405003375322
 30
0.0
 10
0.6575710059060252
 20
4.513945377334123
 30
0.0
 10
0.4880916879556845
 20
4.513486308876834
 30
0.0
 10
0.3179725889513445
 20
4.493433536663972
 30
0.0
 10
0.1555704552230717
 20
4.454778723117468
 30
0.0
 10
0.0091361746105997
 20
4.39945014426628
 30
0.0
 10
-0.1140716979041029
 20
4.330073485305076
 30
0.0
 10
-0.2075378219168888
 20
4.250422238102892
 30
0.0
 10
-0.2665582291307028
 20
4.164321868780393
 30
0.0
 10
-0.2880967747653325
 20
4.076439556448402
 30
0.0
 10
-0.2712033417347409
 20
3.990964115540579
 30
0.0
 10
-0.2163513303104495
 20
3.91262149785638
 30
0.0
 10
-0.1288047142624013
 20
3.844121545138158
 30
0.0
 10
-0.0050360250165985
 20
3.793922640301845
 30
0.0
 10
0.0795860875966465
 20
3.762689528875365
 30
0.0
 10
0.1219923459059329
 20
3.747037835127096
 30
0.0
  0
SPLINE
  5
1AE
330
1F
100
AcDbEntity
  8
0
  6
Continuous
 62
     7
370
    25
100
AcDbSpline
210
0.0
220
0.0
230
1.0
 70
     8
 71
     3
 72
    11
 73
     7
 74
     0
 42
0.00000001
 43
0.00000001
 40
0.0
 40
0.0
 40
0.0
 40
0.0
 40
0.2495146003372762
 40
0.4997553989943099
 40
0.7501677755411839
 40
1.0
 40
1.0
 40
1.0
 40
1.0
 10
0.4760781398405604
 20
3.10350518074002
 30
0.0
 10
0.5048310460272579
 20
3.140472620872051
 30
0.0
 10
0.5624205421295118
 20
3.214515092807594
 30
0.0
 10
0.6855784362557591
 20
3.272382504208487
 30
0.0
 10
0.8266508638770336
 20
3.289595613415787
 30
0.0
 10
0.9298605389270225
 20
3.261174145819942
 30
0.0
 10
0.981405528421306
 20
3.246979892733394
 30
0.0
  0
SPLINE
  5
1AF
330
1F
100
AcDbEntity
  8
0
  6
Continuous
 62
     7
370
    25
100
AcDbSpline
210
0.0
220
0.0
230
1.0
 70
     8
 71
     3
 72
    11
 73
     7
 74
     0
 42
0.00000001
 43
0.00000001
 40
0.0
 40
0.0
 40
0.0
 40
0.0
 40
0.5722429726978726
 40
0.8100179999735078
 40
0.9090888189862109
 40
0.9999999999999999
 40
0.9999999999999999
 40
0.9999999999999999
 40
0.9999999999999999
 10
0.4759815918152846
 20
3.105714895577757
 30
0.0
 10
0.4759072622261912
 20
3.105326502370232
 30
0.0
 10
0.4758020476443287
 20
3.104776726306266
 30
0.0
 10
0.4758598957914321
 20
3.104067505625593
 30
0.0
 10
0.4759627137953965
 20
3.103721036746105
 30
0.0
 10
0.4760407837480064
 20
3.103575043570157
 30
0.0
 10
0.4760781421903456
 20
3.103505182151478
 30
0.0
  0
SPLINE
  5
1B2
330
1F
100
AcDbEntity
  8
0
  6
Continuous
 62
     7
370
    25
100
AcDbSpline
210
0.0
220
0.0
230
1.0
 70
     8
 71
     3
 72
    11
 73
     7
 74
     0
 42
0.00000001
 43
0.00000001
 40
0.0
 40
0.0
 40
0.0
 40
0.0
 40
0.2499999999999842
 40
0.4999999999999575
 40
0.7499999999999104
 40
1.0
 40
1.0
 40
1.0
 40
1.0
 10
2.219770668099535
 20
2.959802158160724
 30
0.0
 10
2.216362625082081
 20
2.957019198681109
 30
0.0
 10
2.209546539047172
 20
2.951453279721876
 30
0.0
 10
2.201612310853026
 20
2.937735301982429
 30
0.0
 10
2.196656560600216
 20
2.922313293155698
 30
0.0
 10
2.196789821552376
 20
2.912771550458487
 30
0.0
 10
2.196856452028456
 20
2.908000679109878
 30
0.0
  0
SPLINE
  5
1B3
330
1F
100
AcDbEntity
  8
0
  6
Continuous
 62
     7
370
    25
100
AcDbSpline
210
0.0
220
0.0
230
1.0
 70
     8
 71
     3
 72
    11
 73
     7
 74
     0
 42
0.00000001
 43
0.00000001
 40
0.0
 40
0.0
 40
0.0
 40
0.0
 40
0.2407783818404239
 40
0.4999842837496792
 40
0.7591987212917214
 40
1.0
 40
1.0
 40
1.0
 40
1.0
 10
0.561154415026701
 20
3.522561320827852
 30
0.0
 10
0.561264314664416
 20
3.527051056942283
 30
0.0
 10
0.561492524901677
 20
3.536374142670501
 30
0.0
 10
0.5666061197228269
 20
3.551291191818681
 30
0.0
 10
0.5745533570836424
 20
3.564394478548555
 30
0.0
 10
0.5811194118315385
 20
3.569659896304471
 30
0.0
 10
0.5842815411966287
 20
3.572195655256341
 30
0.0
  0
SPLINE
  5
1B5
330
1F
100
AcDbEntity
  8
0
  6
Continuous
 62
     7
370
    25
100
AcDbSpline
210
0.0
220
0.0
230
1.0
 70
     8
 71
     3
 72
    11
 73
     7
 74
     0
 42
0.00000001
 43
0.00000001
 40
0.0
 40
0.0
 40
0.0
 40
0.0
 40
0.2499999999999987
 40
0.4999999999999818
 40
0.749999999999984
 40
0.9999999999999999
 40
0.9999999999999999
 40
0.9999999999999999
 40
0.9999999999999999
 10
2.219770668099651
 20
2.959802158160644
 30
0.0
 10
2.222471652564961
 20
2.957182275250048
 30
0.0
 10
2.227873621495579
 20
2.951942509428856
 30
0.0
 10
2.235325107223709
 20
2.93869399045333
 30
0.0
 10
2.241095237422211
 20
2.923629327812924
 30
0.0
 10
2.242568609383537
 20
2.914146023744224
 30
0.0
 10
2.2433052953642
 20
2.909404371709871
 30
0.0
  0
SPLINE
  5
1B6
330
1F
100
AcDbEntity
  8
0
  6
Continuous
 62
     7
370
    25
100
AcDbSpline
210
0.0
220
0.0
230
1.0
 70
     8
 71
     3
 72
    11
 73
     7
 74
     0
 42
0.00000001
 43
0.00000001
 40
0.0
 40
0.0
 40
0.0
 40
0.0
 40
0.2500000000000253
 40
0.5000000000000581
 40
0.7500000000000607
 40
1.0
 40
1.0
 40
1.0
 40
1.0
 10
2.992343363444324
 20
3.405790649026245
 30
0.0
 10
2.996876346292787
 20
3.404228685119188
 30
0.0
 10
3.005942311989712
 20
3.401104757305078
 30
0.0
 10
3.018015069478839
 20
3.390524871261371
 30
0.0
 10
3.027018241051714
 20
3.377327184018144
 30
0.0
 10
3.028911918844597
 20
3.368086592787286
 30
0.0
 10
3.029858757741038
 20
3.363466297171857
 30
0.0
  0
SPLINE
  5
1B8
330
1F
100
AcDbEntity
  8
0
  6
Continuous
 62
     7
370
    25
100
AcDbSpline
210
0.0
220
0.0
230
1.0
 70
     8
 71
     3
 72
    11
 73
     7
 74
     0
 42
0.00000001
 43
0.00000001
 40
0.0
 40
0.0
 40
0.0
 40
0.0
 40
0.2500896030661338
 40
0.500014173936356
 40
0.7499266708957507
 40
0.9999999999999999
 40
0.9999999999999999
 40
0.9999999999999999
 40
0.9999999999999999
 10
3.029945157236205
 20
3.362423013067292
 30
0.0
 10
2.979292207206304
 20
3.318803789058494
 30
0.0
 10
2.878019732636687
 20
3.231594125029654
 30
0.0
 10
2.690194650395628
 20
3.111772388614643
 30
0.0
 10
2.480027818523912
 20
3.001828804927784
 30
0.0
 10
2.322290952941437
 20
2.939519194726318
 30
0.0
 10
2.243397150272603
 20
2.908354367953237
 30
0.0
  0
SPLINE
  5
1BA
330
1F
100
AcDbEntity
  8
0
  6
Continuous
 62
     7
370
    25
100
AcDbSpline
210
0.0
220
0.0
230
1.0
 70
     8
 71
     3
 72
    11
 73
     7
 74
     0
 42
0.00000001
 43
0.00000001
 40
0.0
 40
0.0
 40
0.0
 40
0.0
 40
0.2501129557546761
 40
0.5000412737943093
 40
0.749940463849305
 40
0.9999999999999999
 40
0.9999999999999999
 40
0.9999999999999999
 40
0.9999999999999999
 10
3.036476986402071
 20
3.264784243988571
 30
0.0
 10
2.985936966680942
 20
3.221214665300904
 30
0.0
 10
2.884894236756422
 20
3.134107671743033
 30
0.0
 10
2.697238205930196
 20
3.014470844687394
 30
0.0
 10
2.487295117198721
 20
2.904702529306106
 30
0.0
 10
2.329766047852586
 20
2.842465627296381
 30
0.0
 10
2.250976251923034
 20
2.811337196023425
 30
0.0
  0
SPLINE
  5
1BC
330
1F
100
AcDbEntity
  8
0
  6
Continuous
 62
     7
370
    25
100
AcDbSpline
210
0.0
220
0.0
230
1.0
 70
     8
 71
     3
 72
    19
 73
    15
 74
     0
 42
0.00000001
 43
0.00000001
 40
0.0
 40
0.0
 40
0.0
 40
0.0
 40
0.0000629372073499
 40
0.0006158330220247
 40
0.0315641323980842
 40
0.0628835432221393
 40
0.1057263100209806
 40
0.1185058194473421
 40
0.2506542154673567
 40
0.5002035184493783
 40
0.7497528102460342
 40
0.7752981901475107
 40
0.8255718408794711
 40
1.0
 40
1.0
 40
1.0
 40
1.0
 10
2.243305396939807
 20
2.909404409439162
 30
0.0
 10
2.243304496517925
 20
2.909404089330525
 30
0.0
 10
2.243295685997849
 20
2.909400957105938
 30
0.0
 10
2.242844505083335
 20
2.909234587737911
 30
0.0
 10
2.241936427523305
 20
2.908908202325101
 30
0.0
 10
2.240384802664045
 20
2.908393498897289
 30
0.0
 10
2.239071914814741
 20
2.907995445442957
 30
0.0
 10
2.236195037136325
 20
2.90718411270163
 30
0.0
 10
2.229922231004075
 20
2.905740693757764
 30
0.0
 10
2.219302946793197
 20
2.904615267640295
 30
0.0
 10
2.210707142535659
 20
2.905187744651068
 30
0.0
 10
2.205795296605252
 20
2.905896207176587
 30
0.0
 10
2.202083435123134
 20
2.906513904364593
 30
0.0
 10
2.199135607813
 20
2.90740168735417
 30
0.0
 10
2.196847312532026
 20
2.908090842250929
 30
0.0
  0
SPLINE
  5
1BE
330
1F
100
AcDbEntity
  8
0
  6
Continuous
 62
     7
370
    25
100
AcDbSpline
210
0.0
220
0.0
230
1.0
 70
     8
 71
     3
 72
    11
 73
     7
 74
     0
 42
0.00000001
 43
0.00000001
 40
0.0
 40
0.0
 40
0.0
 40
0.0
 40
0.2500000000000092
 40
0.5000000000000101
 40
0.7500000000000154
 40
1.0
 40
1.0
 40
1.0
 40
1.0
 10
2.250976111666188
 20
2.811339011404855
 30
0.0
 10
2.247212096743803
 20
2.81017604279989
 30
0.0
 10
2.239684066899036
 20
2.807850105589961
 30
0.0
 10
2.227040898411405
 20
2.806818883746351
 30
0.0
 10
2.214706034480043
 20
2.807634482641194
 30
0.0
 10
2.207933971475459
 20
2.80983697425158
 30
0.0
 10
2.204547939973167
 20
2.810938220056771
 30
0.0
  0
SPLINE
  5
1BF
330
1F
100
AcDbEntity
  8
0
  6
Continuous
 62
     7
370
    25
100
AcDbSpline
210
0.0
220
0.0
230
1.0
 70
     8
 71
     3
 72
    12
 73
     8
 74
     0
 42
0.00000001
 43
0.00000001
 40
0.0
 40
0.0
 40
0.0
 40
0.0
 40
0.3824405325140466
 40
0.6911038874761158
 40
0.8455133658122136
 40
0.9227775680685799
 40
1.0
 40
1.0
 40
1.0
 40
1.0
 10
3.035030727850107
 20
3.373624440979171
 30
0.0
 10
3.035003413428588
 20
3.372302881979138
 30
0.0
 10
3.034954053851632
 20
3.36991470791075
 30
0.0
 10
3.033072532295607
 20
3.367013549052718
 30
0.0
 10
3.031601107064128
 20
3.365216914646924
 30
0.0
 10
3.030642992323242
 20
3.364208527867717
 30
0.0
 10
3.030120101271518
 20
3.363713643530881
 30
0.0
 10
3.029858726435684
 20
3.363466268266243
 30
0.0
  0
SPLINE
  5
1C0
330
1F
100
AcDbEntity
  8
0
  6
Continuous
 62
     7
370
    25
100
AcDbSpline
210
0.0
220
0.0
230
1.0
 70
     8
 71
     3
 72
     9
 73
     5
 74
     0
 42
0.00000001
 43
0.00000001
 40
0.0
 40
0.0
 40
0.0
 40
0.0
 40
0.546037400577785
 40
1.0
 40
1.0
 40
1.0
 40
1.0
 10
3.029945132006533
 20
3.362423310238272
 30
0.0
 10
3.031831455787421
 20
3.364484649591059
 30
0.0
 10
3.035286024611628
 20
3.368259737800413
 30
0.0
 10
3.035283666959846
 20
3.372280499763354
 30
0.0
 10
3.035282596674114
 20
3.37410577531571
 30
0.0
  0
SPLINE
  5
1C1
330
1F
100
AcDbEntity
  8
0
  6
Continuous
 62
     7
370
    25
100
AcDbSpline
210
0.0
220
0.0
230
1.0
 70
     8
 71
     3
 72
    11
 73
     7
 74
     0
 42
0.00000001
 43
0.00000001
 40
0.0
 40
0.0
 40
0.0
 40
0.0
 40
0.2406470962105151
 40
0.5000031230502395
 40
0.7593573171162341
 40
0.9999999999999999
 40
0.9999999999999999
 40
0.9999999999999999
 40
0.9999999999999999
 10
0.5275622770008019
 20
3.090144945529878
 30
0.0
 10
0.5238945002031292
 20
3.088756795559483
 30
0.0
 10
0.5162737980115548
 20
3.085872574925244
 30
0.0
 10
0.5016869208161013
 20
3.087487347336539
 30
0.0
 10
0.4871620249051793
 20
3.093440304160099
 30
0.0
 10
0.4796794271378858
 20
3.100234981530528
 30
0.0
 10
0.4760781398405604
 20
3.10350518074002
 30
0.0
  0
SPLINE
  5
1C4
330
1F
100
AcDbEntity
  8
0
  6
Continuous
 62
     7
370
    25
100
AcDbSpline
210
0.0
220
0.0
230
1.0
 70
     8
 71
     3
 72
    13
 73
     9
 74
     0
 42
0.00000001
 43
0.00000001
 40
0.0
 40
0.0
 40
0.0
 40
0.0
 40
0.2395446532903387
 40
0.3684873084863505
 40
0.499987124646977
 40
0.6314890151437004
 40
0.7604368960612374
 40
1.0
 40
1.0
 40
1.0
 40
1.0
 10
0.1219923458997128
 20
3.747037835195253
 30
0.0
 10
0.1187134531607174
 20
3.744445401741287
 30
0.0
 10
0.1136695903835201
 20
3.740457507155619
 30
0.0
 10
0.1079418740816996
 20
3.732227600903261
 30
0.0
 10
0.1041157254417683
 20
3.725112619486641
 30
0.0
 10
0.1012395003484525
 20
3.717440252188901
 30
0.0
 10
0.0986675344401491
 20
3.70735845095169
 30
0.0
 10
0.09873696656288
 20
3.700370601043748
 30
0.0
 10
0.0987821032766224
 20
3.695827911456198
 30
0.0
  0
SPLINE
  5
1C6
330
1F
100
AcDbEntity
  8
0
  6
Continuous
 62
     7
370
    25
100
AcDbSpline
210
0.0
220
0.0
230
1.0
 70
     8
 71
     3
 72
    23
 73
    19
 74
     0
 42
0.00000001
 43
0.00000001
 40
0.0
 40
0.0
 40
0.0
 40
0.0
 40
0.0740938297713046
 40
0.1265288343178259
 40
0.1817724156017713
 40
0.239813509436639
 40
0.2834546972940101
 40
0.33063325082885
 40
0.381345597151381
 40
0.4563009501737189
 40
0.4839895954306519
 40
0.5152513895569482
 40
0.5500848697994054
 40
0.5884897257293896
 40
0.688810629714484
 40
0.775295022435691
 40
0.8841852489562466
 40
1.0
 40
1.0
 40
1.0
 40
1.0
 10
-0.3593036776615403
 20
3.690084366213698
 30
0.0
 10
-0.3610160297497944
 20
3.676723614045386
 30
0.0
 10
-0.3639401857063326
 20
3.653907673734516
 30
0.0
 10
-0.3614405031822904
 20
3.620722541519295
 30
0.0
 10
-0.3569362524374449
 20
3.590500854988375
 30
0.0
 10
-0.3496785401298905
 20
3.561961322108492
 30
0.0
 10
-0.3404555426675369
 20
3.535069118131951
 30
0.0
 10
-0.3296715066538057
 20
3.509710926477506
 30
0.0
 10
-0.3138969374375227
 20
3.479119225274149
 30
0.0
 10
-0.2969856465868309
 20
3.452473736530444
 30
0.0
 10
-0.280216980837786
 20
3.429721517043779
 30
0.0
 10
-0.2676752984531208
 20
3.413998728677986
 30
0.0
 10
-0.252723034320597
 20
3.396766567586651
 30
0.0
 10
-0.2261191943673948
 20
3.368721868030703
 30
0.0
 10
-0.1873818451444213
 20
3.333798972145063
 30
0.0
 10
-0.1294581435977897
 20
3.291401171023952
 30
0.0
 10
-0.0639915302205495
 20
3.249593366802623
 30
0.0
 10
-0.0181312140874917
 20
3.21855287507608
 30
0.0
 10
0.0055055613560689
 20
3.202554356215694
 30
0.0
  0
SPLINE
  5
1C7
330
1F
100
AcDbEntity
  8
0
  6
Continuous
 62
     7
370
    25
100
AcDbSpline
210
0.0
220
0.0
230
1.0
 70
     8
 71
     3
 72
     9
 73
     5
 74
     0
 42
0.00000001
 43
0.00000001
 40
0.0
 40
0.0
 40
0.0
 40
0.0
 40
0.5004946842376072
 40
1.0
 40
1.0
 40
1.0
 40
1.0
 10
0.4142514472661518
 20
2.959439852286395
 30
0.0
 10
0.4220380930826215
 20
2.986187645708957
 30
0.0
 10
0.4375959922206133
 20
3.039630358019291
 30
0.0
 10
0.4631948334290192
 20
3.083701250413536
 30
0.0
 10
0.4759815906899753
 20
3.105714895434853
 30
0.0
  0
SPLINE
  5
1C8
330
1F
100
AcDbEntity
  8
0
  6
Continuous
 62
     7
370
    25
100
AcDbSpline
210
0.0
220
0.0
230
1.0
 70
     8
 71
     3
 72
    11
 73
     7
 74
     0
 42
0.00000001
 43
0.00000001
 40
0.0
 40
0.0
 40
0.0
 40
0.0
 40
0.284507209021307
 40
0.4720831958429693
 40
0.6949408277304657
 40
1.0
 40
1.0
 40
1.0
 40
1.0
 10
0.4142512282363256
 20
2.959439739911859
 30
0.0
 10
0.3935220825285851
 20
2.970407265579107
 30
0.0
 10
0.3591261830838302
 20
2.988605695718348
 30
0.0
 10
0.3084699949683042
 20
3.015299862552532
 30
0.0
 10
0.25611722660819
 20
3.042717581273284
 30
0.0
 10
0.2176265873020028
 20
3.063016835010265
 30
0.0
 10
0.1953845929680282
 20
3.074746852872797
 30
0.0
  0
SPLINE
  5
1C9
330
1F
100
AcDbEntity
  8
0
  6
Continuous
 62
     7
370
    25
100
AcDbSpline
210
0.0
220
0.0
230
1.0
 70
     8
 71
     3
 72
    13
 73
     9
 74
     0
 42
0.00000001
 43
0.00000001
 40
0.0
 40
0.0
 40
0.0
 40
0.0
 40
0.2409965279344958
 40
0.4576040542264014
 40
0.6922171366230099
 40
0.7301354368686805
 40
0.7945029823708308
 40
1.0
 40
1.0
 40
1.0
 40
1.0
 10
0.4710300276307756
 20
2.955877431185467
 30
0.0
 10
0.467056818893458
 20
2.95419657645263
 30
0.0
 10
0.4595124926657447
 20
2.95100497055314
 30
0.0
 10
0.4449689333978175
 20
2.949983285227254
 30
0.0
 10
0.434596367918881
 20
2.951377780467472
 30
0.0
 10
0.4279302156691639
 20
2.953181134012428
 30
0.0
 10
0.4219753732047053
 20
2.955078764311246
 30
0.0
 10
0.4175903470078883
 20
2.957554506640154
 30
0.0
 10
0.4142512283210334
 20
2.959439739955362
 30
0.0
  0
SPLINE
  5
1CB
330
1F
100
AcDbEntity
  8
0
  6
Continuous
 62
     7
370
    25
100
AcDbSpline
210
0.0
220
0.0
230
1.0
 70
     8
 71
     3
 72
    15
 73
    11
 74
     0
 42
0.00000001
 43
0.00000001
 40
0.0
 40
0.0
 40
0.0
 40
0.0
 40
0.027320576703753
 40
0.2495756241537616
 40
0.5142607437581439
 40
0.8762849974834228
 40
0.9656888420411592
 40
0.9895506453325162
 40
0.9964386043337585
 40
1.0
 40
1.0
 40
1.0
 40
1.0
 10
0.1991848761800028
 20
3.065202420952086
 30
0.0
 10
0.1991064338706766
 20
3.065232699853265
 30
0.0
 10
0.198389857184817
 20
3.065509300004952
 30
0.0
 10
0.1972788367302354
 20
3.066716934055441
 30
0.0
 10
0.1958367025533766
 20
3.06913161547344
 30
0.0
 10
0.1953453312632548
 20
3.071939315726786
 30
0.0
 10
0.1953504635691531
 20
3.073997737859469
 30
0.0
 10
0.1953729664442223
 20
3.074531028046518
 30
0.0
 10
0.1953809905865284
 20
3.074684192597192
 30
0.0
 10
0.1953836752546153
 20
3.074730924169923
 30
0.0
 10
0.1953845902551676
 20
3.074746851432983
 30
0.0
  0
SPLINE
  5
1CF
330
1F
100
AcDbEntity
  8
0
  6
Continuous
 62
     7
370
    25
100
AcDbSpline
210
0.0
220
0.0
230
1.0
 70
     8
 71
     3
 72
    10
 73
     6
 74
     0
 42
0.00000001
 43
0.00000001
 40
0.0
 40
0.0
 40
0.0
 40
0.0
 40
0.1980767302465077
 40
0.5701207459828631
 40
1.0
 40
1.0
 40
1.0
 40
1.0
 10
-0.2815738294664571
 20
3.238696117492572
 30
0.0
 10
-0.2741956158559185
 20
3.228931246694947
 30
0.0
 10
-0.2529590342421862
 20
3.200825191952224
 30
0.0
 10
-0.1998501170465628
 20
3.156283608003851
 30
0.0
 10
-0.1469562381185824
 20
3.125924008236645
 30
0.0
 10
-0.1186019278332323
 20
3.109649431113827
 30
0.0
  0
LWPOLYLINE
  5
1D4
330
1F
100
AcDbEntity
  8
0
  6
Continuous
 62
     7
370
    25
100
AcDbPolyline
 90
        6
 70
   128
 43
0.0
 10
4.5769799101
 20
1.6794709218
 10
4.0369416007
 20
1.9818922676
 10
3.5312279057
 20
2.2650913734
 10
3.0506894389
 20
2.5341919765
 10
2.5750202914
 20
2.8005653754
 10
2.4454902431
 20
2.8731017534
  0
SPLINE
  5
1D6
330
1F
100
AcDbEntity
  8
0
  6
Continuous
 62
     7
370
    25
100
AcDbSpline
210
0.0
220
0.0
230
1.0
 70
     8
 71
     3
 72
     9
 73
     5
 74
     0
 42
0.00000001
 43
0.00000001
 40
0.0
 40
0.0
 40
0.0
 40
0.0
 40
0.7813246340055313
 40
1.0
 40
1.0
 40
1.0
 40
1.0
 10
4.64507904390169
 20
1.514053906879719
 30
0.0
 10
4.652236377453828
 20
1.527484665485898
 30
0.0
 10
4.66139688928288
 20
1.54467439434076
 30
0.0
 10
4.661256947316154
 20
1.562239573295371
 30
0.0
 10
4.661226345455361
 20
1.566080645232028
 30
0.0
  0
SPLINE
  5
1D7
330
1F
100
AcDbEntity
  8
0
  6
Continuous
 62
     7
370
    25
100
AcDbSpline
210
0.0
220
0.0
230
1.0
 70
     8
 71
     3
 72
     9
 73
     5
 74
     0
 42
0.00000001
 43
0.00000001
 40
0.0
 40
0.0
 40
0.0
 40
0.0
 40
0.4261814956306612
 40
1.0
 40
1.0
 40
1.0
 40
1.0
 10
4.661785647897467
 20
1.186805603070936
 30
0.0
 10
4.661782350084263
 20
1.181574183748477
 30
0.0
 10
4.661774612035471
 20
1.169299086457553
 30
0.0
 10
4.651212560310453
 20
1.15813851463147
 30
0.0
 10
4.645151859586535
 20
1.151734371998321
 30
0.0
  0
SPLINE
  5
1D9
330
1F
100
AcDbEntity
  8
0
  6
Continuous
 62
     7
370
    25
100
AcDbSpline
210
0.0
220
0.0
230
1.0
 70
     8
 71
     3
 72
    12
 73
     8
 74
     0
 42
0.00000001
 43
0.00000001
 40
0.0
 40
0.0
 40
0.0
 40
0.0
 40
0.0444572243521649
 40
0.2204226350607541
 40
0.41163053375323
 40
0.7106160791475777
 40
1.0
 40
1.0
 40
1.0
 40
1.0
 10
0.5518199908703763
 20
1.84928970004852
 30
0.0
 10
0.5467437128879414
 20
1.846755706776361
 30
0.0
 10
0.5215751022629136
 20
1.834191956285533
 30
0.0
 10
0.4807085048743752
 20
1.800411568383655
 30
0.0
 10
0.4217276097502836
 20
1.736461842196397
 30
0.0
 10
0.367722513222118
 20
1.64149565488019
 30
0.0
 10
0.3496068977568355
 20
1.549518363262201
 30
0.0
 10
0.3406969047460838
 20
1.504280207979281
 30
0.0
  0
SPLINE
  5
1DB
330
1F
100
AcDbEntity
  8
0
  6
Continuous
 62
     7
370
    25
100
AcDbSpline
210
0.0
220
0.0
230
1.0
 70
     8
 71
     3
 72
    14
 73
    10
 74
     0
 42
0.00000001
 43
0.00000001
 40
0.0
 40
0.0
 40
0.0
 40
0.0
 40
0.0599175576468051
 40
0.1251964980462795
 40
0.1907721596252826
 40
0.3603314230153278
 40
0.5517366594488492
 40
0.7649603314538702
 40
1.0
 40
1.0
 40
1.0
 40
1.0
 10
-0.3975761109152858
 20
3.396768113304516
 30
0.0
 10
-0.3983772953599368
 20
3.388787112408722
 30
0.0
 10
-0.4000513536944026
 20
3.372110976025666
 30
0.0
 10
-0.3993976694369689
 20
3.34671678689488
 30
0.0
 10
-0.3947058098704639
 20
3.306925422791166
 30
0.0
 10
-0.3777948321277129
 20
3.251102806733212
 30
0.0
 10
-0.334229055127814
 20
3.179601853308846
 30
0.0
 10
-0.262890411449241
 20
3.105677894443004
 30
0.0
 10
-0.1919282738713615
 20
3.063380603507972
 30
0.0
 10
-0.1547204190529802
 20
3.041202699712525
 30
0.0
  0
LWPOLYLINE
  5
1DD
330
1F
100
AcDbEntity
  8
0
  6
Continuous
 62
     7
370
    25
100
AcDbPolyline
 90
        9
 70
   128
 43
0.0
 10
1.3160443258
 20
1.7092894204
 10
1.2505657761
 20
1.2071288505
 10
1.1357336061
 20
0.3266541398
 10
1.0232598433
 20
-0.5355781646
 10
0.9111802056
 20
-1.394634802
 10
0.8205964487
 20
-2.088825425
 10
0.7260039315
 20
-2.8136486561
 10
0.627678097
 20
-3.5669895825
 10
0.5263220733
 20
-4.3434542934
  0
SPLINE
  5
1DE
330
1F
100
AcDbEntity
  8
0
  6
Continuous
 62
     7
370
    25
100
AcDbSpline
210
0.0
220
0.0
230
1.0
 70
     8
 71
     3
 72
    11
 73
     7
 74
     0
 42
0.00000001
 43
0.00000001
 40
0.0
 40
0.0
 40
0.0
 40
0.0
 40
0.0755752751983687
 40
0.3958119590796109
 40
0.703966437455741
 40
1.0
 40
1.0
 40
1.0
 40
1.0
 10
0.5431077391749013
 20
-4.321554858427418
 30
0.0
 10
0.5431112809267283
 20
-4.322187153547336
 30
0.0
 10
0.5431298302171621
 20
-4.325498685916554
 30
0.0
 10
0.5401559679354696
 20
-4.331141352634086
 30
0.0
 10
0.5346458131315827
 20
-4.33802084730374
 30
0.0
 10
0.5290592952675086
 20
-4.341667530696535
 30
0.0
 10
0.5263220732877427
 20
-4.343454293431191
 30
0.0
  0
SPLINE
  5
1E8
330
1F
100
AcDbEntity
  8
0
  6
Continuous
 62
     7
370
    25
100
AcDbSpline
210
0.0
220
0.0
230
1.0
 70
     8
 71
     3
 72
    11
 73
     7
 74
     0
 42
0.00000001
 43
0.00000001
 40
0.0
 40
0.0
 40
0.0
 40
0.0
 40
0.0844238202411037
 40
0.3258760168486298
 40
0.5623906516239383
 40
1.0
 40
1.0
 40
1.0
 40
1.0
 10
0.9930608696520034
 20
3.225905989006005
 30
0.0
 10
0.9925000454866496
 20
3.226104484735592
 30
0.0
 10
0.9903352637386083
 20
3.226870678418067
 30
0.0
 10
0.9873364747900819
 20
3.229924491529789
 30
0.0
 10
0.98321237760441
 20
3.236045338030066
 30
0.0
 10
0.9821167548171496
 20
3.242675746026899
 30
0.0
 10
0.9814055284166918
 20
3.246979892735042
 30
0.0
  0
SPLINE
  5
1E9
330
1F
100
AcDbEntity
  8
0
  6
Continuous
 62
     7
370
    25
100
AcDbSpline
210
0.0
220
0.0
230
1.0
 70
     8
 71
     3
 72
    10
 73
     6
 74
     0
 42
0.00000001
 43
0.00000001
 40
0.0
 40
0.0
 40
0.0
 40
0.0
 40
0.0712823209417381
 40
0.5356411604709258
 40
0.9999999999999999
 40
0.9999999999999999
 40
0.9999999999999999
 40
0.9999999999999999
 10
2.216266098617551
 20
2.791573238557926
 30
0.0
 10
2.215788985439131
 20
2.791652508835449
 30
0.0
 10
2.212203784323511
 20
2.792248174392939
 30
0.0
 10
2.207342709570852
 20
2.79865110531099
 30
0.0
 10
2.205479734866368
 20
2.806842475843651
 30
0.0
 10
2.204548247514126
 20
2.81093816110998
 30
0.0
  0
SPLINE
  5
1EA
330
1F
100
AcDbEntity
  8
0
  6
Continuous
 62
     7
370
    25
100
AcDbSpline
210
0.0
220
0.0
230
1.0
 70
     8
 71
     3
 72
    10
 73
     6
 74
     0
 42
0.00000001
 43
0.00000001
 40
0.0
 40
0.0
 40
0.0
 40
0.0
 40
0.399444582478604
 40
0.7988891649572534
 40
0.9999999999999999
 40
0.9999999999999999
 40
0.9999999999999999
 40
0.9999999999999999
 10
2.250975283087212
 20
2.811338708215951
 30
0.0
 10
2.251008865995515
 20
2.807335671635284
 30
0.0
 10
2.251076031812123
 20
2.799329598473951
 30
0.0
 10
2.248344979600136
 20
2.79255857617406
 30
0.0
 10
2.245341030228211
 20
2.791862001187924
 30
0.0
 10
2.244335083484599
 20
2.791628735825487
 30
0.0
  0
SPLINE
  5
1EB
330
1F
100
AcDbEntity
  8
0
  6
Continuous
 62
     7
370
    25
100
AcDbSpline
210
0.0
220
0.0
230
1.0
 70
     8
 71
     3
 72
     9
 73
     5
 74
     0
 42
0.00000001
 43
0.00000001
 40
0.0
 40
0.0
 40
0.0
 40
0.0
 40
0.4748217280384756
 40
1.0
 40
1.0
 40
1.0
 40
1.0
 10
3.029133451326239
 20
3.244597420460342
 30
0.0
 10
3.031375301944426
 20
3.247098222640925
 30
0.0
 10
3.036096759463753
 20
3.252365046025174
 30
0.0
 10
3.036346994478824
 20
3.260509959049716
 30
0.0
 10
3.036478412471622
 20
3.264787490397221
 30
0.0
  0
SPLINE
  5
1EC
330
1F
100
AcDbEntity
  8
0
  6
Continuous
 62
     7
370
    25
100
AcDbSpline
210
0.0
220
0.0
230
1.0
 70
     8
 71
     3
 72
     9
 73
     5
 74
     0
 42
0.00000001
 43
0.00000001
 40
0.0
 40
0.0
 40
0.0
 40
0.0
 40
0.4805688826941571
 40
0.9999999999999999
 40
0.9999999999999999
 40
0.9999999999999999
 40
0.9999999999999999
 10
3.013867539840407
 20
3.40681658313049
 30
0.0
 10
3.010722825029638
 20
3.40799445791232
 30
0.0
 10
3.004179091292366
 20
3.410445458849431
 30
0.0
 10
2.996389512868328
 20
3.40738193739714
 30
0.0
 10
2.992343363444189
 20
3.405790649026285
 30
0.0
  0
SPLINE
  5
1ED
330
1F
100
AcDbEntity
  8
0
  6
Continuous
 62
     7
370
    25
100
AcDbSpline
210
0.0
220
0.0
230
1.0
 70
     8
 71
     3
 72
    10
 73
     6
 74
     0
 42
0.00000001
 43
0.00000001
 40
0.0
 40
0.0
 40
0.0
 40
0.0
 40
0.4808424252681164
 40
0.9984494475748561
 40
1.0
 40
1.0
 40
1.0
 40
1.0
 10
1.572435047713063
 20
4.142644808208391
 30
0.0
 10
1.57607537221343
 20
4.14397064818642
 30
0.0
 10
1.583634355771
 20
4.146723700172004
 30
0.0
 10
1.59146359423861
 20
4.146335294936228
 30
0.0
 10
1.594088500581836
 20
4.14383089557306
 30
0.0
 10
1.594096340311225
 20
4.14382341575827
 30
0.0
  0
SPLINE
  5
1EE
330
1F
100
AcDbEntity
  8
0
  6
Continuous
 62
     7
370
    25
100
AcDbSpline
210
0.0
220
0.0
230
1.0
 70
     8
 71
     3
 72
     9
 73
     5
 74
     0
 42
0.00000001
 43
0.00000001
 40
0.0
 40
0.0
 40
0.0
 40
0.0
 40
0.455194408550075
 40
1.0
 40
1.0
 40
1.0
 40
1.0
 10
3.041803604978298
 20
3.276451862878577
 30
0.0
 10
3.041801327349748
 20
3.27462463150211
 30
0.0
 10
3.041796323710627
 20
3.270610453511023
 30
0.0
 10
3.038353881372248
 20
3.26684106997334
 30
0.0
 10
3.036478419538055
 20
3.26478748874569
 30
0.0
  0
SPLINE
  5
1F0
330
1F
100
AcDbEntity
  8
0
  6
Continuous
 62
     7
370
    25
100
AcDbSpline
210
0.0
220
0.0
230
1.0
 70
     8
 71
     3
 72
     9
 73
     5
 74
     0
 42
0.00000001
 43
0.00000001
 40
0.0
 40
0.0
 40
0.0
 40
0.0
 40
0.2543532056574975
 40
1.0
 40
1.0
 40
1.0
 40
1.0
 10
0.6553589894685007
 20
3.207201120675467
 30
0.0
 10
0.6419396980460316
 20
3.20125847548996
 30
0.0
 10
0.5891812066097604
 20
3.177894723615289
 30
0.0
 10
0.5538825827365575
 20
3.127626949876753
 30
0.0
 10
0.5275622770008019
 20
3.090144945529878
 30
0.0
  0
SPLINE
  5
1F2
330
1F
100
AcDbEntity
  8
0
  6
Continuous
 62
     7
370
    25
100
AcDbSpline
210
0.0
220
0.0
230
1.0
 70
     8
 71
     3
 72
    10
 73
     6
 74
     0
 42
0.00000001
 43
0.00000001
 40
0.0
 40
0.0
 40
0.0
 40
0.0
 40
0.0811297575296934
 40
0.5266162675447987
 40
1.0
 40
1.0
 40
1.0
 40
1.0
 10
0.0055055613560689
 20
3.202554356215694
 30
0.0
 10
0.0106522343730473
 20
3.19910591600557
 30
0.0
 10
0.0440594799633307
 20
3.176721962600534
 30
0.0
 10
0.1074353911302138
 20
3.134159147713087
 30
0.0
 10
0.1654807618225689
 20
3.094947772406332
 30
0.0
 10
0.1953845860624544
 20
3.074746849207958
 30
0.0
  0
SPLINE
  5
1F3
330
1F
100
AcDbEntity
  8
0
  6
Continuous
 62
     7
370
    25
100
AcDbSpline
210
0.0
220
0.0
230
1.0
 70
     8
 71
     3
 72
    13
 73
     9
 74
     0
 42
0.00000001
 43
0.00000001
 40
0.0
 40
0.0
 40
0.0
 40
0.0
 40
0.1810150331684501
 40
0.3709885872897554
 40
0.5637850356887508
 40
0.7563068272802531
 40
0.9488298497946358
 40
1.0
 40
1.0
 40
1.0
 40
1.0
 10
0.0987821032758966
 20
3.695827911456429
 30
0.0
 10
0.056617573509508
 20
3.710972803512309
 30
0.0
 10
-0.0297982288576498
 20
3.742012115607662
 30
0.0
 10
-0.1573805751747134
 20
3.796085718091779
 30
0.0
 10
-0.2501517071210292
 20
3.86977176475397
 30
0.0
 10
-0.3053632431358708
 20
3.95407417276706
 30
0.0
 10
-0.3256516088998128
 20
4.023064004479443
 30
0.0
 10
-0.3145388681529702
 20
4.0622872576817
 30
0.0
 10
-0.312205439576113
 20
4.070523269119782
 30
0.0
  0
SPLINE
  5
1F4
330
1F
100
AcDbEntity
  8
0
  6
Continuous
 62
     7
370
    25
100
AcDbSpline
210
0.0
220
0.0
230
1.0
 70
     8
 71
     3
 72
     9
 73
     5
 74
     0
 42
0.00000001
 43
0.00000001
 40
0.0
 40
0.0
 40
0.0
 40
0.0
 40
0.5565053340791847
 40
1.0
 40
1.0
 40
1.0
 40
1.0
 10
1.073283743208033
 20
4.399320152599065
 30
0.0
 10
1.077780124272354
 20
4.401047001947185
 30
0.0
 10
1.085859797168503
 20
4.404150025839984
 30
0.0
 10
1.092261116908063
 20
4.400913472063325
 30
0.0
 10
1.095100068067411
 20
4.399478077727411
 30
0.0
  0
LWPOLYLINE
  5
1F9
330
1F
100
AcDbEntity
  8
0
  6
Continuous
 62
     7
370
    25
100
AcDbPolyline
 90
       10
 70
   128
 43
0.0
 10
0.2492539377
 20
3.0351180769
 10
0.167729945
 20
3.0449519267
 10
0.0708803193
 20
3.0639879301
 10
-0.0198610751
 20
3.0902848146
 10
-0.1028038977
 20
3.1233527191
 10
-0.1764030806
 20
3.1625756512
 10
-0.2392876103
 20
3.2072229617
 10
-0.290286067
 20
3.2564629559
 10
-0.328448446
 20
3.3093783856
 10
-0.3304853136
 20
3.3129557028
  0
LWPOLYLINE
  5
1FB
330
1F
100
AcDbEntity
  8
0
  6
Continuous
 62
     7
370
    25
100
AcDbPolyline
 90
        3
 70
   128
 43
0.0
 10
1.0142534081
 20
3.2174404628
 10
1.0064916099
 20
3.2114862154
 10
0.9380324273
 20
3.1663894259
  0
LINE
  5
1FC
330
1F
100
AcDbEntity
  8
0
  6
Continuous
 62
     7
370
    25
100
AcDbLine
 10
4.663229394
 20
1.1867483292
 30
0.0
 11
4.6631693969
 21
1.5762835737
 31
0.0
  0
LINE
  5
1FD
330
1F
100
AcDbEntity
  8
0
  6
Continuous
 62
     7
370
    25
100
AcDbLine
 10
4.6273685673
 20
1.6650036619
 30
0.0
 11
4.6044299697
 21
1.6815020952
 31
0.0
  0
LINE
  5
1FE
330
1F
100
AcDbEntity
  8
0
  6
Continuous
 62
     7
370
    25
100
AcDbLine
 10
-0.3976664601
 20
3.3967777128
 30
0.0
 11
-1.3341557461
 21
-4.288718986
 31
0.0
  0
LINE
  5
1FF
330
1F
100
AcDbEntity
  8
0
  6
Continuous
 62
     7
370
    25
100
AcDbLine
 10
-1.0860040641
 20
-4.6658428122
 30
0.0
 11
-0.5844947709
 21
-4.9462058692
 31
0.0
  0
LINE
  5
200
330
1F
100
AcDbEntity
  8
0
  6
Continuous
 62
     7
370
    25
100
AcDbLine
 10
-0.5094987463
 20
-4.9459989926
 30
0.0
 11
0.5223798312
 21
-4.3503081695
 31
0.0
  0
LINE
  5
201
330
1F
100
AcDbEntity
  8
0
  6
Continuous
 62
     7
370
    25
100
AcDbLine
 10
-0.1506032357
 20
-4.5021734724
 30
0.0
 11
-0.1530267655
 21
-4.5003810805
 31
0.0
  0
LINE
  5
202
330
1F
100
AcDbEntity
  8
0
  6
Continuous
 62
     7
370
    25
100
AcDbLine
 10
-0.0139896375
 20
-4.4633656484
 30
0.0
 11
-0.0115787118
 21
-4.4651487186
 31
0.0
  0
LINE
  5
203
330
1F
100
AcDbEntity
  8
0
  6
Continuous
 62
     7
370
    25
100
AcDbLine
 10
0.0887259232
 20
-4.3796216614
 30
0.0
 11
0.0860774687
 21
-4.3776629199
 31
0.0
  0
LINE
  5
204
330
1F
100
AcDbEntity
  8
0
  6
Continuous
 62
     7
370
    25
100
AcDbLine
 10
0.0525905109
 20
-4.4229848952
 30
0.0
 11
0.0570886583
 21
-4.426311631
 31
0.0
  0
LINE
  5
205
330
1F
100
AcDbEntity
  8
0
  6
Continuous
 62
     7
370
    25
100
AcDbLine
 10
0.1997639187
 20
-4.3389453386
 30
0.0
 11
0.2018369935
 21
-4.3404785414
 31
0.0
  0
LINE
  5
206
330
1F
100
AcDbEntity
  8
0
  6
Continuous
 62
     7
370
    25
100
AcDbLine
 10
-1.1248465309
 20
-4.6402489945
 30
0.0
 11
-1.0862961472
 21
-4.665665096
 31
0.0
  0
LINE
  5
207
330
1F
100
AcDbEntity
  8
0
  6
Continuous
 62
     7
370
    25
100
AcDbLine
 10
-0.4929768768
 20
-5.3138181653
 30
0.0
 11
0.8080996006
 21
-4.5627227024
 31
0.0
  0
LINE
  5
208
330
1F
100
AcDbEntity
  8
0
  6
Continuous
 62
     7
370
    25
100
AcDbLine
 10
-1.2533900365
 20
-4.9382704338
 30
0.0
 11
-0.6028517978
 21
-5.3138181653
 31
0.0
  0
LINE
  5
209
330
1F
100
AcDbEntity
  8
0
  6
Continuous
 62
     7
370
    25
100
AcDbLine
 10
-1.5479143373
 20
-4.3410036651
 30
0.0
 11
-1.5479143373
 21
-4.5264613007
 31
0.0
  0
LINE
  5
20A
330
1F
100
AcDbEntity
  8
0
  6
Continuous
 62
     7
370
    25
100
AcDbLine
 10
0.8331621401
 20
-4.5264613007
 30
0.0
 11
0.8331621401
 21
-4.3410036651
 31
0.0
  0
LINE
  5
20B
330
1F
100
AcDbEntity
  8
0
  6
Continuous
 62
     7
370
    25
100
AcDbLine
 10
0.8076592084
 20
-4.3037688926
 30
0.0
 11
0.5640654957
 21
-4.1631452354
 31
0.0
  0
LINE
  5
20C
330
1F
100
AcDbEntity
  8
0
  6
Continuous
 62
     7
370
    25
100
AcDbLine
 10
3.0420693334
 20
3.2764550899
 30
0.0
 11
3.0355558183
 21
3.3741092203
 31
0.0
  0
LINE
  5
20D
330
1F
100
AcDbEntity
  8
0
  6
Continuous
 62
     7
370
    25
100
AcDbLine
 10
0.6433130785
 20
3.2062712629
 30
0.0
 11
0.6654242138
 21
3.2163097911
 31
0.0
  0
LINE
  5
20E
330
1F
100
AcDbEntity
  8
0
  6
Continuous
 62
     7
370
    25
100
AcDbLine
 10
-0.315113885
 20
4.0710432041
 30
0.0
 11
-0.317093725
 21
4.062629284
 31
0.0
  0
LINE
  5
20F
330
1F
100
AcDbEntity
  8
0
  6
Continuous
 62
     7
370
    25
100
AcDbLine
 10
0.1976081321
 20
3.0659911266
 30
0.0
 11
0.4199926903
 21
2.9484539354
 31
0.0
  0
LINE
  5
210
330
1F
100
AcDbEntity
  8
0
  6
Continuous
 62
     7
370
    25
100
AcDbLine
 10
0.4676434119
 20
2.950215445
 30
0.0
 11
0.9595477095
 21
3.2341708259
 31
0.0
  0
LINE
  5
211
330
1F
100
AcDbEntity
  8
0
  6
Continuous
 62
     7
370
    25
100
AcDbLine
 10
-0.3442051951
 20
3.5352573004
 30
0.0
 11
-0.3525285748
 21
3.5103039359
 31
0.0
  0
LINE
  5
212
330
1F
100
AcDbEntity
  8
0
  6
Continuous
 62
     7
370
    25
100
AcDbLine
 10
4.1827258047
 20
1.3981536977
 30
0.0
 11
0.9253908961
 21
3.1472204273
 31
0.0
  0
LINE
  5
213
330
1F
100
AcDbEntity
  8
0
  6
Continuous
 62
     7
370
    25
100
AcDbLine
 10
3.7974746602
 20
0.6623807839
 30
0.0
 11
3.7975719355
 21
1.0248189655
 31
0.0
  0
LINE
  5
214
330
1F
100
AcDbEntity
  8
0
  6
Continuous
 62
     7
370
    25
100
AcDbLine
 10
-1.0900376219
 20
-4.6568886648
 30
0.0
 11
-0.1547204191
 21
3.0412026997
 31
0.0
  0
LINE
  5
215
330
1F
100
AcDbEntity
  8
0
  6
Continuous
 62
     7
370
    25
100
AcDbLine
 10
0.2584219125
 20
1.5101792058
 30
0.0
 11
-0.5885282263
 21
-4.937247781
 31
0.0
  0
LINE
  5
216
330
1F
100
AcDbEntity
  8
0
  6
Continuous
 62
     7
370
    25
100
AcDbLine
 10
4.6450792058
 20
1.5140538485
 30
0.0
 11
4.6451517954
 21
1.1517343953
 31
0.0
  0
LINE
  5
217
330
1F
100
AcDbEntity
  8
0
  6
Continuous
 62
     7
370
    25
100
AcDbLine
 10
4.6612263455
 20
1.5660806452
 30
0.0
 11
4.6615401574
 21
1.5763106276
 31
0.0
  0
LINE
  5
218
330
1F
100
AcDbEntity
  8
0
  6
Continuous
 62
     7
370
    25
100
AcDbLine
 10
0.557491226
 20
1.8522301902
 30
0.0
 11
0.5518199909
 21
1.8492897
 31
0.0
  0
LINE
  5
219
330
1F
100
AcDbEntity
  8
0
  6
Continuous
 62
     7
370
    25
100
AcDbLine
 10
-0.1268091765
 20
3.1247171888
 30
0.0
 11
-0.1681060667
 21
3.1525575628
 31
0.0
  0
LINE
  5
21A
330
1F
100
AcDbEntity
  8
0
  6
Continuous
 62
     7
370
    25
100
AcDbLine
 10
1.0055137953
 20
3.2080594825
 30
0.0
 11
0.9550082987
 21
3.167060031
 31
0.0
  0
LINE
  5
21B
330
1F
100
AcDbEntity
  8
0
  6
Continuous
 62
     7
370
    25
100
AcDbLine
 10
0.9189667645
 20
3.1440589115
 30
0.0
 11
0.92500553
 21
3.1475041244
 31
0.0
  0
LINE
  5
21C
330
1F
100
AcDbEntity
  8
0
  6
Continuous
 62
     7
370
    25
100
AcDbLine
 10
0.5263220733
 20
-4.3434542934
 30
0.0
 11
-0.5055565047
 21
-4.9391451169
 31
0.0
  0
LINE
  5
21D
330
1F
100
AcDbEntity
  8
0
  6
Continuous
 62
     7
370
    25
100
AcDbLine
 10
0.0153783855
 20
-4.4579200225
 30
0.0
 11
0.0150916453
 21
-4.458085554
 31
0.0
  0
LINE
  5
21E
330
1F
100
AcDbEntity
  8
0
  6
Continuous
 62
     7
370
    25
100
AcDbLine
 10
0.0149239161
 20
-4.4613918405
 30
0.0
 11
0.0153783855
 21
-4.4579200225
 31
0.0
  0
LINE
  5
21F
330
1F
100
AcDbEntity
  8
0
  6
Continuous
 62
     7
370
    25
100
AcDbLine
 10
-0.0303327335
 20
-4.5036911015
 30
0.0
 11
-0.0178526493
 21
-4.4897830298
 31
0.0
  0
LINE
  5
220
330
1F
100
AcDbEntity
  8
0
  6
Continuous
 62
     7
370
    25
100
AcDbLine
 10
0.035795883
 20
-4.3925766115
 30
0.0
 11
0.0275422081
 21
-4.4556287334
 31
0.0
  0
LINE
  5
221
330
1F
100
AcDbEntity
  8
0
  6
Continuous
 62
     7
370
    25
100
AcDbLine
 10
0.0221520628
 20
-4.4004530212
 30
0.0
 11
0.035795883
 21
-4.3925766115
 31
0.0
  0
LINE
  5
222
330
1F
100
AcDbEntity
  8
0
  6
Continuous
 62
     7
370
    25
100
AcDbLine
 10
0.0173342227
 20
-4.4372578438
 30
0.0
 11
0.0221520628
 21
-4.4004530212
 31
0.0
  0
LINE
  5
223
330
1F
100
AcDbEntity
  8
0
  6
Continuous
 62
     7
370
    25
100
AcDbLine
 10
-0.0084734557
 20
-4.4181327567
 30
0.0
 11
-0.013473006
 21
-4.4563257146
 31
0.0
  0
LINE
  5
224
330
1F
100
AcDbEntity
  8
0
  6
Continuous
 62
     7
370
    25
100
AcDbLine
 10
-0.0221228437
 20
-4.4260123807
 30
0.0
 11
-0.0084734557
 21
-4.4181327567
 31
0.0
  0
LINE
  5
225
330
1F
100
AcDbEntity
  8
0
  6
Continuous
 62
     7
370
    25
100
AcDbLine
 10
-0.0270487801
 20
-4.463642981
 30
0.0
 11
-0.0221228437
 21
-4.4260123807
 31
0.0
  0
LINE
  5
226
330
1F
100
AcDbEntity
  8
0
  6
Continuous
 62
     7
370
    25
100
AcDbLine
 10
-0.0948028042
 20
-4.4682131427
 30
0.0
 11
-0.1014222519
 21
-4.4848285245
 31
0.0
  0
LINE
  5
227
330
1F
100
AcDbEntity
  8
0
  6
Continuous
 62
     7
370
    25
100
AcDbLine
 10
-0.1158872319
 20
-4.4867299656
 30
0.0
 11
-0.1155977078
 21
-4.4865628269
 31
0.0
  0
LINE
  5
228
330
1F
100
AcDbEntity
  8
0
  6
Continuous
 62
     7
370
    25
100
AcDbLine
 10
-0.1149542718
 20
-4.4796028234
 30
0.0
 11
-0.1158872319
 21
-4.4867299656
 31
0.0
  0
LINE
  5
229
330
1F
100
AcDbEntity
  8
0
  6
Continuous
 62
     7
370
    25
100
AcDbLine
 10
-0.1277517909
 20
-4.486990674
 30
0.0
 11
-0.1149542718
 21
-4.4796028234
 31
0.0
  0
LINE
  5
22A
330
1F
100
AcDbEntity
  8
0
  6
Continuous
 62
     7
370
    25
100
AcDbLine
 10
-0.1362685389
 20
-4.5520524842
 30
0.0
 11
-0.1277517909
 21
-4.486990674
 31
0.0
  0
LINE
  5
22B
330
1F
100
AcDbEntity
  8
0
  6
Continuous
 62
     7
370
    25
100
AcDbLine
 10
-0.1226330703
 20
-4.5441808958
 30
0.0
 11
-0.1362685389
 21
-4.5520524842
 31
0.0
  0
LINE
  5
22C
330
1F
100
AcDbEntity
  8
0
  6
Continuous
 62
     7
370
    25
100
AcDbLine
 10
-0.1169988901
 20
-4.5011398238
 30
0.0
 11
-0.1226330703
 21
-4.5441808958
 31
0.0
  0
LINE
  5
22D
330
1F
100
AcDbEntity
  8
0
  6
Continuous
 62
     7
370
    25
100
AcDbLine
 10
0.1052190758
 20
-4.3870510675
 30
0.0
 11
0.0525674594
 21
-4.4174461987
 31
0.0
  0
LINE
  5
22E
330
1F
100
AcDbEntity
  8
0
  6
Continuous
 62
     7
370
    25
100
AcDbLine
 10
0.1055565377
 20
-4.3844731021
 30
0.0
 11
0.1052190758
 21
-4.3870510675
 31
0.0
  0
LINE
  5
22F
330
1F
100
AcDbEntity
  8
0
  6
Continuous
 62
     7
370
    25
100
AcDbLine
 10
0.0893540883
 20
-4.4026751606
 30
0.0
 11
0.1000256655
 21
-4.4026024377
 31
0.0
  0
LINE
  5
230
330
1F
100
AcDbEntity
  8
0
  6
Continuous
 62
     7
370
    25
100
AcDbLine
 10
0.1608248376
 20
-4.3609043225
 30
0.0
 11
0.1718232644
 21
-4.3612640105
 31
0.0
  0
LINE
  5
231
330
1F
100
AcDbEntity
  8
0
  6
Continuous
 62
     7
370
    25
100
AcDbLine
 10
0.1502973838
 20
-4.3248619964
 30
0.0
 11
0.1484400283
 21
-4.3381071837
 31
0.0
  0
LINE
  5
232
330
1F
100
AcDbEntity
  8
0
  6
Continuous
 62
     7
370
    25
100
AcDbLine
 10
0.2113251632
 20
-4.3412618276
 30
0.0
 11
0.2038361188
 21
-4.3557717029
 31
0.0
  0
LINE
  5
233
330
1F
100
AcDbEntity
  8
0
  6
Continuous
 62
     7
370
    25
100
AcDbLine
 10
0.2045403533
 20
-4.3412304065
 30
0.0
 11
0.2113251632
 21
-4.3412618276
 31
0.0
  0
LINE
  5
234
330
1F
100
AcDbEntity
  8
0
  6
Continuous
 62
     7
370
    25
100
AcDbLine
 10
0.2039116916
 20
-4.3061825741
 30
0.0
 11
0.2005537326
 21
-4.3318349583
 31
0.0
  0
LINE
  5
235
330
1F
100
AcDbEntity
  8
0
  6
Continuous
 62
     7
370
    25
100
AcDbLine
 10
0.2148078174
 20
-4.2998923745
 30
0.0
 11
0.2039116916
 21
-4.3061825741
 31
0.0
  0
LINE
  5
236
330
1F
100
AcDbEntity
  8
0
  6
Continuous
 62
     7
370
    25
100
AcDbLine
 10
0.2165365831
 20
-4.2866858511
 30
0.0
 11
0.2148078174
 21
-4.2998923745
 31
0.0
  0
LINE
  5
237
330
1F
100
AcDbEntity
  8
0
  6
Continuous
 62
     7
370
    25
100
AcDbLine
 10
0.2056404574
 20
-4.2929760507
 30
0.0
 11
0.2165365831
 21
-4.2866858511
 31
0.0
  0
LINE
  5
238
330
1F
100
AcDbEntity
  8
0
  6
Continuous
 62
     7
370
    25
100
AcDbLine
 10
0.2083998186
 20
-4.2718965214
 30
0.0
 11
0.2056404574
 21
-4.2929760507
 31
0.0
  0
LINE
  5
239
330
1F
100
AcDbEntity
  8
0
  6
Continuous
 62
     7
370
    25
100
AcDbLine
 10
0.1942704049
 20
-4.2836594528
 30
0.0
 11
0.2083998186
 21
-4.2718965214
 31
0.0
  0
LINE
  5
23A
330
1F
100
AcDbEntity
  8
0
  6
Continuous
 62
     7
370
    25
100
AcDbLine
 10
0.1920216921
 20
-4.3008379965
 30
0.0
 11
0.1942704049
 21
-4.2836594528
 31
0.0
  0
LINE
  5
23B
330
1F
100
AcDbEntity
  8
0
  6
Continuous
 62
     7
370
    25
100
AcDbLine
 10
0.150569645
 20
-4.3247677539
 30
0.0
 11
0.1920216921
 21
-4.3008379965
 31
0.0
  0
LINE
  5
23C
330
1F
100
AcDbEntity
  8
0
  6
Continuous
 62
     7
370
    25
100
AcDbLine
 10
0.1615186913
 20
-4.3306555322
 30
0.0
 11
0.150569645
 21
-4.3247677539
 31
0.0
  0
LINE
  5
23D
330
1F
100
AcDbEntity
  8
0
  6
Continuous
 62
     7
370
    25
100
AcDbLine
 10
0.1902929264
 20
-4.3140445199
 30
0.0
 11
0.1615186913
 21
-4.3306555322
 31
0.0
  0
LINE
  5
23E
330
1F
100
AcDbEntity
  8
0
  6
Continuous
 62
     7
370
    25
100
AcDbLine
 10
0.186597118
 20
-4.3422778293
 30
0.0
 11
0.1902929264
 21
-4.3140445199
 31
0.0
  0
LINE
  5
23F
330
1F
100
AcDbEntity
  8
0
  6
Continuous
 62
     7
370
    25
100
AcDbLine
 10
0.2755524079
 20
-4.2541681158
 30
0.0
 11
0.2891683892
 21
-4.246307777
 31
0.0
  0
LINE
  5
240
330
1F
100
AcDbEntity
  8
0
  6
Continuous
 62
     7
370
    25
100
AcDbLine
 10
0.2745148384
 20
-4.2620943976
 30
0.0
 11
0.2755524079
 21
-4.2541681158
 31
0.0
  0
LINE
  5
241
330
1F
100
AcDbEntity
  8
0
  6
Continuous
 62
     7
370
    25
100
AcDbLine
 10
0.2742336661
 20
-4.262256715
 30
0.0
 11
0.2745148384
 21
-4.2620943976
 31
0.0
  0
LINE
  5
242
330
1F
100
AcDbEntity
  8
0
  6
Continuous
 62
     7
370
    25
100
AcDbLine
 10
0.2680724545
 20
-4.3113095637
 30
0.0
 11
0.2677912821
 21
-4.3114718811
 31
0.0
  0
LINE
  5
243
330
1F
100
AcDbEntity
  8
0
  6
Continuous
 62
     7
370
    25
100
AcDbLine
 10
0.2670356599
 20
-4.319229926
 30
0.0
 11
0.2680724545
 21
-4.3113095637
 31
0.0
  0
LINE
  5
244
330
1F
100
AcDbEntity
  8
0
  6
Continuous
 62
     7
370
    25
100
AcDbLine
 10
0.2806516413
 20
-4.3113695873
 30
0.0
 11
0.2670356599
 21
-4.319229926
 31
0.0
  0
LINE
  5
245
330
1F
100
AcDbEntity
  8
0
  6
Continuous
 62
     7
370
    25
100
AcDbLine
 10
0.2891683892
 20
-4.246307777
 30
0.0
 11
0.2806516413
 21
-4.3113695873
 31
0.0
  0
LINE
  5
246
330
1F
100
AcDbEntity
  8
0
  6
Continuous
 62
     7
370
    25
100
AcDbLine
 10
-0.2052412667
 20
-4.5537829246
 30
0.0
 11
-0.1996128981
 21
-4.5107862492
 31
0.0
  0
LINE
  5
247
330
1F
100
AcDbEntity
  8
0
  6
Continuous
 62
     7
370
    25
100
AcDbLine
 10
-0.2150544612
 20
-4.5594479612
 30
0.0
 11
-0.2052412667
 21
-4.5537829246
 31
0.0
  0
LINE
  5
248
330
1F
100
AcDbEntity
  8
0
  6
Continuous
 62
     7
370
    25
100
AcDbLine
 10
-0.2169889586
 20
-4.574226126
 30
0.0
 11
-0.2150544612
 21
-4.5594479612
 31
0.0
  0
LINE
  5
249
330
1F
100
AcDbEntity
  8
0
  6
Continuous
 62
     7
370
    25
100
AcDbLine
 10
-0.2071757641
 20
-4.5685610894
 30
0.0
 11
-0.2169889586
 21
-4.574226126
 31
0.0
  0
LINE
  5
24A
330
1F
100
AcDbEntity
  8
0
  6
Continuous
 62
     7
370
    25
100
AcDbLine
 10
-0.2106577045
 20
-4.5951606021
 30
0.0
 11
-0.2071757641
 21
-4.5685610894
 31
0.0
  0
LINE
  5
24B
330
1F
100
AcDbEntity
  8
0
  6
Continuous
 62
     7
370
    25
100
AcDbLine
 10
-0.1954604764
 20
-4.5863874291
 30
0.0
 11
-0.2106577045
 21
-4.5951606021
 31
0.0
  0
LINE
  5
24C
330
1F
100
AcDbEntity
  8
0
  6
Continuous
 62
     7
370
    25
100
AcDbLine
 10
-0.191978536
 20
-4.5597879164
 30
0.0
 11
-0.1954604764
 21
-4.5863874291
 31
0.0
  0
LINE
  5
24D
330
1F
100
AcDbEntity
  8
0
  6
Continuous
 62
     7
370
    25
100
AcDbLine
 10
-0.1679897993
 20
-4.5459395134
 30
0.0
 11
-0.191978536
 21
-4.5597879164
 31
0.0
  0
LINE
  5
24E
330
1F
100
AcDbEntity
  8
0
  6
Continuous
 62
     7
370
    25
100
AcDbLine
 10
-0.1996128981
 20
-4.5107862492
 30
0.0
 11
-0.1604269333
 21
-4.4881646733
 31
0.0
  0
LINE
  5
24F
330
1F
100
AcDbEntity
  8
0
  6
Continuous
 62
     7
370
    25
100
AcDbLine
 10
-0.1933461635
 20
-4.5587764477
 30
0.0
 11
-0.1693574268
 21
-4.5449280448
 31
0.0
  0
LINE
  5
250
330
1F
100
AcDbEntity
  8
0
  6
Continuous
 62
     7
370
    25
100
AcDbLine
 10
-0.1968281039
 20
-4.5853759604
 30
0.0
 11
-0.1933461635
 21
-4.5587764477
 31
0.0
  0
LINE
  5
251
330
1F
100
AcDbEntity
  8
0
  6
Continuous
 62
     7
370
    25
100
AcDbLine
 10
-0.2104026796
 20
-4.5932123962
 30
0.0
 11
-0.1968281039
 21
-4.5853759604
 31
0.0
  0
LINE
  5
252
330
1F
100
AcDbEntity
  8
0
  6
Continuous
 62
     7
370
    25
100
AcDbLine
 10
-0.2167339337
 20
-4.5722779201
 30
0.0
 11
-0.2085433915
 21
-4.5675496207
 31
0.0
  0
LINE
  5
253
330
1F
100
AcDbEntity
  8
0
  6
Continuous
 62
     7
370
    25
100
AcDbLine
 10
-0.16490502
 20
-4.502618446
 30
0.0
 11
-0.1877189573
 21
-4.5157886517
 31
0.0
  0
LINE
  5
254
330
1F
100
AcDbEntity
  8
0
  6
Continuous
 62
     7
370
    25
100
AcDbLine
 10
-0.1877189573
 20
-4.5157886517
 30
0.0
 11
-0.1914116661
 21
-4.5439982829
 31
0.0
  0
LINE
  5
255
330
1F
100
AcDbEntity
  8
0
  6
Continuous
 62
     7
370
    25
100
AcDbLine
 10
-0.1914116661
 20
-4.5439982829
 30
0.0
 11
-0.1900440386
 21
-4.5450097516
 31
0.0
  0
LINE
  5
256
330
1F
100
AcDbEntity
  8
0
  6
Continuous
 62
     7
370
    25
100
AcDbLine
 10
-0.1877189573
 20
-4.5157886517
 30
0.0
 11
-0.1863513298
 21
-4.5168001204
 31
0.0
  0
LINE
  5
257
330
1F
100
AcDbEntity
  8
0
  6
Continuous
 62
     7
370
    25
100
AcDbLine
 10
-0.1900440386
 20
-4.5450097516
 30
0.0
 11
-0.1863513298
 21
-4.5168001204
 31
0.0
  0
LINE
  5
258
330
1F
100
AcDbEntity
  8
0
  6
Continuous
 62
     7
370
    25
100
AcDbLine
 10
-0.16490502
 20
-4.502618446
 30
0.0
 11
-0.1635373926
 21
-4.5036299147
 31
0.0
  0
LINE
  5
259
330
1F
100
AcDbEntity
  8
0
  6
Continuous
 62
     7
370
    25
100
AcDbLine
 10
-0.1863513298
 20
-4.5168001204
 30
0.0
 11
-0.1635373926
 21
-4.5036299147
 31
0.0
  0
LINE
  5
25A
330
1F
100
AcDbEntity
  8
0
  6
Continuous
 62
     7
370
    25
100
AcDbLine
 10
-0.1672301013
 20
-4.5318395459
 30
0.0
 11
-0.1900440386
 21
-4.5450097516
 31
0.0
  0
LINE
  5
25B
330
1F
100
AcDbEntity
  8
0
  6
Continuous
 62
     7
370
    25
100
AcDbLine
 10
-0.1359725485
 20
-4.4989536556
 30
0.0
 11
-0.134604921
 21
-4.4999651243
 31
0.0
  0
LINE
  5
25C
330
1F
100
AcDbEntity
  8
0
  6
Continuous
 62
     7
370
    25
100
AcDbLine
 10
-0.2085433915
 20
-4.5675496207
 30
0.0
 11
-0.2071757641
 21
-4.5685610894
 31
0.0
  0
LINE
  5
25D
330
1F
100
AcDbEntity
  8
0
  6
Continuous
 62
     7
370
    25
100
AcDbLine
 10
-0.1693574268
 20
-4.5449280448
 30
0.0
 11
-0.1679897993
 21
-4.5459395134
 31
0.0
  0
LINE
  5
25E
330
1F
100
AcDbEntity
  8
0
  6
Continuous
 62
     7
370
    25
100
AcDbLine
 10
-0.1968281039
 20
-4.5853759604
 30
0.0
 11
-0.1954604764
 21
-4.5863874291
 31
0.0
  0
LINE
  5
25F
330
1F
100
AcDbEntity
  8
0
  6
Continuous
 62
     7
370
    25
100
AcDbLine
 10
-0.1933461635
 20
-4.5587764477
 30
0.0
 11
-0.191978536
 21
-4.5597879164
 31
0.0
  0
LINE
  5
260
330
1F
100
AcDbEntity
  8
0
  6
Continuous
 62
     7
370
    25
100
AcDbLine
 10
-0.1172548593
 20
-4.4857184969
 30
0.0
 11
-0.1165769241
 21
-4.4805395606
 31
0.0
  0
LINE
  5
261
330
1F
100
AcDbEntity
  8
0
  6
Continuous
 62
     7
370
    25
100
AcDbLine
 10
-0.1027898794
 20
-4.4838170558
 30
0.0
 11
-0.0966613955
 21
-4.4684340354
 31
0.0
  0
LINE
  5
262
330
1F
100
AcDbEntity
  8
0
  6
Continuous
 62
     7
370
    25
100
AcDbLine
 10
-0.1240006978
 20
-4.5431694271
 30
0.0
 11
-0.1183665176
 21
-4.5001283551
 31
0.0
  0
LINE
  5
263
330
1F
100
AcDbEntity
  8
0
  6
Continuous
 62
     7
370
    25
100
AcDbLine
 10
-0.136013514
 20
-4.5501042783
 30
0.0
 11
-0.1240006978
 21
-4.5431694271
 31
0.0
  0
LINE
  5
264
330
1F
100
AcDbEntity
  8
0
  6
Continuous
 62
     7
370
    25
100
AcDbLine
 10
-0.1172548593
 20
-4.4857184969
 30
0.0
 11
-0.1158872319
 21
-4.4867299656
 31
0.0
  0
LINE
  5
265
330
1F
100
AcDbEntity
  8
0
  6
Continuous
 62
     7
370
    25
100
AcDbLine
 10
-0.1183665176
 20
-4.5001283551
 30
0.0
 11
-0.1169988901
 21
-4.5011398238
 31
0.0
  0
LINE
  5
266
330
1F
100
AcDbEntity
  8
0
  6
Continuous
 62
     7
370
    25
100
AcDbLine
 10
-0.1076889324
 20
-4.4848913716
 30
0.0
 11
-0.1063213049
 21
-4.4859028403
 31
0.0
  0
LINE
  5
267
330
1F
100
AcDbEntity
  8
0
  6
Continuous
 62
     7
370
    25
100
AcDbLine
 10
-0.1027898794
 20
-4.4838170558
 30
0.0
 11
-0.1014222519
 21
-4.4848285245
 31
0.0
  0
LINE
  5
268
330
1F
100
AcDbEntity
  8
0
  6
Continuous
 62
     7
370
    25
100
AcDbLine
 10
-0.1240006978
 20
-4.5431694271
 30
0.0
 11
-0.1226330703
 21
-4.5441808958
 31
0.0
  0
LINE
  5
269
330
1F
100
AcDbEntity
  8
0
  6
Continuous
 62
     7
370
    25
100
AcDbLine
 10
-0.0886979885
 20
-4.4927279531
 30
0.0
 11
-0.087330361
 21
-4.4937394218
 31
0.0
  0
LINE
  5
26A
330
1F
100
AcDbEntity
  8
0
  6
Continuous
 62
     7
370
    25
100
AcDbLine
 10
-0.0653491576
 20
-4.4597240704
 30
0.0
 11
-0.0639815301
 21
-4.4607355391
 31
0.0
  0
LINE
  5
26B
330
1F
100
AcDbEntity
  8
0
  6
Continuous
 62
     7
370
    25
100
AcDbLine
 10
-0.0331399962
 20
-4.4606550069
 30
0.0
 11
-0.0317723687
 21
-4.4616664755
 31
0.0
  0
LINE
  5
26C
330
1F
100
AcDbEntity
  8
0
  6
Continuous
 62
     7
370
    25
100
AcDbLine
 10
-0.0725993579
 20
-4.5151103708
 30
0.0
 11
-0.0712317305
 21
-4.5161218395
 31
0.0
  0
LINE
  5
26D
330
1F
100
AcDbEntity
  8
0
  6
Continuous
 62
     7
370
    25
100
AcDbLine
 10
-0.0148406335
 20
-4.4553142459
 30
0.0
 11
-0.0100961081
 21
-4.419069494
 31
0.0
  0
LINE
  5
26E
330
1F
100
AcDbEntity
  8
0
  6
Continuous
 62
     7
370
    25
100
AcDbLine
 10
0.0261745807
 20
-4.4546172647
 30
0.0
 11
0.0341732307
 21
-4.3935133487
 31
0.0
  0
LINE
  5
26F
330
1F
100
AcDbEntity
  8
0
  6
Continuous
 62
     7
370
    25
100
AcDbLine
 10
0.0137240179
 20
-4.4570740854
 30
0.0
 11
0.014010758
 21
-4.4569085538
 31
0.0
  0
LINE
  5
270
330
1F
100
AcDbEntity
  8
0
  6
Continuous
 62
     7
370
    25
100
AcDbLine
 10
-0.0148406335
 20
-4.4553142459
 30
0.0
 11
-0.013473006
 21
-4.4563257146
 31
0.0
  0
LINE
  5
271
330
1F
100
AcDbEntity
  8
0
  6
Continuous
 62
     7
370
    25
100
AcDbLine
 10
-0.0065572549
 20
-4.4769850763
 30
0.0
 11
-0.0051896274
 21
-4.477996545
 31
0.0
  0
LINE
  5
272
330
1F
100
AcDbEntity
  8
0
  6
Continuous
 62
     7
370
    25
100
AcDbLine
 10
0.0261745807
 20
-4.4546172647
 30
0.0
 11
0.0275422081
 21
-4.4556287334
 31
0.0
  0
LINE
  5
273
330
1F
100
AcDbEntity
  8
0
  6
Continuous
 62
     7
370
    25
100
AcDbLine
 10
0.1038514483
 20
-4.3860395989
 30
0.0
 11
0.1041889102
 21
-4.3834616334
 31
0.0
  0
LINE
  5
274
330
1F
100
AcDbEntity
  8
0
  6
Continuous
 62
     7
370
    25
100
AcDbLine
 10
0.051199832
 20
-4.41643473
 30
0.0
 11
0.1038514483
 21
-4.3860395989
 31
0.0
  0
LINE
  5
275
330
1F
100
AcDbEntity
  8
0
  6
Continuous
 62
     7
370
    25
100
AcDbLine
 10
-0.0065208274
 20
-4.4999446451
 30
0.0
 11
-0.0051531999
 21
-4.5009561138
 31
0.0
  0
LINE
  5
276
330
1F
100
AcDbEntity
  8
0
  6
Continuous
 62
     7
370
    25
100
AcDbLine
 10
0.0137240179
 20
-4.4570740854
 30
0.0
 11
0.0150916453
 21
-4.458085554
 31
0.0
  0
LINE
  5
277
330
1F
100
AcDbEntity
  8
0
  6
Continuous
 62
     7
370
    25
100
AcDbLine
 10
0.0527127926
 20
-4.4048768022
 30
0.0
 11
0.0540804201
 21
-4.4058882709
 31
0.0
  0
LINE
  5
278
330
1F
100
AcDbEntity
  8
0
  6
Continuous
 62
     7
370
    25
100
AcDbLine
 10
0.0726285887
 20
-4.3793434074
 30
0.0
 11
0.0739962162
 21
-4.380354876
 31
0.0
  0
LINE
  5
279
330
1F
100
AcDbEntity
  8
0
  6
Continuous
 62
     7
370
    25
100
AcDbLine
 10
0.0907274818
 20
-4.3847323725
 30
0.0
 11
0.0540804201
 21
-4.4058882709
 31
0.0
  0
LINE
  5
27A
330
1F
100
AcDbEntity
  8
0
  6
Continuous
 62
     7
370
    25
100
AcDbLine
 10
0.1041889102
 20
-4.3834616334
 30
0.0
 11
0.1055565377
 21
-4.3844731021
 31
0.0
  0
LINE
  5
27B
330
1F
100
AcDbEntity
  8
0
  6
Continuous
 62
     7
370
    25
100
AcDbLine
 10
0.0671015574
 20
-4.4344627491
 30
0.0
 11
0.0684691849
 21
-4.4354742177
 31
0.0
  0
LINE
  5
27C
330
1F
100
AcDbEntity
  8
0
  6
Continuous
 62
     7
370
    25
100
AcDbLine
 10
0.014010758
 20
-4.4569085538
 30
0.0
 11
0.0153783855
 21
-4.4579200225
 31
0.0
  0
LINE
  5
27D
330
1F
100
AcDbEntity
  8
0
  6
Continuous
 62
     7
370
    25
100
AcDbLine
 10
0.051199832
 20
-4.41643473
 30
0.0
 11
0.0525674594
 21
-4.4174461987
 31
0.0
  0
LINE
  5
27E
330
1F
100
AcDbEntity
  8
0
  6
Continuous
 62
     7
370
    25
100
AcDbLine
 10
0.1038514483
 20
-4.3860395989
 30
0.0
 11
0.1052190758
 21
-4.3870510675
 31
0.0
  0
LINE
  5
27F
330
1F
100
AcDbEntity
  8
0
  6
Continuous
 62
     7
370
    25
100
AcDbLine
 10
0.1470724008
 20
-4.337095715
 30
0.0
 11
0.1489297563
 21
-4.3238505278
 31
0.0
  0
LINE
  5
280
330
1F
100
AcDbEntity
  8
0
  6
Continuous
 62
     7
370
    25
100
AcDbLine
 10
0.1508172039
 20
-4.3246248412
 30
0.0
 11
0.1601510639
 21
-4.3296440635
 31
0.0
  0
LINE
  5
281
330
1F
100
AcDbEntity
  8
0
  6
Continuous
 62
     7
370
    25
100
AcDbLine
 10
0.2042728299
 20
-4.291964582
 30
0.0
 11
0.2067163234
 21
-4.2732980543
 31
0.0
  0
LINE
  5
282
330
1F
100
AcDbEntity
  8
0
  6
Continuous
 62
     7
370
    25
100
AcDbLine
 10
0.2134401899
 20
-4.2988809059
 30
0.0
 11
0.2149139308
 21
-4.2876225884
 31
0.0
  0
LINE
  5
283
330
1F
100
AcDbEntity
  8
0
  6
Continuous
 62
     7
370
    25
100
AcDbLine
 10
0.2025440641
 20
-4.3051711054
 30
0.0
 11
0.2134401899
 21
-4.2988809059
 31
0.0
  0
LINE
  5
284
330
1F
100
AcDbEntity
  8
0
  6
Continuous
 62
     7
370
    25
100
AcDbLine
 10
0.1991861052
 20
-4.3308234896
 30
0.0
 11
0.2025440641
 21
-4.3051711054
 31
0.0
  0
LINE
  5
285
330
1F
100
AcDbEntity
  8
0
  6
Continuous
 62
     7
370
    25
100
AcDbLine
 10
0.2024684914
 20
-4.3547602342
 30
0.0
 11
0.2094399881
 21
-4.3412530972
 31
0.0
  0
LINE
  5
286
330
1F
100
AcDbEntity
  8
0
  6
Continuous
 62
     7
370
    25
100
AcDbLine
 10
0.1601510639
 20
-4.3296440635
 30
0.0
 11
0.1889252989
 21
-4.3130330512
 31
0.0
  0
LINE
  5
287
330
1F
100
AcDbEntity
  8
0
  6
Continuous
 62
     7
370
    25
100
AcDbLine
 10
0.123843277
 20
-4.3700304922
 30
0.0
 11
0.1252109045
 21
-4.3710419609
 31
0.0
  0
LINE
  5
288
330
1F
100
AcDbEntity
  8
0
  6
Continuous
 62
     7
370
    25
100
AcDbLine
 10
0.1470724008
 20
-4.337095715
 30
0.0
 11
0.1484400283
 21
-4.3381071837
 31
0.0
  0
LINE
  5
289
330
1F
100
AcDbEntity
  8
0
  6
Continuous
 62
     7
370
    25
100
AcDbLine
 10
0.1601510639
 20
-4.3296440635
 30
0.0
 11
0.1615186913
 21
-4.3306555322
 31
0.0
  0
LINE
  5
28A
330
1F
100
AcDbEntity
  8
0
  6
Continuous
 62
     7
370
    25
100
AcDbLine
 10
0.1399558269
 20
-4.3924048745
 30
0.0
 11
0.1413234544
 21
-4.3934163432
 31
0.0
  0
LINE
  5
28B
330
1F
100
AcDbEntity
  8
0
  6
Continuous
 62
     7
370
    25
100
AcDbLine
 10
0.1889252989
 20
-4.3130330512
 30
0.0
 11
0.1902929264
 21
-4.3140445199
 31
0.0
  0
LINE
  5
28C
330
1F
100
AcDbEntity
  8
0
  6
Continuous
 62
     7
370
    25
100
AcDbLine
 10
0.2042728299
 20
-4.291964582
 30
0.0
 11
0.2056404574
 21
-4.2929760507
 31
0.0
  0
LINE
  5
28D
330
1F
100
AcDbEntity
  8
0
  6
Continuous
 62
     7
370
    25
100
AcDbLine
 10
0.2134401899
 20
-4.2988809059
 30
0.0
 11
0.2148078174
 21
-4.2998923745
 31
0.0
  0
LINE
  5
28E
330
1F
100
AcDbEntity
  8
0
  6
Continuous
 62
     7
370
    25
100
AcDbLine
 10
0.2025440641
 20
-4.3051711054
 30
0.0
 11
0.2039116916
 21
-4.3061825741
 31
0.0
  0
LINE
  5
28F
330
1F
100
AcDbEntity
  8
0
  6
Continuous
 62
     7
370
    25
100
AcDbLine
 10
0.1991861052
 20
-4.3308234896
 30
0.0
 11
0.2005537326
 21
-4.3318349583
 31
0.0
  0
LINE
  5
290
330
1F
100
AcDbEntity
  8
0
  6
Continuous
 62
     7
370
    25
100
AcDbLine
 10
0.2664236546
 20
-4.3104604124
 30
0.0
 11
0.266704827
 21
-4.3102980951
 31
0.0
  0
LINE
  5
291
330
1F
100
AcDbEntity
  8
0
  6
Continuous
 62
     7
370
    25
100
AcDbLine
 10
0.2792840138
 20
-4.3103581186
 30
0.0
 11
0.2875457369
 21
-4.2472445143
 31
0.0
  0
LINE
  5
292
330
1F
100
AcDbEntity
  8
0
  6
Continuous
 62
     7
370
    25
100
AcDbLine
 10
0.2672906848
 20
-4.3172817201
 30
0.0
 11
0.2792840138
 21
-4.3103581186
 31
0.0
  0
LINE
  5
293
330
1F
100
AcDbEntity
  8
0
  6
Continuous
 62
     7
370
    25
100
AcDbLine
 10
0.2024684914
 20
-4.3547602342
 30
0.0
 11
0.2038361188
 21
-4.3557717029
 31
0.0
  0
LINE
  5
294
330
1F
100
AcDbEntity
  8
0
  6
Continuous
 62
     7
370
    25
100
AcDbLine
 10
0.2303519319
 20
-4.3085443545
 30
0.0
 11
0.2317195594
 21
-4.3095558232
 31
0.0
  0
LINE
  5
295
330
1F
100
AcDbEntity
  8
0
  6
Continuous
 62
     7
370
    25
100
AcDbLine
 10
0.2533054511
 20
-4.2757686805
 30
0.0
 11
0.2546730785
 21
-4.2767801491
 31
0.0
  0
LINE
  5
296
330
1F
100
AcDbEntity
  8
0
  6
Continuous
 62
     7
370
    25
100
AcDbLine
 10
0.2728660386
 20
-4.2612452463
 30
0.0
 11
0.2742336661
 21
-4.262256715
 31
0.0
  0
LINE
  5
297
330
1F
100
AcDbEntity
  8
0
  6
Continuous
 62
     7
370
    25
100
AcDbLine
 10
0.2443208904
 20
-4.3321562058
 30
0.0
 11
0.2456885179
 21
-4.3331676744
 31
0.0
  0
LINE
  5
298
330
1F
100
AcDbEntity
  8
0
  6
Continuous
 62
     7
370
    25
100
AcDbLine
 10
0.2792840138
 20
-4.3103581186
 30
0.0
 11
0.2806516413
 21
-4.3113695873
 31
0.0
  0
LINE
  5
299
330
1F
100
AcDbEntity
  8
0
  6
Continuous
 62
     7
370
    25
100
AcDbLine
 10
0.2664236546
 20
-4.3104604124
 30
0.0
 11
0.2677912821
 21
-4.3114718811
 31
0.0
  0
LINE
  5
29A
330
1F
100
AcDbEntity
  8
0
  6
Continuous
 62
     7
370
    25
100
AcDbLine
 10
0.266704827
 20
-4.3102980951
 30
0.0
 11
0.2680724545
 21
-4.3113095637
 31
0.0
  0
LINE
  5
29B
330
1F
100
AcDbEntity
  8
0
  6
Continuous
 62
     7
370
    25
100
AcDbLine
 10
-0.6044828798
 20
-5.1247554525
 30
0.0
 11
-0.6044828798
 21
-5.310213088
 31
0.0
  0
LINE
  5
29C
330
1F
100
AcDbEntity
  8
0
  6
Continuous
 62
     7
370
    25
100
AcDbLine
 10
-0.4913457948
 20
-5.310213088
 30
0.0
 11
-0.4913457948
 21
-5.1247554525
 31
0.0
  0
LINE
  5
29D
330
1F
100
AcDbEntity
  8
0
  6
Continuous
 62
     7
370
    25
100
AcDbLine
 10
0.8026596148
 20
-4.3614125409
 30
0.0
 11
-0.4984168626
 21
-5.1125080038
 31
0.0
  0
LINE
  5
29E
330
1F
100
AcDbEntity
  8
0
  6
Continuous
 62
     7
370
    25
100
AcDbLine
 10
-0.597411812
 20
-5.1125080038
 30
0.0
 11
-1.2479500507
 21
-4.7369602723
 31
0.0
  0
LINE
  5
29F
330
1F
100
AcDbEntity
  8
0
  6
Continuous
 62
     7
370
    25
100
AcDbLine
 10
-1.2550211185
 20
-4.749207721
 30
0.0
 11
-0.6044828798
 21
-5.1247554525
 31
0.0
  0
LINE
  5
2A0
330
1F
100
AcDbEntity
  8
0
  6
Continuous
 62
     7
370
    25
100
AcDbLine
 10
-0.4913457948
 20
-5.1247554525
 30
0.0
 11
0.8097306826
 21
-4.3736599896
 31
0.0
  0
LINE
  5
2A1
330
1F
100
AcDbEntity
  8
0
  6
Continuous
 62
     7
370
    25
100
AcDbLine
 10
0.8097306826
 20
-4.5591176252
 30
0.0
 11
-0.4913457948
 21
-5.310213088
 31
0.0
  0
LINE
  5
2A2
330
1F
100
AcDbEntity
  8
0
  6
Continuous
 62
     7
370
    25
100
AcDbLine
 10
0.8097306826
 20
-4.3736599896
 30
0.0
 11
0.8097306826
 21
-4.5591176252
 31
0.0
  0
LINE
  5
2A3
330
1F
100
AcDbEntity
  8
0
  6
Continuous
 62
     7
370
    25
100
AcDbLine
 10
-0.6044828798
 20
-5.310213088
 30
0.0
 11
-1.2550211185
 21
-4.9346653566
 31
0.0
  0
LINE
  5
2A4
330
1F
100
AcDbEntity
  8
0
  6
Continuous
 62
     7
370
    25
100
AcDbLine
 10
-1.2550211185
 20
-4.9346653566
 30
0.0
 11
-1.2550211185
 21
-4.749207721
 31
0.0
  0
LINE
  5
2A5
330
1F
100
AcDbEntity
  8
0
  6
Continuous
 62
     7
370
    25
100
AcDbLine
 10
0.1598066234
 20
-4.3722815222
 30
0.0
 11
0.154510817
 21
-4.3879489499
 31
0.0
  0
LINE
  5
2A6
330
1F
100
AcDbEntity
  8
0
  6
Continuous
 62
     7
370
    25
100
AcDbLine
 10
2.9923436752
 20
3.4057908083
 30
0.0
 11
1.5724350477
 21
4.1426448085
 31
0.0
  0
LINE
  5
2A7
330
1F
100
AcDbEntity
  8
0
  6
Continuous
 62
     7
370
    25
100
AcDbLine
 10
0.5842815412
 20
3.5721956556
 30
0.0
 11
2.2197700796
 21
2.9598017736
 31
0.0
  0
LINE
  5
2A8
330
1F
100
AcDbEntity
  8
0
  6
Continuous
 62
     7
370
    25
100
AcDbLine
 10
2.1968540042
 20
2.908001376
 30
0.0
 11
2.2045479597
 21
2.810937968
 31
0.0
  0
LINE
  5
2A9
330
1F
100
AcDbEntity
  8
0
  6
Continuous
 62
     7
370
    25
100
AcDbLine
 10
0.9814055283
 20
3.2469798944
 30
0.0
 11
2.2045482478
 21
2.8109381594
 31
0.0
  0
LINE
  5
2AA
330
1F
100
AcDbEntity
  8
0
  6
Continuous
 62
     7
370
    25
100
AcDbLine
 10
0.4759813299
 20
3.1057150219
 30
0.0
 11
0.5611513859
 21
3.5225593143
 31
0.0
  0
LINE
  5
2AB
330
1F
100
AcDbEntity
  8
0
  6
Continuous
 62
     7
370
    25
100
AcDbLine
 10
2.1968477776
 20
2.9080907795
 30
0.0
 11
0.5611530279
 21
3.5225605214
 31
0.0
  0
LINE
  5
2AC
330
1F
100
AcDbEntity
  8
0
  6
Continuous
 62
     7
370
    25
100
AcDbLine
 10
3.0299451559
 20
3.3624230134
 30
0.0
 11
3.0364768667
 21
3.264786055
 31
0.0
  0
LINE
  5
2AD
330
1F
100
AcDbEntity
  8
0
  6
Continuous
 62
     7
370
    25
100
AcDbLine
 10
2.2509754921
 20
2.8113387856
 30
0.0
 11
2.2433970088
 21
2.9083561697
 31
0.0
  0
LINE
  5
2AE
330
1F
100
AcDbEntity
  8
0
  6
Continuous
 62
     7
370
    25
100
AcDbLine
 10
0.7247502719
 20
3.2419044885
 30
0.0
 11
0.6553589895
 21
3.2072011207
 31
0.0
  0
LINE
  5
2AF
330
1F
100
AcDbEntity
  8
0
  6
Continuous
 62
     7
370
    25
100
AcDbLine
 10
0.527562503
 20
3.0901446869
 30
0.0
 11
0.4710288425
 21
2.9558784002
 31
0.0
  0
LINE
  5
2B0
330
1F
100
AcDbEntity
  8
0
  6
Continuous
 62
     7
370
    25
100
AcDbLine
 10
0.561154415
 20
3.5225613208
 30
0.0
 11
0.0987821033
 21
3.6958279115
 31
0.0
  0
LINE
  5
2B1
330
1F
100
AcDbEntity
  8
0
  6
Continuous
 62
     7
370
    25
100
AcDbLine
 10
0.4668963358
 20
2.9497836404
 30
0.0
 11
0.4675360659
 21
2.9501494906
 31
0.0
  0
LINE
  5
2B2
330
1F
100
AcDbEntity
  8
0
  6
Continuous
 62
     7
370
    25
100
AcDbLine
 10
0.3406969047
 20
1.504280208
 30
0.0
 11
0.9605346933
 21
1.8621049468
 31
0.0
  0
LINE
  5
2B3
330
1F
100
AcDbEntity
  8
0
  6
Continuous
 62
     7
370
    25
100
AcDbLine
 10
-1.0900376219
 20
-4.6568886648
 30
0.0
 11
-1.1269256696
 21
-4.6305229877
 31
0.0
  0
LINE
  5
2B4
330
1F
100
AcDbEntity
  8
0
  6
Continuous
 62
     7
370
    25
100
AcDbLine
 10
0.5636551207
 20
-4.1662896155
 30
0.0
 11
0.8026596148
 21
-4.3042639731
 31
0.0
  0
LINE
  5
2B5
330
1F
100
AcDbEntity
  8
0
  6
Continuous
 62
     7
370
    25
100
AcDbLine
 10
0.9571587823
 20
3.2365135911
 30
0.0
 11
0.4710300283
 21
2.9558774306
 31
0.0
  0
LINE
  5
2B6
330
1F
100
AcDbEntity
  8
0
  6
Continuous
 62
     7
370
    25
100
AcDbLine
 10
0.9236792875
 20
3.2194199351
 30
0.0
 11
0.9380324273
 21
3.1663894259
 31
0.0
  0
ARC
  5
2B7
330
1F
100
AcDbEntity
  8
0
  6
Continuous
 62
     7
370
    25
100
AcDbCircle
 10
2.2306511391
 20
2.8284432942
 30
0.0
 40
0.0399999999999969
100
AcDbArc
 50
250.2446575174
 51
290.3444454288
  0
ARC
  5
2B8
330
1F
100
AcDbEntity
  8
0
  6
Continuous
 62
     7
370
    25
100
AcDbCircle
 10
2.9956442726
 20
3.3714466306
 30
0.0
 40
0.0399999999999995
100
AcDbArc
 50
0.1501587795
 51
62.7417371119
  0
ARC
  5
2B9
330
1F
100
AcDbEntity
  8
0
  6
Continuous
 62
     7
370
    25
100
AcDbCircle
 10
3.0021577374
 20
3.2737930583
 30
0.0
 40
0.0400000000000049
100
AcDbArc
 50
312.9589321071
 51
0.1501587795
  0
ARC
  5
2BA
330
1F
100
AcDbEntity
  8
0
  6
Continuous
 62
     7
370
    25
100
AcDbCircle
 10
3.7234945503
 20
1.0902335671
 30
0.0
 40
0.0838832362633637
100
AcDbArc
 50
124.7042249736
 51
179.557414987
  0
ARC
  5
2BB
330
1F
100
AcDbEntity
  8
0
  6
Continuous
 62
     7
370
    25
100
AcDbCircle
 10
-0.0708705951
 20
3.040709193
 30
0.0
 40
0.0838512967684433
100
AcDbArc
 50
124.6971135159
 51
179.6627765737
  0
ARC
  5
2BC
330
1F
100
AcDbEntity
  8
0
  6
Continuous
 62
     7
370
    25
100
AcDbCircle
 10
3.762201136
 20
1.046342393
 30
0.0
 40
0.1148431245352902
100
AcDbArc
 50
124.4859479198
 51
161.9647242892
  0
ARC
  5
2BD
330
1F
100
AcDbEntity
  8
0
  6
Continuous
 62
     7
370
    25
100
AcDbCircle
 10
0.3045872143
 20
1.5773539345
 30
0.0
 40
0.0815087674335937
100
AcDbArc
 50
235.5015118619
 51
296.2964746431
  0
ARC
  5
2BE
330
1F
100
AcDbEntity
  8
0
  6
Continuous
 62
     7
370
    25
100
AcDbCircle
 10
-0.5066979558
 20
-5.125454061
 30
0.0
 40
0.015368048075723
100
AcDbArc
 50
2.6054784857
 51
57.39452166
  0
ARC
  5
2BF
330
1F
100
AcDbEntity
  8
0
  6
Continuous
 62
     7
370
    25
100
AcDbCircle
 10
-0.5479143373
 20
-5.0155785657
 30
0.0
 40
0.1229617526329354
100
AcDbArc
 50
242.6096722366
 51
297.3903277634
  0
ARC
  5
2C0
330
1F
100
AcDbEntity
  8
0
  6
Continuous
 62
     7
370
    25
100
AcDbCircle
 10
-0.5891307188
 20
-5.125454061
 30
0.0
 40
0.0153680480757145
100
AcDbArc
 50
122.60547834
 51
177.3945215144
  0
ARC
  5
2C1
330
1F
100
AcDbEntity
  8
0
  6
Continuous
 62
     7
370
    25
100
AcDbCircle
 10
-0.5479143373
 20
-5.0169782278
 30
0.0
 40
0.1075915335538211
100
AcDbArc
 50
242.6096722366
 51
297.3903277634
  0
ARC
  5
2C2
330
1F
100
AcDbEntity
  8
0
  6
Continuous
 62
     7
370
    25
100
AcDbCircle
 10
-0.5479143373
 20
-5.2010362013
 30
0.0
 40
0.122961752620938
100
AcDbArc
 50
242.6096722348
 51
297.3903277865
  0
ARC
  5
2C3
330
1F
100
AcDbEntity
  8
0
  6
Continuous
 62
     7
370
    25
100
AcDbCircle
 10
0.7918147229
 20
-4.332838257
 30
0.0
 40
0.0305630721783999
100
AcDbArc
 50
290.7834207995
 51
69.2165792005
  0
ARC
  5
2C4
330
1F
100
AcDbEntity
  8
0
  6
Continuous
 62
     7
370
    25
100
AcDbCircle
 10
-1.2396689575
 20
-4.7499063295
 30
0.0
 40
0.0153680480757187
100
AcDbArc
 50
122.60547834
 51
177.3945215143
  0
ARC
  5
2C5
330
1F
100
AcDbEntity
  8
0
  6
Continuous
 62
     7
370
    25
100
AcDbCircle
 10
0.7943785216
 20
-4.3743585981
 30
0.0
 40
0.0153680480757167
100
AcDbArc
 50
2.6054784856
 51
57.39452166
  0
ARC
  5
2C6
330
1F
100
AcDbEntity
  8
0
  6
Continuous
 62
     7
370
    25
100
AcDbCircle
 10
-0.5479143373
 20
-5.2149972079
 30
0.0
 40
0.1108592179249695
100
AcDbArc
 50
242.6096722366
 51
297.3903277634
  0
ARC
  5
2C7
330
1F
100
AcDbEntity
  8
0
  6
Continuous
 62
     7
370
    25
100
AcDbCircle
 10
-0.601221567
 20
-5.3102088001
 30
0.0
 40
0.0039604506763971
100
AcDbArc
 50
245.6928809539
 51
305.6175774752
  0
ARC
  5
2C8
330
1F
100
AcDbEntity
  8
0
  6
Continuous
 62
     7
370
    25
100
AcDbCircle
 10
-0.4946071076
 20
-5.3102088001
 30
0.0
 40
0.0039604506763981
100
AcDbArc
 50
234.3824225248
 51
294.307119046
  0
ARC
  5
2C9
330
1F
100
AcDbEntity
  8
0
  6
Continuous
 62
     7
370
    25
100
AcDbCircle
 10
0.8058723999
 20
-4.559543505
 30
0.0
 40
0.0038817159858189
100
AcDbArc
 50
305.0133328885
 51
6.2988475049
  0
ARC
  5
2CA
330
1F
100
AcDbEntity
  8
0
  6
Continuous
 62
     7
370
    25
100
AcDbCircle
 10
0.804973827
 20
-4.3077417004
 30
0.0
 40
0.0047952554652389
100
AcDbArc
 50
352.7441704462
 51
55.9436491605
  0
ARC
  5
2CB
330
1F
100
AcDbEntity
  8
0
  6
Continuous
 62
     7
370
    25
100
AcDbCircle
 10
0.7973365204
 20
-4.3410036651
 30
0.0
 40
0.0349292253467418
100
AcDbArc
 50
290.7834207995
 51
69.2165792005
  0
ARC
  5
2CC
330
1F
100
AcDbEntity
  8
0
  6
Continuous
 62
     7
370
    25
100
AcDbCircle
 10
0.7931255751
 20
-4.5224687905
 30
0.0
 40
0.0402351422795014
100
AcDbArc
 50
294.3746582936
 51
354.3052007488
  0
ARC
  5
2CD
330
1F
100
AcDbEntity
  8
0
  6
Continuous
 62
     7
370
    25
100
AcDbCircle
 10
2.1811510837
 20
2.9034332178
 30
0.0
 40
0.0624404818991553
100
AcDbArc
 50
4.522086199
 51
5.4875889054
  0
ARC
  5
2CE
330
1F
100
AcDbEntity
  8
0
  6
Continuous
 62
     7
370
    25
100
AcDbCircle
 10
2.9948009295
 20
3.3600911335
 30
0.0
 40
0.0352198901213557
100
AcDbArc
 50
3.7939866436
 51
5.4991140249
  0
ARC
  5
2CF
330
1F
100
AcDbEntity
  8
0
  6
Continuous
 62
     7
370
    25
100
AcDbCircle
 10
2.2196354424
 20
2.9724429264
 30
0.0
 40
0.0683500111349346
100
AcDbArc
 50
250.5326986095
 51
290.3428044795
  0
ARC
  5
2D0
330
1F
100
AcDbEntity
  8
0
  6
Continuous
 62
     7
370
    25
100
AcDbCircle
 10
-0.1193459353
 20
3.4364446002
 30
0.0
 40
0.2446003778790779
100
AcDbArc
 50
162.424684389
 51
210.3220458709
  0
ARC
  5
2D1
330
1F
100
AcDbEntity
  8
0
  6
Continuous
 62
     7
370
    25
100
AcDbCircle
 10
0.4116378883
 20
4.1357754921
 30
0.0
 40
1.111957618926652
100
AcDbArc
 50
282.1533157579
 51
289.4632627316
  0
ARC
  5
2D2
330
1F
100
AcDbEntity
  8
0
  6
Continuous
 62
     7
370
    25
100
AcDbCircle
 10
0.3199988301
 20
4.0024889673
 30
0.0
 40
0.9805089989860625
100
AcDbArc
 50
241.4730642085
 51
267.1120272984
  0
ARC
  5
2D3
330
1F
100
AcDbEntity
  8
0
  6
Continuous
 62
     7
370
    25
100
AcDbCircle
 10
3.6846153385
 20
0.6655980936
 30
0.0
 40
0.0317669542590037
100
AcDbArc
 50
177.6000174739
 51
241.2068208744
  0
ARC
  5
2D4
330
1F
100
AcDbEntity
  8
0
  6
Continuous
 62
     7
370
    25
100
AcDbCircle
 10
3.7718754034
 20
0.6572873164
 30
0.0
 40
0.026101081422451
100
AcDbArc
 50
305.5401817802
 51
11.2530777662
  0
ARC
  5
2D5
330
1F
100
AcDbEntity
  8
0
  6
Continuous
 62
     7
370
    25
100
AcDbCircle
 10
4.6109528949
 20
1.150671841
 30
0.0
 40
0.0342152186324928
100
AcDbArc
 50
313.0632484017
 51
1.7797207139
  0
ARC
  5
2D6
330
1F
100
AcDbEntity
  8
0
  6
Continuous
 62
     7
370
    25
100
AcDbCircle
 10
1.0646509514
 20
1.8593728245
 30
0.0
 40
0.0325258883744413
100
AcDbArc
 50
178.5878007638
 51
240.3942357789
  0
ARC
  5
2D7
330
1F
100
AcDbEntity
  8
0
  6
Continuous
 62
     7
370
    25
100
AcDbCircle
 10
4.6160629937
 20
1.6459463974
 30
0.0
 40
0.0221953339403047
100
AcDbArc
 50
59.7956362474
 51
125.2745480512
  0
ARC
  5
2D8
330
1F
100
AcDbEntity
  8
0
  6
Continuous
 62
     7
370
    25
100
AcDbCircle
 10
4.5925454813
 20
1.6554126305
 30
0.0
 40
0.0286546688116491
100
AcDbArc
 50
65.1585354418
 51
122.9028137343
  0
ARC
  5
2D9
330
1F
100
AcDbEntity
  8
0
  6
Continuous
 62
     7
370
    25
100
AcDbCircle
 10
-0.5789665663
 20
-4.9383274578
 30
0.0
 40
0.0096224239667128
100
AcDbArc
 50
173.5576039784
 51
235.0739345174
  0
ARC
  5
2DA
330
1F
100
AcDbEntity
  8
0
  6
Continuous
 62
     7
370
    25
100
AcDbCircle
 10
-0.5142993409
 20
-4.9386768237
 30
0.0
 40
0.0087553693435938
100
AcDbArc
 50
303.2276815614
 51
356.9339944469
  0
ARC
  5
2DB
330
1F
100
AcDbEntity
  8
0
  6
Continuous
 62
     7
370
    25
100
AcDbCircle
 10
-1.0801009424
 20
-4.6578381011
 30
0.0
 40
0.0099819381310331
100
AcDbArc
 50
174.54202704
 51
231.6476784312
  0
ARC
  5
2DC
330
1F
100
AcDbEntity
  8
0
  6
Continuous
 62
     7
370
    25
100
AcDbCircle
 10
0.5175782432
 20
-4.3429856753
 30
0.0
 40
0.0087563786623911
100
AcDbArc
 50
303.25410632
 51
356.9322166864
  0
ARC
  5
2DD
330
1F
100
AcDbEntity
  8
0
  6
Continuous
 62
     7
370
    25
100
AcDbCircle
 10
-0.6006245971
 20
-5.3106389679
 30
0.0
 40
0.0038817159860691
100
AcDbArc
 50
173.7011524973
 51
234.9866671093
  0
ARC
  5
2DE
330
1F
100
AcDbEntity
  8
0
  6
Continuous
 62
     7
370
    25
100
AcDbCircle
 10
-0.4952040776
 20
-5.3106389678
 30
0.0
 40
0.0038817161435664
100
AcDbArc
 50
305.0133336189
 51
6.2988460636
  0
ARC
  5
2DF
330
1F
100
AcDbEntity
  8
0
  6
Continuous
 62
     7
370
    25
100
AcDbCircle
 10
-1.2511628358
 20
-4.9350912364
 30
0.0
 40
0.003881715988375
100
AcDbArc
 50
173.7011525169
 51
234.9866670831
  0
ARC
  5
2E0
330
1F
100
AcDbEntity
  8
0
  6
Continuous
 62
     7
370
    25
100
AcDbCircle
 10
0.8055888153
 20
-4.3083527864
 30
0.0
 40
0.005029772359019
100
AcDbArc
 50
65.6928809539
 51
125.6175774752
  0
ARC
  5
2E1
330
1F
100
AcDbEntity
  8
0
  6
Continuous
 62
     7
370
    25
100
AcDbCircle
 10
0.4249977267
 20
2.9579601374
 30
0.0
 40
0.0108587943586504
100
AcDbArc
 50
172.1401616954
 51
234.1904638448
  0
ARC
  5
2E2
330
1F
100
AcDbEntity
  8
0
  6
Continuous
 62
     7
370
    25
100
AcDbCircle
 10
0.4626980428
 20
2.9570316769
 30
0.0
 40
0.0084125475325895
100
AcDbArc
 50
305.1063608086
 51
352.1181636803
  0
ARC
  5
2E3
330
1F
100
AcDbEntity
  8
0
  6
Continuous
 62
     7
370
    25
100
AcDbCircle
 10
0.4477622361
 20
4.0488843575
 30
0.0
 40
1.009535618333029
100
AcDbArc
 50
283.0271526417
 51
299.0543674082
  0
ARC
  5
2E4
330
1F
100
AcDbEntity
  8
0
  6
Continuous
 62
     7
370
    25
100
AcDbCircle
 10
0.9261358533
 20
3.1615574057
 30
0.0
 40
0.0128404397051051
100
AcDbArc
 50
311.5755822977
 51
22.1054675217
  0
ENDSEC
  0
SECTION
  2
OBJECTS
  0
DICTIONARY
  5
C
330
0
100
AcDbDictionary
281
     1
  3
ACAD_GROUP
350
D
  3
ACAD_LAYOUT
350
1A
  3
ACAD_MLINESTYLE
350
17
  3
ACAD_PLOTSETTINGS
350
19
  3
ACAD_PLOTSTYLENAME
350
E
  3
ACAD_SCALELIST
350
47
  3
DWGPROPS
350
2E5
  0
DICTIONARY
  5
D
102
{ACAD_REACTORS
330
C
102
}
330
C
100
AcDbDictionary
281
     1
  0
DICTIONARY
  5
1A
102
{ACAD_REACTORS
330
C
102
}
330
C
100
AcDbDictionary
281
     1
  3
Layout1
350
1E
  3
Layout2
350
26
  3
Model
350
22
  0
DICTIONARY
  5
17
102
{ACAD_REACTORS
330
C
102
}
330
C
100
AcDbDictionary
281
     1
  3
Standard
350
18
  0
DICTIONARY
  5
19
102
{ACAD_REACTORS
330
C
102
}
330
C
100
AcDbDictionary
281
     1
  0
ACDBDICTIONARYWDFLT
  5
E
102
{ACAD_REACTORS
330
C
102
}
330
C
100
AcDbDictionary
281
     1
  3
Normal
350
F
100
AcDbDictionaryWithDefault
340
F
  0
DICTIONARY
  5
47
102
{ACAD_REACTORS
330
C
102
}
330
C
100
AcDbDictionary
281
     1
  3
A0
350
48
  3
A1
350
49
  3
A2
350
4A
  3
A3
350
4B
  3
A4
350
4C
  3
A5
350
4D
  3
A6
350
4E
  3
A7
350
4F
  3
A8
350
50
  3
A9
350
51
  3
B1
350
52
  3
B2
350
53
  3
B3
350
54
  3
B4
350
55
  3
B5
350
56
  3
B6
350
57
  3
B7
350
58
  0
XRECORD
  5
2E5
102
{ACAD_REACTORS
330
C
102
}
330
C
100
AcDbXrecord
280
     1
  1
DWGPROPS COOKIE
  2

  3

  4

  6

  7

  8
Alan Ramirez
  9

300
=
301
=
302
=
303
=
304
=
305
=
306
=
307
=
308
=
309
=
 40
0.0
 41
2460425.67824235
 42
2460425.678280961
  1

 90
        0
  0
LAYOUT
  5
1E
102
{ACAD_REACTORS
330
1A
102
}
330
1A
100
AcDbPlotSettings
  1

  2
none_device
  4

  6

 40
0.0
 41
0.0
 42
0.0
 43
0.0
 44
0.0
 45
0.0
 46
0.0
 47
0.0
 48
0.0
 49
0.0
140
0.0
141
0.0
142
1.0
143
1.0
 70
   688
 72
     0
 73
     0
 74
     5
  7

 75
    16
147
1.0
148
0.0
149
0.0
100
AcDbLayout
  1
Layout1
 70
     1
 71
     1
 10
0.0
 20
0.0
 11
12.0
 21
9.0
 12
0.0
 22
0.0
 32
0.0
 14
1.0000000000E+20
 24
1.0000000000E+20
 34
1.0000000000E+20
 15
-1.0000000000E+20
 25
-1.0000000000E+20
 35
-1.0000000000E+20
146
0.0
 13
0.0
 23
0.0
 33
0.0
 16
1.0
 26
0.0
 36
0.0
 17
0.0
 27
1.0
 37
0.0
 76
     0
330
1B
  0
LAYOUT
  5
26
102
{ACAD_REACTORS
330
1A
102
}
330
1A
100
AcDbPlotSettings
  1

  2
none_device
  4

  6

 40
0.0
 41
0.0
 42
0.0
 43
0.0
 44
0.0
 45
0.0
 46
0.0
 47
0.0
 48
0.0
 49
0.0
140
0.0
141
0.0
142
1.0
143
1.0
 70
   688
 72
     0
 73
     0
 74
     5
  7

 75
    16
147
1.0
148
0.0
149
0.0
100
AcDbLayout
  1
Layout2
 70
     1
 71
     2
 10
0.0
 20
0.0
 11
0.0
 21
0.0
 12
0.0
 22
0.0
 32
0.0
 14
0.0
 24
0.0
 34
0.0
 15
0.0
 25
0.0
 35
0.0
146
0.0
 13
0.0
 23
0.0
 33
0.0
 16
1.0
 26
0.0
 36
0.0
 17
0.0
 27
1.0
 37
0.0
 76
     0
330
23
  0
LAYOUT
  5
22
102
{ACAD_REACTORS
330
1A
102
}
330
1A
100
AcDbPlotSettings
  1

  2
none_device
  4
ANSI_A_(11.00_x_8.50_Inches)
  6

 40
6.35
 41
19.05
 42
6.35000508
 43
19.05000254
 44
279.4
 45
215.9
 46
99.5293150428
 47
97.6673045369
 48
0.0
 49
0.0
140
0.0
141
0.0
142
0.8548239299
143
1.0
 70
  1696
 72
     0
 73
     0
 74
     0
  7

 75
     0
147
0.5913241897
148
-39.4088153714
149
0.0
100
AcDbLayout
  1
Model
 70
     1
 71
     0
 10
0.0
 20
0.0
 11
12.0
 21
9.0
 12
0.0
 22
0.0
 32
0.0
 14
-1.5479143373
 24
-5.3258564258
 34
0.0
 15
4.663229394
 25
4.518276039
 35
0.0
146
0.0
 13
0.0
 23
0.0
 33
0.0
 16
1.0
 26
0.0
 36
0.0
 17
0.0
 27
1.0
 37
0.0
 76
     0
330
1F
331
29
  0
MLINESTYLE
  5
18
102
{ACAD_REACTORS
330
17
102
}
330
17
100
AcDbMlineStyle
  2
Standard
 70
     0
  3

 62
   256
 51
90.0
 52
90.0
 71
     2
 49
0.5
 62
   256
  6
BYLAYER
 49
-0.5
 62
   256
  6
BYLAYER
  0
ACDBPLACEHOLDER
  5
F
102
{ACAD_REACTORS
330
E
102
}
330
E
  0
SCALE
  5
48
102
{ACAD_REACTORS
330
47
102
}
330
47
100
AcDbScale
 70
     0
300
1:1
140
1.0
141
1.0
290
     1
  0
SCALE
  5
49
102
{ACAD_REACTORS
330
47
102
}
330
47
100
AcDbScale
 70
     0
300
1/128" = 1'-0"
140
0.0078125
141
12.0
290
     0
  0
SCALE
  5
4A
102
{ACAD_REACTORS
330
47
102
}
330
47
100
AcDbScale
 70
     0
300
1/64" = 1'-0"
140
0.015625
141
12.0
290
     0
  0
SCALE
  5
4B
102
{ACAD_REACTORS
330
47
102
}
330
47
100
AcDbScale
 70
     0
300
1/32" = 1'-0"
140
0.03125
141
12.0
290
     0
  0
SCALE
  5
4C
102
{ACAD_REACTORS
330
47
102
}
330
47
100
AcDbScale
 70
     0
300
1/16" = 1'-0"
140
0.0625
141
12.0
290
     0
  0
SCALE
  5
4D
102
{ACAD_REACTORS
330
47
102
}
330
47
100
AcDbScale
 70
     0
300
3/32" = 1'-0"
140
0.09375
141
12.0
290
     0
  0
SCALE
  5
4E
102
{ACAD_REACTORS
330
47
102
}
330
47
100
AcDbScale
 70
     0
300
1/8" = 1'-0"
140
0.125
141
12.0
290
     0
  0
SCALE
  5
4F
102
{ACAD_REACTORS
330
47
102
}
330
47
100
AcDbScale
 70
     0
300
3/16" = 1'-0"
140
0.1875
141
12.0
290
     0
  0
SCALE
  5
50
102
{ACAD_REACTORS
330
47
102
}
330
47
100
AcDbScale
 70
     0
300
1/4" = 1'-0"
140
0.25
141
12.0
290
     0
  0
SCALE
  5
51
102
{ACAD_REACTORS
330
47
102
}
330
47
100
AcDbScale
 70
     0
300
3/8" = 1'-0"
140
0.375
141
12.0
290
     0
  0
SCALE
  5
52
102
{ACAD_REACTORS
330
47
102
}
330
47
100
AcDbScale
 70
     0
300
1/2" = 1'-0"
140
0.5
141
12.0
290
     0
  0
SCALE
  5
53
102
{ACAD_REACTORS
330
47
102
}
330
47
100
AcDbScale
 70
     0
300
3/4" = 1'-0"
140
0.75
141
12.0
290
     0
  0
SCALE
  5
54
102
{ACAD_REACTORS
330
47
102
}
330
47
100
AcDbScale
 70
     0
300
1" = 1'-0"
140
1.0
141
12.0
290
     0
  0
SCALE
  5
55
102
{ACAD_REACTORS
330
47
102
}
330
47
100
AcDbScale
 70
     0
300
1-1/2" = 1'-0"
140
1.5
141
12.0
290
     0
  0
SCALE
  5
56
102
{ACAD_REACTORS
330
47
102
}
330
47
100
AcDbScale
 70
     0
300
3" = 1'-0"
140
3.0
141
12.0
290
     0
  0
SCALE
  5
57
102
{ACAD_REACTORS
330
47
102
}
330
47
100
AcDbScale
 70
     0
300
6" = 1'-0"
140
6.0
141
12.0
290
     0
  0
SCALE
  5
58
102
{ACAD_REACTORS
330
47
102
}
330
47
100
AcDbScale
 70
     0
300
1'-0" = 1'-0"
140
12.0
141
12.0
290
     0
  0
ENDSEC
  0
EOF
