  0
SECTION
  2
HEADER
  9
$ACADVER
  1
AC1015
  9
$ACADMAINTVER
 70
     6
  9
$DWGCODEPAGE
  3
ANSI_1252
  9
$INSBASE
 10
0.0
 20
0.0
 30
0.0
  9
$EXTMIN
 10
-7.133515324
 20
-0.0885826772
 30
0.0
  9
$EXTMAX
 10
7.3287021802
 20
32.3263576613
 30
0.0
  9
$LIMMIN
 10
0.0
 20
0.0
  9
$LIMMAX
 10
12.0
 20
9.0
  9
$ORTHOMODE
 70
     0
  9
$REGENMODE
 70
     1
  9
$FILLMODE
 70
     1
  9
$QTEXTMODE
 70
     0
  9
$MIRRTEXT
 70
     1
  9
$LTSCALE
 40
1.0
  9
$ATTMODE
 70
     1
  9
$TEXTSIZE
 40
0.125
  9
$TRACEWID
 40
0.05
  9
$TEXTSTYLE
  7
Standard
  9
$CLAYER
  8
0
  9
$CELTYPE
  6
ByLayer
  9
$CECOLOR
 62
   256
  9
$CELTSCALE
 40
1.0
  9
$DISPSILH
 70
     0
  9
$DIMSCALE
 40
1.0
  9
$DIMASZ
 40
0.13
  9
$DIMEXO
 40
0.0
  9
$DIMDLI
 40
0.38
  9
$DIMRND
 40
0.0
  9
$DIMDLE
 40
0.0
  9
$DIMEXE
 40
0.125
  9
$DIMTP
 40
0.0
  9
$DIMTM
 40
0.0
  9
$DIMTXT
 40
0.125
  9
$DIMCEN
 40
0.09
  9
$DIMTSZ
 40
0.0
  9
$DIMTOL
 70
     0
  9
$DIMLIM
 70
     0
  9
$DIMTIH
 70
     1
  9
$DIMTOH
 70
     1
  9
$DIMSE1
 70
     0
  9
$DIMSE2
 70
     0
  9
$DIMTAD
 70
     0
  9
$DIMZIN
 70
     1
  9
$DIMBLK
  1

  9
$DIMASO
 70
     1
  9
$DIMSHO
 70
     1
  9
$DIMPOST
  1

  9
$DIMAPOST
  1

  9
$DIMALT
 70
     0
  9
$DIMALTD
 70
     2
  9
$DIMALTF
 40
25.4
  9
$DIMLFAC
 40
1.0
  9
$DIMTOFL
 70
     0
  9
$DIMTVP
 40
0.0
  9
$DIMTIX
 70
     0
  9
$DIMSOXD
 70
     0
  9
$DIMSAH
 70
     0
  9
$DIMBLK1
  1

  9
$DIMBLK2
  1

  9
$DIMSTYLE
  2
Standard
  9
$DIMCLRD
 70
     0
  9
$DIMCLRE
 70
     0
  9
$DIMCLRT
 70
     0
  9
$DIMTFAC
 40
1.0
  9
$DIMGAP
 40
0.06
  9
$DIMJUST
 70
     0
  9
$DIMSD1
 70
     0
  9
$DIMSD2
 70
     0
  9
$DIMTOLJ
 70
     1
  9
$DIMTZIN
 70
     1
  9
$DIMALTZ
 70
     0
  9
$DIMALTTZ
 70
     0
  9
$DIMUPT
 70
     0
  9
$DIMDEC
 70
     3
  9
$DIMTDEC
 70
     3
  9
$DIMALTU
 70
     2
  9
$DIMALTTD
 70
     2
  9
$DIMTXSTY
  7
Standard
  9
$DIMAUNIT
 70
     0
  9
$DIMADEC
 70
     2
  9
$DIMALTRND
 40
0.0
  9
$DIMAZIN
 70
     0
  9
$DIMDSEP
 70
    46
  9
$DIMATFIT
 70
     3
  9
$DIMFRAC
 70
     0
  9
$DIMLDRBLK
  1

  9
$DIMLUNIT
 70
     2
  9
$DIMLWD
 70
    -2
  9
$DIMLWE
 70
    -2
  9
$DIMTMOVE
 70
     0
  9
$LUNITS
 70
     2
  9
$LUPREC
 70
     3
  9
$SKETCHINC
 40
0.1
  9
$FILLETRAD
 40
0.0
  9
$AUNITS
 70
     0
  9
$AUPREC
 70
     2
  9
$MENU
  1
.
  9
$ELEVATION
 40
0.0
  9
$PELEVATION
 40
0.0
  9
$THICKNESS
 40
0.0
  9
$LIMCHECK
 70
     0
  9
$CHAMFERA
 40
0.0
  9
$CHAMFERB
 40
0.0
  9
$CHAMFERC
 40
0.0
  9
$CHAMFERD
 40
0.0
  9
$SKPOLY
 70
     0
  9
$TDCREATE
 40
2460424.704211771
  9
$TDUCREATE
 40
2460424.954211771
  9
$TDUPDATE
 40
2460424.704265972
  9
$TDUUPDATE
 40
2460424.954265972
  9
$TDINDWG
 40
0.0000000116
  9
$TDUSRTIMER
 40
0.0000000116
  9
$USRTIMER
 70
     1
  9
$ANGBASE
 50
0.0
  9
$ANGDIR
 70
     0
  9
$PDMODE
 70
     0
  9
$PDSIZE
 40
-1.0
  9
$PLINEWID
 40
0.0
  9
$SPLFRAME
 70
     0
  9
$SPLINETYPE
 70
     6
  9
$SPLINESEGS
 70
     8
  9
$HANDSEED
  5
1E8
  9
$SURFTAB1
 70
     6
  9
$SURFTAB2
 70
     6
  9
$SURFTYPE
 70
     6
  9
$SURFU
 70
     6
  9
$SURFV
 70
     6
  9
$UCSBASE
  2

  9
$UCSNAME
  2

  9
$UCSORG
 10
0.0
 20
0.0
 30
0.0
  9
$UCSXDIR
 10
1.0
 20
0.0
 30
0.0
  9
$UCSYDIR
 10
0.0
 20
1.0
 30
0.0
  9
$UCSORTHOREF
  2

  9
$UCSORTHOVIEW
 70
     0
  9
$UCSORGTOP
 10
0.0
 20
0.0
 30
0.0
  9
$UCSORGBOTTOM
 10
0.0
 20
0.0
 30
0.0
  9
$UCSORGLEFT
 10
0.0
 20
0.0
 30
0.0
  9
$UCSORGRIGHT
 10
0.0
 20
0.0
 30
0.0
  9
$UCSORGFRONT
 10
0.0
 20
0.0
 30
0.0
  9
$UCSORGBACK
 10
0.0
 20
0.0
 30
0.0
  9
$PUCSBASE
  2

  9
$PUCSNAME
  2

  9
$PUCSORG
 10
0.0
 20
0.0
 30
0.0
  9
$PUCSXDIR
 10
1.0
 20
0.0
 30
0.0
  9
$PUCSYDIR
 10
0.0
 20
1.0
 30
0.0
  9
$PUCSORTHOREF
  2

  9
$PUCSORTHOVIEW
 70
     0
  9
$PUCSORGTOP
 10
0.0
 20
0.0
 30
0.0
  9
$PUCSORGBOTTOM
 10
0.0
 20
0.0
 30
0.0
  9
$PUCSORGLEFT
 10
0.0
 20
0.0
 30
0.0
  9
$PUCSORGRIGHT
 10
0.0
 20
0.0
 30
0.0
  9
$PUCSORGFRONT
 10
0.0
 20
0.0
 30
0.0
  9
$PUCSORGBACK
 10
0.0
 20
0.0
 30
0.0
  9
$USERI1
 70
     0
  9
$USERI2
 70
     0
  9
$USERI3
 70
     0
  9
$USERI4
 70
     0
  9
$USERI5
 70
     0
  9
$USERR1
 40
0.0
  9
$USERR2
 40
0.0
  9
$USERR3
 40
0.0
  9
$USERR4
 40
0.0
  9
$USERR5
 40
0.0
  9
$WORLDVIEW
 70
     1
  9
$SHADEDGE
 70
     3
  9
$SHADEDIF
 70
    70
  9
$TILEMODE
 70
     1
  9
$MAXACTVP
 70
    64
  9
$PINSBASE
 10
0.0
 20
0.0
 30
0.0
  9
$PLIMCHECK
 70
     0
  9
$PEXTMIN
 10
1.0000000000E+20
 20
1.0000000000E+20
 30
1.0000000000E+20
  9
$PEXTMAX
 10
-1.0000000000E+20
 20
-1.0000000000E+20
 30
-1.0000000000E+20
  9
$PLIMMIN
 10
0.0
 20
0.0
  9
$PLIMMAX
 10
12.0
 20
9.0
  9
$UNITMODE
 70
     0
  9
$VISRETAIN
 70
     1
  9
$PLINEGEN
 70
     0
  9
$PSLTSCALE
 70
     1
  9
$TREEDEPTH
 70
  3020
  9
$CMLSTYLE
  2
Standard
  9
$CMLJUST
 70
     0
  9
$CMLSCALE
 40
1.0
  9
$PROXYGRAPHICS
 70
     1
  9
$MEASUREMENT
 70
     0
  9
$CELWEIGHT
370
    -1
  9
$ENDCAPS
280
     0
  9
$JOINSTYLE
280
     0
  9
$LWDISPLAY
290
     1
  9
$INSUNITS
 70
     1
  9
$HYPERLINKBASE
  1

  9
$STYLESHEET
  1

  9
$XEDIT
290
     1
  9
$CEPSNTYPE
380
     0
  9
$PSTYLEMODE
290
     1
  9
$FINGERPRINTGUID
  2
{7331a303-0e3c-4c96-92e5-1ad1e5a63709}
  9
$VERSIONGUID
  2
{FAEB1C32-E019-11D5-929B-00C0DF256EC4}
  9
$EXTNAMES
290
     1
  9
$PSVPSCALE
 40
0.0
  9
$OLESTARTUP
290
     0
  0
ENDSEC
  0
SECTION
  2
CLASSES
  0
CLASS
  1
ACDBDICTIONARYWDFLT
  2
AcDbDictionaryWithDefault
  3
ObjectDBX Classes
 90
        0
280
     0
281
     0
  0
CLASS
  1
VISUALSTYLE
  2
AcDbVisualStyle
  3
ObjectDBX Classes
 90
     4095
280
     0
281
     0
  0
CLASS
  1
MATERIAL
  2
AcDbMaterial
  3
ObjectDBX Classes
 90
     1153
280
     0
281
     0
  0
CLASS
  1
SCALE
  2
AcDbScale
  3
ObjectDBX Classes
 90
     1153
280
     0
281
     0
  0
CLASS
  1
TABLESTYLE
  2
AcDbTableStyle
  3
ObjectDBX Classes
 90
     4095
280
     0
281
     0
  0
CLASS
  1
MLEADERSTYLE
  2
AcDbMLeaderStyle
  3
ACDB_MLEADERSTYLE_CLASS
 90
     4095
280
     0
281
     0
  0
CLASS
  1
SUN
  2
AcDbSun
  3
SCENEOE
 90
     1153
280
     0
281
     0
  0
CLASS
  1
ACDBPLACEHOLDER
  2
AcDbPlaceHolder
  3
ObjectDBX Classes
 90
        0
280
     0
281
     0
  0
CLASS
  1
LAYOUT
  2
AcDbLayout
  3
ObjectDBX Classes
 90
        0
280
     0
281
     0
  0
ENDSEC
  0
SECTION
  2
TABLES
  0
TABLE
  2
VPORT
  5
8
330
0
100
AcDbSymbolTable
 70
     1
  0
VPORT
  5
29
330
8
100
AcDbSymbolTableRecord
100
AcDbViewportTableRecord
  2
*Active
 70
     0
 10
0.0
 20
0.0
 11
1.0
 21
1.0
 12
0.0975934281
 22
16.1188874921
 13
0.0
 23
0.0
 14
0.5
 24
0.5
 15
0.5
 25
0.5
 16
0.0
 26
0.0
 36
1.0
 17
0.0
 27
0.0
 37
0.0
 40
33.0632391452
 41
0.4461590042
 42
50.0
 43
0.0
 44
0.0
 50
0.0
 51
0.0
 71
     0
 72
   100
 73
     1
 74
     3
 75
     0
 76
     0
 77
     0
 78
     0
281
     0
 65
     1
110
0.0
120
0.0
130
0.0
111
1.0
121
0.0
131
0.0
112
0.0
122
1.0
132
0.0
 79
     0
146
0.0
  0
ENDTAB
  0
TABLE
  2
LTYPE
  5
5
330
0
100
AcDbSymbolTable
 70
     6
  0
LTYPE
  5
14
330
5
100
AcDbSymbolTableRecord
100
AcDbLinetypeTableRecord
  2
ByBlock
 70
     0
  3

 72
    65
 73
     0
 40
0.0
  0
LTYPE
  5
15
330
5
100
AcDbSymbolTableRecord
100
AcDbLinetypeTableRecord
  2
ByLayer
 70
     0
  3

 72
    65
 73
     0
 40
0.0
  0
LTYPE
  5
16
330
5
100
AcDbSymbolTableRecord
100
AcDbLinetypeTableRecord
  2
Continuous
 70
     0
  3
Solid line
 72
    65
 73
     0
 40
0.0
  0
LTYPE
  5
5E
330
5
100
AcDbSymbolTableRecord
100
AcDbLinetypeTableRecord
  2
HIDDEN
 70
     0
  3
Hidden __ __ __ __ __ __ __ __ __ __ __ __ __ __
 72
    65
 73
     2
 40
0.075
 49
0.05
 74
     0
 49
-0.025
 74
     0
  0
LTYPE
  5
5F
330
5
100
AcDbSymbolTableRecord
100
AcDbLinetypeTableRecord
  2
PHANTOM
 70
     0
  3
Phantom ______  __  __  ______  __  __  ______
 72
    65
 73
     6
 40
0.5
 49
0.25
 74
     0
 49
-0.05
 74
     0
 49
0.05
 74
     0
 49
-0.05
 74
     0
 49
0.05
 74
     0
 49
-0.05
 74
     0
  0
LTYPE
  5
60
330
5
100
AcDbSymbolTableRecord
100
AcDbLinetypeTableRecord
  2
CENTER
 70
     0
  3
Center ____ _ ____ _ ____ _ ____ _ ____ _ ____
 72
    65
 73
     4
 40
0.4
 49
0.25
 74
     0
 49
-0.05
 74
     0
 49
0.05
 74
     0
 49
-0.05
 74
     0
  0
LTYPE
  5
61
330
5
100
AcDbSymbolTableRecord
100
AcDbLinetypeTableRecord
  2
CENTERX2
 70
     0
  3
Center (2x) ________  __  ________  __  _____
 72
    65
 73
     4
 40
0.8
 49
0.5
 74
     0
 49
-0.1
 74
     0
 49
0.1
 74
     0
 49
-0.1
 74
     0
  0
LTYPE
  5
62
330
5
100
AcDbSymbolTableRecord
100
AcDbLinetypeTableRecord
  2
DOT2
 70
     0
  3
Dot (.5x) ........................................
 72
    65
 73
     2
 40
0.025
 49
0.0
 74
     0
 49
-0.025
 74
     0
  0
ENDTAB
  0
TABLE
  2
LAYER
  5
2
330
0
100
AcDbSymbolTable
 70
     1
  0
LAYER
  5
10
330
2
100
AcDbSymbolTableRecord
100
AcDbLayerTableRecord
  2
0
 70
     0
 62
     7
  6
Continuous
370
    -3
390
F
  0
ENDTAB
  0
TABLE
  2
STYLE
  5
3
330
0
100
AcDbSymbolTable
 70
     1
  0
STYLE
  5
11
330
3
100
AcDbSymbolTableRecord
100
AcDbTextStyleTableRecord
  2
Standard
 70
     0
 40
0.0
 41
1.0
 50
0.0
 71
     0
 42
0.125
  3
txt
  4

  0
ENDTAB
  0
TABLE
  2
VIEW
  5
6
330
0
100
AcDbSymbolTable
 70
     0
  0
ENDTAB
  0
TABLE
  2
UCS
  5
7
330
0
100
AcDbSymbolTable
 70
     0
  0
ENDTAB
  0
TABLE
  2
APPID
  5
9
330
0
100
AcDbSymbolTable
 70
     1
  0
APPID
  5
12
330
9
100
AcDbSymbolTableRecord
100
AcDbRegAppTableRecord
  2
ACAD
 70
     0
  0
ENDTAB
  0
TABLE
  2
DIMSTYLE
  5
A
330
0
100
AcDbSymbolTable
 70
     1
100
AcDbDimStyleTable
  0
DIMSTYLE
105
27
330
A
100
AcDbSymbolTableRecord
100
AcDbDimStyleTableRecord
  2
Standard
 70
     0
178
     0
340
11
  0
ENDTAB
  0
TABLE
  2
BLOCK_RECORD
  5
1
330
0
100
AcDbSymbolTable
 70
     1
  0
BLOCK_RECORD
  5
1F
330
1
100
AcDbSymbolTableRecord
100
AcDbBlockTableRecord
  2
*Model_Space
340
22
  0
BLOCK_RECORD
  5
1B
330
1
100
AcDbSymbolTableRecord
100
AcDbBlockTableRecord
  2
*Paper_Space
340
1E
  0
BLOCK_RECORD
  5
23
330
1
100
AcDbSymbolTableRecord
100
AcDbBlockTableRecord
  2
*Paper_Space0
340
26
  0
ENDTAB
  0
ENDSEC
  0
SECTION
  2
BLOCKS
  0
BLOCK
  5
20
330
1F
100
AcDbEntity
  8
0
100
AcDbBlockBegin
  2
*Model_Space
 70
     0
 10
0.0
 20
0.0
 30
0.0
  3
*Model_Space
  1

  0
ENDBLK
  5
21
330
1F
100
AcDbEntity
  8
0
100
AcDbBlockEnd
  0
BLOCK
  5
1C
330
1B
100
AcDbEntity
 67
     1
  8
0
100
AcDbBlockBegin
  2
*Paper_Space
 70
     0
 10
0.0
 20
0.0
 30
0.0
  3
*Paper_Space
  1

  0
ENDBLK
  5
1D
330
1B
100
AcDbEntity
 67
     1
  8
0
100
AcDbBlockEnd
  0
BLOCK
  5
24
330
23
100
AcDbEntity
  8
0
100
AcDbBlockBegin
  2
*Paper_Space0
 70
     0
 10
0.0
 20
0.0
 30
0.0
  3
*Paper_Space0
  1

  0
ENDBLK
  5
25
330
23
100
AcDbEntity
  8
0
100
AcDbBlockEnd
  0
ENDSEC
  0
SECTION
  2
ENTITIES
  0
SPLINE
  5
63
330
1F
100
AcDbEntity
  8
0
  6
Continuous
 62
     7
370
    25
100
AcDbSpline
210
0.0
220
0.0
230
1.0
 70
     8
 71
     3
 72
    30
 73
    26
 74
     0
 42
0.00000001
 43
0.00000001
 40
0.0
 40
0.0
 40
0.0
 40
0.0
 40
0.0124831030096706
 40
0.0937047962330651
 40
0.169719286040343
 40
0.2404542646638859
 40
0.3059061074430608
 40
0.3660624201169801
 40
0.4312209593692718
 40
0.4887087281920069
 40
0.5385479387294824
 40
0.580762210179711
 40
0.6153756816445944
 40
0.674067686933603
 40
0.7344122112990202
 40
0.7960446732193291
 40
0.8209278978312744
 40
0.8397715932141224
 40
0.8560456887013012
 40
0.874294862591307
 40
0.895256267422209
 40
0.9159230264285124
 40
0.9404307357639948
 40
0.9688222884342477
 40
1.0
 40
1.0
 40
1.0
 40
1.0
 10
-7.124885130470622
 20
15.24600019307912
 30
0.0
 10
-7.122764802144194
 20
15.22016852480437
 30
0.0
 10
-7.106848492423675
 20
15.02626231333029
 30
0.0
 10
-7.039163589488254
 20
14.67940326431574
 30
0.0
 10
-6.921499114818102
 20
14.22089250956887
 30
0.0
 10
-6.77835354060564
 20
13.80367918087964
 30
0.0
 10
-6.626377661167679
 20
13.42516034753241
 30
0.0
 10
-6.464795971978559
 20
13.06326239496473
 30
0.0
 10
-6.298096919721128
 20
12.72196605902406
 30
0.0
 10
-6.126300569776804
 20
12.40740198699503
 30
0.0
 10
-5.965427691262003
 20
12.14156895438833
 30
0.0
 10
-5.820256865185862
 20
11.92206265320337
 30
0.0
 10
-5.657261630182871
 20
11.69259158449852
 30
0.0
 10
-5.462000800732224
 20
11.4402670943736
 30
0.0
 10
-5.216999217716157
 20
11.15646936227939
 30
0.0
 10
-5.005223124056054
 20
10.93765440122905
 30
0.0
 10
-4.848152640107408
 20
10.78635718836016
 30
0.0
 10
-4.757617734164005
 20
10.70178094310758
 30
0.0
 10
-4.676486944040557
 20
10.6277044587809
 30
0.0
 10
-4.591222524425236
 20
10.55144041578261
 30
0.0
 10
-4.498373790670034
 20
10.47009799921427
 30
0.0
 10
-4.39585134026096
 20
10.38185842040187
 30
0.0
 10
-4.281571573178071
 20
10.28493095986252
 30
0.0
 10
-4.150652091944585
 20
10.17545123077556
 30
0.0
 10
-4.057488354958231
 20
10.09906330282016
 30
0.0
 10
-4.008727770831484
 20
10.05908294020458
 30
0.0
  0
SPLINE
  5
64
330
1F
100
AcDbEntity
  8
0
  6
Continuous
 62
     7
370
    25
100
AcDbSpline
210
0.0
220
0.0
230
1.0
 70
     8
 71
     3
 72
    26
 73
    22
 74
     0
 42
0.00000001
 43
0.00000001
 40
0.0
 40
0.0
 40
0.0
 40
0.0
 40
0.0199084260461604
 40
0.0668991680848691
 40
0.1052795419683699
 40
0.1434397907043789
 40
0.1788276308722606
 40
0.2148250696290477
 40
0.2548586899248166
 40
0.3008169097272091
 40
0.3529863861442448
 40
0.4113902117293921
 40
0.468895193542797
 40
0.5336624302532446
 40
0.6057099780321257
 40
0.6850368577082815
 40
0.7419354582499612
 40
0.8020261322222975
 40
0.8653136121315806
 40
0.931770052527001
 40
1.0
 40
1.0
 40
1.0
 40
1.0
 10
4.008587508388904
 20
10.05953063606279
 30
0.0
 10
4.039827352457921
 20
10.08488844725219
 30
0.0
 10
4.144803987701341
 20
10.17009942621612
 30
0.0
 10
4.30876032343129
 20
10.30756227644323
 30
0.0
 10
4.500379114067738
 20
10.47122235404551
 30
0.0
 10
4.673284923264482
 20
10.62393786630192
 30
0.0
 10
4.839345262933348
 20
10.77721663091818
 30
0.0
 10
5.004677128285199
 20
10.9376710603551
 30
0.0
 10
5.180453692163747
 20
11.11945636262922
 30
0.0
 10
5.371396668588771
 20
11.33338779994181
 30
0.0
 10
5.576836837495867
 20
11.58533613117854
 30
0.0
 10
5.783875092328741
 20
11.86651216193392
 30
0.0
 10
5.990989131511085
 20
12.17959425322157
 30
0.0
 10
6.195642277553446
 20
12.5277215172822
 30
0.0
 10
6.401527073192812
 20
12.92690506664721
 30
0.0
 10
6.581635216027978
 20
13.32042960325051
 30
0.0
 10
6.736941205188974
 20
13.69753617410125
 30
0.0
 10
6.864874381559702
 20
14.04958353847627
 30
0.0
 10
6.977903459429077
 20
14.42737508855754
 30
0.0
 10
7.071131040896234
 20
14.82817238431902
 30
0.0
 10
7.108312753420878
 20
15.10537526468237
 30
0.0
 10
7.127148408104791
 20
15.24580176409249
 30
0.0
  0
SPLINE
  5
65
330
1F
100
AcDbEntity
  8
0
  6
Continuous
 62
     7
370
    25
100
AcDbSpline
210
0.0
220
0.0
230
1.0
 70
     8
 71
     3
 72
    49
 73
    45
 74
     0
 42
0.00000001
 43
0.00000001
 40
0.0
 40
0.0
 40
0.0
 40
0.0
 40
0.0407207955596309
 40
0.1260361139780525
 40
0.2061715865397072
 40
0.2813116958230095
 40
0.3710786958024054
 40
0.451929447734258
 40
0.5244099923863905
 40
0.5889590616607534
 40
0.6459486144274328
 40
0.6957329908251185
 40
0.7386488517411531
 40
0.7804503607665565
 40
0.8137734102344061
 40
0.8390552099173783
 40
0.8530977964585703
 40
0.8633517404381013
 40
0.8702470833862731
 40
0.8725947057650318
 40
0.874320010352283
 40
0.8749924524203823
 40
0.8755704787558034
 40
0.8760899259972312
 40
0.876593523390609
 40
0.8771226592352664
 40
0.8777089033667315
 40
0.879119508726127
 40
0.883029459313832
 40
0.888287581791925
 40
0.9015638699767065
 40
0.916062185297939
 40
0.9288604374963673
 40
0.938855102908419
 40
0.9464266077716773
 40
0.9521204699936751
 40
0.9545041605782042
 40
0.9567224514322518
 40
0.9588914554429658
 40
0.9611117545681515
 40
0.9659598313310922
 40
0.9715665971864744
 40
0.9849111046064434
 40
1.0
 40
1.0
 40
1.0
 40
1.0
 10
-6.103007340352656
 20
15.59643322615903
 30
0.0
 10
-6.127068345565657
 20
15.5964302615268
 30
0.0
 10
-6.201540259824098
 20
15.5964210856077
 30
0.0
 10
-6.311199475377849
 20
15.59637991310716
 30
0.0
 10
-6.432092011636058
 20
15.59628754452913
 30
0.0
 10
-6.544170963907259
 20
15.59610908981143
 30
0.0
 10
-6.643954663671116
 20
15.59578321780748
 30
0.0
 10
-6.728604733529562
 20
15.59518640069198
 30
0.0
 10
-6.793554237591645
 20
15.59427974614684
 30
0.0
 10
-6.843819704196433
 20
15.59299176496086
 30
0.0
 10
-6.883395397236243
 20
15.59125504950095
 30
0.0
 10
-6.914716537663509
 20
15.58901564276055
 30
0.0
 10
-6.940712782627996
 20
15.58611549402504
 30
0.0
 10
-6.96241316071866
 20
15.58245006186229
 30
0.0
 10
-6.980915455719471
 20
15.57782836327042
 30
0.0
 10
-6.99539580566935
 20
15.57287228609325
 30
0.0
 10
-7.007193266498005
 20
15.5678176656367
 30
0.0
 10
-7.016563197872292
 20
15.56318370002207
 30
0.0
 10
-7.024477964855634
 20
15.55884290535638
 30
0.0
 10
-7.031161919487794
 20
15.55484651507791
 30
0.0
 10
-7.035029858291828
 20
15.55243354838415
 30
0.0
 10
-7.038198030680269
 20
15.550384369655
 30
0.0
 10
-7.040393684543139
 20
15.54893434381335
 30
0.0
 10
-7.042610490507461
 20
15.54743949856417
 30
0.0
 10
-7.04481586816846
 20
15.5459206005336
 30
0.0
 10
-7.046969405431284
 20
15.54440592064237
 30
0.0
 10
-7.049950801961702
 20
15.54226482303032
 30
0.0
 10
-7.055520179117465
 20
15.53812107055202
 30
0.0
 10
-7.062126139922789
 20
15.53282027012931
 30
0.0
 10
-7.072552727104748
 20
15.5237091722016
 30
0.0
 10
-7.083249767269902
 20
15.51261177793346
 30
0.0
 10
-7.093993788766597
 20
15.4988060820715
 30
0.0
 10
-7.103453090081486
 20
15.48328728391918
 30
0.0
 10
-7.111813398406496
 20
15.46555509957154
 30
0.0
 10
-7.118709248275989
 20
15.44654353880317
 30
0.0
 10
-7.123724360041237
 20
15.42813464176974
 30
0.0
 10
-7.126901831807436
 20
15.41285873381142
 30
0.0
 10
-7.128816243521283
 20
15.40180287555977
 30
0.0
 10
-7.13039559969291
 20
15.39058189031896
 30
0.0
 10
-7.132106352716232
 20
15.37509645517096
 30
0.0
 10
-7.13340435874538
 20
15.35535789863324
 30
0.0
 10
-7.133900442590349
 20
15.32334953574043
 30
0.0
 10
-7.131844486242437
 20
15.28532706066966
 30
0.0
 10
-7.128687725690937
 20
15.25695950070615
 30
0.0
 10
-7.127012511856828
 20
15.24190554646554
 30
0.0
  0
SPLINE
  5
66
330
1F
100
AcDbEntity
  8
0
  6
Continuous
 62
     7
370
    25
100
AcDbSpline
210
0.0
220
0.0
230
1.0
 70
     8
 71
     3
 72
    49
 73
    45
 74
     0
 42
0.00000001
 43
0.00000001
 40
0.0
 40
0.0
 40
0.0
 40
0.0
 40
0.034924388759079
 40
0.0499897374789225
 40
0.0627694931488785
 40
0.0685385021579815
 40
0.0742519937405056
 40
0.0803668140973809
 40
0.0873852952585809
 40
0.1058166353481196
 40
0.1323193602047426
 40
0.1650129456983721
 40
0.1957347064769227
 40
0.2077019902377659
 40
0.2162351759933999
 40
0.2192201292072047
 40
0.2205117191609284
 40
0.2217788631344528
 40
0.2231352691679885
 40
0.224688598989892
 40
0.2286942744890484
 40
0.2416407029857934
 40
0.2627314334320386
 40
0.3125693144586214
 40
0.3861527753506298
 40
0.4775879867957538
 40
0.5785631409617716
 40
0.6696199035493423
 40
0.7559100958512456
 40
0.8317531935554884
 40
0.8783257761812406
 40
0.91337127797349
 40
0.9346315981520671
 40
0.9376399330148263
 40
0.9397902834631197
 40
0.9406251707302699
 40
0.9413877618493439
 40
0.9421803744701822
 40
0.9430997249503733
 40
0.9455566121228256
 40
0.9512385228358362
 40
0.9596400975119254
 40
0.9967374273202001
 40
0.9999999999999999
 40
0.9999999999999999
 40
0.9999999999999999
 40
0.9999999999999999
 10
7.127017983971068
 20
15.24195055919058
 30
0.0
 10
7.128820225455581
 20
15.25788376824013
 30
0.0
 10
7.131399900630599
 20
15.28069009258494
 30
0.0
 10
7.133514747701649
 20
15.31457117468233
 30
0.0
 10
7.134006392353388
 20
15.33625757501353
 30
0.0
 10
7.133728778957613
 20
15.35358692825237
 30
0.0
 10
7.133191406215657
 20
15.36622407674461
 30
0.0
 10
7.13230730438918
 20
15.37864754298098
 30
0.0
 10
7.130507581947204
 20
15.39626248147299
 30
0.0
 10
7.127163895299127
 20
15.41678171010151
 30
0.0
 10
7.122314303389148
 20
15.43665228936486
 30
0.0
 10
7.116130355366606
 20
15.45472948594087
 30
0.0
 10
7.109412236377793
 20
15.46978139900941
 30
0.0
 10
7.102289844686322
 20
15.48276705452205
 30
0.0
 10
7.097669977705238
 20
15.49044552119525
 30
0.0
 10
7.093467843565658
 20
15.49683395903921
 30
0.0
 10
7.091254563191923
 20
15.50006551744597
 30
0.0
 10
7.08962729782519
 20
15.50238492209065
 30
0.0
 10
7.087990735929296
 20
15.50466224305376
 30
0.0
 10
7.085613461141548
 20
15.50789220988913
 30
0.0
 10
7.080744263806316
 20
15.51423376039977
 30
0.0
 10
7.074736146449068
 20
15.52134039805602
 30
0.0
 10
7.065181718958644
 20
15.53154217605352
 30
0.0
 10
7.053378751206014
 20
15.54167057877404
 30
0.0
 10
7.037553538469296
 20
15.55191980781332
 30
0.0
 10
7.016173907083222
 20
15.56148458568204
 30
0.0
 10
6.989600687210769
 20
15.56974511582162
 30
0.0
 10
6.959307330236515
 20
15.57663310694372
 30
0.0
 10
6.927647965960294
 20
15.58214021820104
 30
0.0
 10
6.897110525517588
 20
15.58626565808554
 30
0.0
 10
6.870409759405992
 20
15.58922916214834
 30
0.0
 10
6.849015492134278
 20
15.59128488577851
 30
0.0
 10
6.834509714943811
 20
15.59255326552338
 30
0.0
 10
6.823408399741723
 20
15.59348683637338
 30
0.0
 10
6.820098373030701
 20
15.59376485511285
 30
0.0
 10
6.817523345741674
 20
15.59398249732313
 30
0.0
 10
6.815779900078916
 20
15.59413086618819
 30
0.0
 10
6.814150820207852
 20
15.59427086902209
 30
0.0
 10
6.811972072222516
 20
15.59446054692608
 30
0.0
 10
6.808966846481113
 20
15.59473027820047
 30
0.0
 10
6.806169476597536
 20
15.59500109952241
 30
0.0
 10
6.801528057655225
 20
15.59551421973282
 30
0.0
 10
6.800981935340217
 20
15.59569617976462
 30
0.0
 10
6.801328072635688
 20
15.59578304190178
 30
0.0
 10
6.801356053329744
 20
15.59579006357474
 30
0.0
  0
SPLINE
  5
67
330
1F
100
AcDbEntity
  8
0
  6
Continuous
 62
     7
370
    25
100
AcDbSpline
210
0.0
220
0.0
230
1.0
 70
     8
 71
     3
 72
     9
 73
     5
 74
     0
 42
0.00000001
 43
0.00000001
 40
0.0
 40
0.0
 40
0.0
 40
0.0
 40
0.2985031160945249
 40
1.0
 40
1.0
 40
1.0
 40
1.0
 10
3.967254669190959
 20
10.04895930893004
 30
0.0
 10
3.967958648882477
 20
10.0467692950076
 30
0.0
 10
3.970317015189425
 20
10.0394326415378
 30
0.0
 10
3.993695990041689
 20
10.05233365726161
 30
0.0
 10
4.010096268049457
 20
10.06138367959108
 30
0.0
  0
SPLINE
  5
68
330
1F
100
AcDbEntity
  8
0
  6
Continuous
 62
     7
370
    25
100
AcDbSpline
210
0.0
220
0.0
230
1.0
 70
     8
 71
     3
 72
     9
 73
     5
 74
     0
 42
0.00000001
 43
0.00000001
 40
0.0
 40
0.0
 40
0.0
 40
0.0
 40
0.7286535744248859
 40
0.9999999999999999
 40
0.9999999999999999
 40
0.9999999999999999
 40
0.9999999999999999
 10
-4.011122269529588
 20
10.06113097858294
 30
0.0
 10
-3.993813654520037
 20
10.05150135422091
 30
0.0
 10
-3.9700594102302
 20
10.03828571279675
 30
0.0
 10
-3.967716568992912
 20
10.04611352582744
 30
0.0
 10
-3.967080847397483
 20
10.04823757491338
 30
0.0
  0
SPLINE
  5
69
330
1F
100
AcDbEntity
  8
0
  6
Continuous
 62
     7
370
    25
100
AcDbSpline
210
0.0
220
0.0
230
1.0
 70
     8
 71
     3
 72
    12
 73
     8
 74
     0
 42
0.00000001
 43
0.00000001
 40
0.0
 40
0.0
 40
0.0
 40
0.0
 40
0.0884890257218574
 40
0.509519866839592
 40
0.6923288313381061
 40
0.8786803924037188
 40
1.0
 40
1.0
 40
1.0
 40
1.0
 10
4.680451911782391
 20
1.036170882852145
 30
0.0
 10
4.679487799908053
 20
1.047613106557501
 30
0.0
 10
4.673936443117502
 20
1.113497437988916
 30
0.0
 10
4.66610896911788
 20
1.203559727256697
 30
0.0
 10
4.65657485429202
 20
1.305054225764584
 30
0.0
 10
4.650919399484956
 20
1.369527070387415
 30
0.0
 10
4.64836293649519
 20
1.40768253408361
 30
0.0
 10
4.647354882708084
 20
1.422727836844377
 30
0.0
  0
SPLINE
  5
6A
330
1F
100
AcDbEntity
  8
0
  6
Continuous
 62
     7
370
    25
100
AcDbSpline
210
0.0
220
0.0
230
1.0
 70
     8
 71
     3
 72
     9
 73
     5
 74
     0
 42
0.00000001
 43
0.00000001
 40
0.0
 40
0.0
 40
0.0
 40
0.0
 40
0.5221487804782357
 40
1.0
 40
1.0
 40
1.0
 40
1.0
 10
-4.648275025652632
 20
1.424807599648115
 30
0.0
 10
-4.653583307282383
 20
1.358213966039252
 30
0.0
 10
-4.663749531600461
 20
1.230676306087484
 30
0.0
 10
-4.674639596269002
 20
1.103535714546575
 30
0.0
 10
-4.679843426951536
 20
1.042781427828036
 30
0.0
  0
SPLINE
  5
6B
330
1F
100
AcDbEntity
  8
0
  6
Continuous
 62
     7
370
    25
100
AcDbSpline
210
0.0
220
0.0
230
1.0
 70
     8
 71
     3
 72
     9
 73
     5
 74
     0
 42
0.00000001
 43
0.00000001
 40
0.0
 40
0.0
 40
0.0
 40
0.0
 40
0.544291703077398
 40
1.0
 40
1.0
 40
1.0
 40
1.0
 10
3.955691787533278
 20
9.916124375610044
 30
0.0
 10
3.953524830337637
 20
9.943372993525571
 30
0.0
 10
3.949543587957146
 20
9.993435520221208
 30
0.0
 10
3.95823141680098
 20
10.03565604478302
 30
0.0
 10
3.962190532487361
 20
10.05489628812627
 30
0.0
  0
SPLINE
  5
6F
330
1F
100
AcDbEntity
  8
0
  6
Continuous
 62
     7
370
    25
100
AcDbSpline
210
0.0
220
0.0
230
1.0
 70
     8
 71
     3
 72
    11
 73
     7
 74
     0
 42
0.00000001
 43
0.00000001
 40
0.0
 40
0.0
 40
0.0
 40
0.0
 40
0.2508373357169082
 40
0.5182350394311925
 40
0.7844752148925493
 40
1.0
 40
1.0
 40
1.0
 40
1.0
 10
4.762383677861354
 20
0.0563776010090407
 30
0.0
 10
4.756434723263849
 20
0.1295648625848546
 30
0.0
 10
4.744144062020775
 20
0.2807712341571065
 30
0.0
 10
4.724344653057335
 20
0.5109865804596251
 30
0.0
 10
4.705412779887084
 20
0.7305604750176677
 30
0.0
 10
4.693866470877835
 20
0.8697729850025591
 30
0.0
 10
4.68870105626349
 20
0.9320517905498472
 30
0.0
  0
SPLINE
  5
70
330
1F
100
AcDbEntity
  8
0
  6
Continuous
 62
     7
370
    25
100
AcDbSpline
210
0.0
220
0.0
230
1.0
 70
     8
 71
     3
 72
    11
 73
     7
 74
     0
 42
0.00000001
 43
0.00000001
 40
0.0
 40
0.0
 40
0.0
 40
0.0
 40
0.2201644931700975
 40
0.485060433681912
 40
0.7500453675451707
 40
1.0
 40
1.0
 40
1.0
 40
1.0
 10
-4.688411084975203
 20
0.9361133902391131
 30
0.0
 10
-4.693723350446426
 20
0.8720872759651807
 30
0.0
 10
-4.705427189499681
 20
0.7310266793653097
 30
0.0
 10
-4.724109873805803
 20
0.5108351279938115
 30
0.0
 10
-4.744149756452491
 20
0.2797478907972561
 30
0.0
 10
-4.756434506425741
 20
0.1292098219280285
 30
0.0
 10
-4.762397594844678
 20
0.0561377759329783
 30
0.0
  0
SPLINE
  5
71
330
1F
100
AcDbEntity
  8
0
  6
Continuous
 62
     7
370
    25
100
AcDbSpline
210
0.0
220
0.0
230
1.0
 70
     8
 71
     3
 72
    14
 73
    10
 74
     0
 42
0.00000001
 43
0.00000001
 40
0.0
 40
0.0
 40
0.0
 40
0.0
 40
0.3007988736626782
 40
0.3971351232764805
 40
0.4633178520227548
 40
0.5456441323675694
 40
0.6600901324542887
 40
0.8132415783786542
 40
0.9999999999999999
 40
0.9999999999999999
 40
0.9999999999999999
 40
0.9999999999999999
 10
4.626918907630823
 20
-0.0885826771650386
 30
0.0
 10
4.650425678471177
 20
-0.088357712008273
 30
0.0
 10
4.681460915478032
 20
-0.0880606977137184
 30
0.0
 10
4.71589474734692
 20
-0.0743510971853923
 30
0.0
 10
4.732561998900555
 20
-0.0633534779045034
 30
0.0
 10
4.747323289263197
 20
-0.0476856521707844
 30
0.0
 10
4.759739407379574
 20
-0.0217110739325271
 30
0.0
 10
4.765474346204479
 20
0.0150780687220455
 30
0.0
 10
4.763385085340987
 20
0.0425591040908083
 30
0.0
 10
4.762237172030796
 20
0.0576581502792844
 30
0.0
  0
SPLINE
  5
72
330
1F
100
AcDbEntity
  8
0
  6
Continuous
 62
     7
370
    25
100
AcDbSpline
210
0.0
220
0.0
230
1.0
 70
     8
 71
     3
 72
    13
 73
     9
 74
     0
 42
0.00000001
 43
0.00000001
 40
0.0
 40
0.0
 40
0.0
 40
0.0
 40
0.2887083765067004
 40
0.3835202928410094
 40
0.4499636245247177
 40
0.5334145658901022
 40
0.650731374103646
 40
1.0
 40
1.0
 40
1.0
 40
1.0
 10
-4.762236141115507
 20
0.0576553445755049
 30
0.0
 10
-4.763837055031234
 20
0.0341488708845161
 30
0.0
 10
-4.765963709550932
 20
0.0029228642728975
 30
0.0
 10
-4.755066566425801
 20
-0.0319867635201417
 30
0.0
 10
-4.74549242760741
 20
-0.0493490491397421
 30
0.0
 10
-4.730983299614254
 20
-0.0653412200072259
 30
0.0
 10
-4.692563407356008
 20
-0.087569151721362
 30
0.0
 10
-4.655015764714909
 20
-0.0881487850556841
 30
0.0
 10
-4.626908985994046
 20
-0.088582677165043
 30
0.0
  0
SPLINE
  5
73
330
1F
100
AcDbEntity
  8
0
  6
Continuous
 62
     7
370
    25
100
AcDbSpline
210
0.0
220
0.0
230
1.0
 70
     8
 71
     3
 72
    10
 73
     6
 74
     0
 42
0.00000001
 43
0.00000001
 40
0.0
 40
0.0
 40
0.0
 40
0.0
 40
0.3430257285697051
 40
0.6927307645246836
 40
1.0
 40
1.0
 40
1.0
 40
1.0
 10
-6.777084050418548
 20
30.40122455132355
 30
0.0
 10
-6.743736619820924
 20
28.84789631050907
 30
0.0
 10
-6.676392426167731
 20
25.71099382711841
 30
0.0
 10
-6.579154409041071
 20
21.18194968705541
 30
0.0
 10
-6.515190113256814
 20
18.20634745313856
 30
0.0
 10
-6.485273781494601
 20
16.81464755977175
 30
0.0
  0
SPLINE
  5
74
330
1F
100
AcDbEntity
  8
0
  6
Continuous
 62
     7
370
    25
100
AcDbSpline
210
0.0
220
0.0
230
1.0
 70
     8
 71
     3
 72
    11
 73
     7
 74
     0
 42
0.00000001
 43
0.00000001
 40
0.0
 40
0.0
 40
0.0
 40
0.0
 40
0.2148471124235177
 40
0.4779576203435789
 40
0.7420951996896666
 40
1.0
 40
1.0
 40
1.0
 40
1.0
 10
6.486673839632169
 20
16.87969661577495
 30
0.0
 10
6.507497311084602
 20
17.84814310398566
 30
0.0
 10
6.553822052201339
 20
20.00258853131282
 30
0.0
 10
6.625595879374206
 20
23.34751119823751
 30
0.0
 10
6.701703931084253
 20
26.88617909272638
 30
0.0
 10
6.752158694224486
 20
29.2388946538783
 30
0.0
 10
6.77708488052559
 20
30.40120763962717
 30
0.0
  0
SPLINE
  5
75
330
1F
100
AcDbEntity
  8
0
  6
Continuous
 62
     7
370
    25
100
AcDbSpline
210
0.0
220
0.0
230
1.0
 70
     8
 71
     3
 72
    13
 73
     9
 74
     0
 42
0.00000001
 43
0.00000001
 40
0.0
 40
0.0
 40
0.0
 40
0.0
 40
0.0910874154448638
 40
0.1873133291021809
 40
0.2911287386568128
 40
0.4040333811793146
 40
0.6683097350681155
 40
1.0
 40
1.0
 40
1.0
 40
1.0
 10
6.775016348344343
 20
30.39894974328953
 30
0.0
 10
6.775330345261622
 20
30.41150083610081
 30
0.0
 10
6.775976052548589
 20
30.4373110642961
 30
0.0
 10
6.773563603212852
 20
30.47501669036049
 30
0.0
 10
6.765589492676163
 20
30.51065133195781
 30
0.0
 10
6.745144672195549
 20
30.55449202554891
 30
0.0
 10
6.698213170661392
 20
30.58970360928885
 30
0.0
 10
6.657476676610917
 20
30.5962395423851
 30
0.0
 10
6.634804436124137
 20
30.59987717125862
 30
0.0
  0
SPLINE
  5
76
330
1F
100
AcDbEntity
  8
0
  6
Continuous
 62
     7
370
    25
100
AcDbSpline
210
0.0
220
0.0
230
1.0
 70
     8
 71
     3
 72
    13
 73
     9
 74
     0
 42
0.00000001
 43
0.00000001
 40
0.0
 40
0.0
 40
0.0
 40
0.0
 40
0.3104962092326972
 40
0.5628045636340643
 40
0.6729396302013633
 40
0.7801773558272349
 40
0.8887655373510456
 40
1.0
 40
1.0
 40
1.0
 40
1.0
 10
-6.634361351800599
 20
30.59993007052595
 30
0.0
 10
-6.651114103069165
 20
30.59767693248248
 30
0.0
 10
-6.681480093335764
 20
30.59359290074342
 30
0.0
 10
-6.730720850251462
 20
30.56905951935152
 30
0.0
 10
-6.75837787115743
 20
30.52857831662154
 30
0.0
 10
-6.771129454630195
 20
30.49007514304439
 30
0.0
 10
-6.776155869240342
 20
30.44564299868125
 30
0.0
 10
-6.775466551369359
 20
30.41464211321949
 30
0.0
 10
-6.77511774334159
 20
30.39895507220078
 30
0.0
  0
SPLINE
  5
78
330
1F
100
AcDbEntity
  8
0
  6
Continuous
 62
     7
370
    25
100
AcDbSpline
210
0.0
220
0.0
230
1.0
 70
     8
 71
     3
 72
    15
 73
    11
 74
     0
 42
0.00000001
 43
0.00000001
 40
0.0
 40
0.0
 40
0.0
 40
0.0
 40
0.1916566262586204
 40
0.3636881612520723
 40
0.5164358445102283
 40
0.6500124746627021
 40
0.7646811701685854
 40
0.8607499331851969
 40
0.9387695439089672
 40
1.0
 40
1.0
 40
1.0
 40
1.0
 10
-6.595825362905231
 20
16.79939783360867
 30
0.0
 10
-6.630552720825865
 20
16.79396580710526
 30
0.0
 10
-6.696451454377899
 20
16.78365797810158
 30
0.0
 10
-6.794890264061488
 20
16.75735487623152
 30
0.0
 10
-6.882253281636117
 20
16.72101844339281
 30
0.0
 10
-6.958758797418736
 20
16.67164262760829
 30
0.0
 10
-7.022844658846146
 20
16.60899257131507
 30
0.0
 10
-7.070535320201375
 20
16.53291938085278
 30
0.0
 10
-7.10276986702119
 20
16.45090504555262
 30
0.0
 10
-7.10767123294499
 20
16.38070910043378
 30
0.0
 10
-7.109826441038228
 20
16.34984283348194
 30
0.0
  0
SPLINE
  5
7A
330
1F
100
AcDbEntity
  8
0
  6
Continuous
 62
     7
370
    25
100
AcDbSpline
210
0.0
220
0.0
230
1.0
 70
     8
 71
     3
 72
    15
 73
    11
 74
     0
 42
0.00000001
 43
0.00000001
 40
0.0
 40
0.0
 40
0.0
 40
0.0
 40
0.0697137341670622
 40
0.1537481331124839
 40
0.2531997444821873
 40
0.3686820346220132
 40
0.500652654478145
 40
0.6495527990112743
 40
0.8158540184346671
 40
1.0
 40
1.0
 40
1.0
 40
1.0
 10
7.328702180182827
 20
16.39610573263387
 30
0.0
 10
7.326634814615998
 20
16.42675357809303
 30
0.0
 10
7.322075403186411
 20
16.49434497998199
 30
0.0
 10
7.290406876778363
 20
16.57779442173427
 30
0.0
 10
7.243624641586785
 20
16.65360497370051
 30
0.0
 10
7.182183796289994
 20
16.71573031357846
 30
0.0
 10
7.110956107402525
 20
16.76364722231907
 30
0.0
 10
7.032815294156361
 20
16.7977541387618
 30
0.0
 10
6.94911902142165
 20
16.82082042798817
 30
0.0
 10
6.893407022535246
 20
16.8288572265382
 30
0.0
 10
6.864132596342205
 20
16.83308024259729
 30
0.0
  0
SPLINE
  5
7B
330
1F
100
AcDbEntity
  8
0
  6
Continuous
 62
     7
370
    25
100
AcDbSpline
210
0.0
220
0.0
230
1.0
 70
     8
 71
     3
 72
    18
 73
    14
 74
     0
 42
0.00000001
 43
0.00000001
 40
0.0
 40
0.0
 40
0.0
 40
0.0
 40
0.0354667372023083
 40
0.1196112157445501
 40
0.2047683888590418
 40
0.2916169171172046
 40
0.3796976931744074
 40
0.4687664154219743
 40
0.5768974224630474
 40
0.6863408028698386
 40
0.7968687733285216
 40
0.9081514675751318
 40
0.9999999999999999
 40
0.9999999999999999
 40
0.9999999999999999
 40
0.9999999999999999
 10
6.86228041068881
 20
16.83321605020882
 30
0.0
 10
6.817323270434668
 20
16.83886099528113
 30
0.0
 10
6.665705765516675
 20
16.85789851596026
 30
0.0
 10
6.415264927670834
 20
16.88853713911302
 30
0.0
 10
6.124019787781999
 20
16.92376037414265
 30
0.0
 10
5.865134900230827
 20
16.95464191649378
 30
0.0
 10
5.624700364977651
 20
16.98309368301738
 30
0.0
 10
5.389673475277021
 20
17.01076555507373
 30
0.0
 10
5.167336108995157
 20
17.03692341560675
 30
0.0
 10
4.965801228003054
 20
17.06076511993374
 30
0.0
 10
4.801046475026674
 20
17.08050477717131
 30
0.0
 10
4.677806929097028
 20
17.09555742371304
 30
0.0
 10
4.628159208748933
 20
17.10183929695948
 30
0.0
 10
4.60571032027947
 20
17.10467973093911
 30
0.0
  0
SPLINE
  5
7C
330
1F
100
AcDbEntity
  8
0
  6
Continuous
 62
     7
370
    25
100
AcDbSpline
210
0.0
220
0.0
230
1.0
 70
     8
 71
     3
 72
    17
 73
    13
 74
     0
 42
0.00000001
 43
0.00000001
 40
0.0
 40
0.0
 40
0.0
 40
0.0
 40
0.0507725583087483
 40
0.1720231297463782
 40
0.2928967798012784
 40
0.4131807236497149
 40
0.5326255083152742
 40
0.6509529854085155
 40
0.7678636266437316
 40
0.8830062348977814
 40
0.9960104066293549
 40
0.9999999999999999
 40
0.9999999999999999
 40
0.9999999999999999
 40
0.9999999999999999
 10
-5.026789916382705
 20
17.01328974594687
 30
0.0
 10
-5.036253960930933
 20
17.01191870331911
 30
0.0
 10
-5.068319206754191
 20
17.00727345691634
 30
0.0
 10
-5.146231549168616
 20
16.99630600925859
 30
0.0
 10
-5.269593338867212
 20
16.97920066698342
 30
0.0
 10
-5.421087736569445
 20
16.95849654142881
 30
0.0
 10
-5.598016415452372
 20
16.93453703110685
 30
0.0
 10
-5.798766366037206
 20
16.90748282933546
 30
0.0
 10
-6.021529999470793
 20
16.87750597791847
 30
0.0
 10
-6.264096533775914
 20
16.84471802213689
 30
0.0
 10
-6.448039991569521
 20
16.81984114895596
 30
0.0
 10
-6.550108485182125
 20
16.80582292958243
 30
0.0
 10
-6.55358911327468
 20
16.80534489560317
 30
0.0
  0
SPLINE
  5
81
330
1F
100
AcDbEntity
  8
0
  6
Continuous
 62
     7
370
    25
100
AcDbSpline
210
0.0
220
0.0
230
1.0
 70
     8
 71
     3
 72
    11
 73
     7
 74
     0
 42
0.00000001
 43
0.00000001
 40
0.0
 40
0.0
 40
0.0
 40
0.0
 40
0.0765259444976246
 40
0.4140275141344961
 40
0.7897009552859455
 40
1.0
 40
1.0
 40
1.0
 40
1.0
 10
4.754444053817499
 20
15.59832810481335
 30
0.0
 10
4.766218330227085
 20
15.5997765252884
 30
0.0
 10
4.829920574277724
 20
15.60761289937883
 30
0.0
 10
4.934689823732986
 20
15.62260466044653
 30
0.0
 10
5.046396762404428
 20
15.63970405577581
 30
0.0
 10
5.105557979089704
 20
15.64951748640851
 30
0.0
 10
5.126790285474629
 20
15.65303941813263
 30
0.0
  0
SPLINE
  5
82
330
1F
100
AcDbEntity
  8
0
  6
Continuous
 62
     7
370
    25
100
AcDbSpline
210
0.0
220
0.0
230
1.0
 70
     8
 71
     3
 72
    15
 73
    11
 74
     0
 42
0.00000001
 43
0.00000001
 40
0.0
 40
0.0
 40
0.0
 40
0.0
 40
0.0005080760603165
 40
0.0842037184121638
 40
0.1810233719344817
 40
0.335335233613411
 40
0.5221652881922217
 40
0.7230660996637072
 40
0.9776234518959107
 40
1.0
 40
1.0
 40
1.0
 40
1.0
 10
-4.908812186851955
 20
15.65308220187889
 30
0.0
 10
-4.908703212729788
 20
15.65306605767327
 30
0.0
 10
-4.890642872922751
 20
15.65039046980309
 30
0.0
 10
-4.856835355626734
 20
15.6452968997904
 30
0.0
 10
-4.800624546760599
 20
15.63677102804312
 30
0.0
 10
-4.740108887184154
 20
15.6274685064515
 30
0.0
 10
-4.678386783933181
 20
15.6179544082536
 30
0.0
 10
-4.612246728967555
 20
15.60819293126855
 30
0.0
 10
-4.560908068961643
 20
15.60095342031561
 30
0.0
 10
-4.526642182909398
 20
15.59679286974132
 30
0.0
 10
-4.523873463562846
 20
15.59645669291374
 30
0.0
  0
SPLINE
  5
91
330
1F
100
AcDbEntity
  8
0
  6
Continuous
 62
     7
370
    25
100
AcDbSpline
210
0.0
220
0.0
230
1.0
 70
     8
 71
     3
 72
    10
 73
     6
 74
     0
 42
0.00000001
 43
0.00000001
 40
0.0
 40
0.0
 40
0.0
 40
0.0
 40
0.191647288849675
 40
0.6032523469143448
 40
1.0
 40
1.0
 40
1.0
 40
1.0
 10
-1.14138425647122
 20
31.92443672984098
 30
0.0
 10
-1.473361555370102
 20
31.92302574159807
 30
0.0
 10
-2.518333732566518
 20
31.91858434316188
 30
0.0
 10
-4.250353392112864
 20
31.88725348005502
 30
0.0
 10
-5.649917100177026
 20
31.84603663921638
 30
0.0
 10
-6.336837065755087
 20
31.82580699855982
 30
0.0
  0
SPLINE
  5
92
330
1F
100
AcDbEntity
  8
0
  6
Continuous
 62
     7
370
    25
100
AcDbSpline
210
0.0
220
0.0
230
1.0
 70
     8
 71
     3
 72
    10
 73
     6
 74
     0
 42
0.00000001
 43
0.00000001
 40
0.0
 40
0.0
 40
0.0
 40
0.0
 40
0.3959466690421538
 40
0.8076890084761642
 40
1.0
 40
1.0
 40
1.0
 40
1.0
 10
6.334838630749716
 20
31.82584699973147
 30
0.0
 10
5.649520583558644
 20
31.84603269519277
 30
0.0
 10
4.251544802210047
 20
31.88720936272725
 30
0.0
 10
2.52007167112378
 20
31.91854932170085
 30
0.0
 10
1.474044542980606
 20
31.92301223409252
 30
0.0
 10
1.141023427353181
 20
31.92443308066871
 30
0.0
  0
SPLINE
  5
97
330
1F
100
AcDbEntity
  8
0
  6
Continuous
 62
     7
370
    25
100
AcDbSpline
210
0.0
220
0.0
230
1.0
 70
     8
 71
     3
 72
    22
 73
    18
 74
     0
 42
0.00000001
 43
0.00000001
 40
0.0
 40
0.0
 40
0.0
 40
0.0
 40
0.1804917959551733
 40
0.2835713994361679
 40
0.3638372052151399
 40
0.4288264782420998
 40
0.4834731902127049
 40
0.532176229568531
 40
0.5788558894574574
 40
0.6257505267277438
 40
0.6753090924636701
 40
0.7282760310622505
 40
0.7837088714787808
 40
0.8405887765444565
 40
0.8982909634555191
 40
0.9564358312142142
 40
1.0
 40
1.0
 40
1.0
 40
1.0
 10
-6.355971848104709
 20
31.82124885528964
 30
0.0
 10
-6.362653285920389
 20
31.82088674083202
 30
0.0
 10
-6.373150520221878
 20
31.82031782132541
 30
0.0
 10
-6.394703081659382
 20
31.81808391185598
 30
0.0
 10
-6.415195909919092
 20
31.81516751852425
 30
0.0
 10
-6.43837826766758
 20
31.81078435057027
 30
0.0
 10
-6.465132659935859
 20
31.80421009572045
 30
0.0
 10
-6.496418503491652
 20
31.79434101852854
 30
0.0
 10
-6.532900738980262
 20
31.7796051898952
 30
0.0
 10
-6.574378220989738
 20
31.75809248540901
 30
0.0
 10
-6.619261505478995
 20
31.72805272368636
 30
0.0
 10
-6.664811302860742
 20
31.6883081197102
 30
0.0
 10
-6.707421191045326
 20
31.63897267286112
 30
0.0
 10
-6.74394297599862
 20
31.58137119697207
 30
0.0
 10
-6.771468674849323
 20
31.51730011518126
 30
0.0
 10
-6.788950420394173
 20
31.45472985386961
 30
0.0
 10
-6.791391214157692
 20
31.41352008746441
 30
0.0
 10
-6.792436658644218
 20
31.39586905781854
 30
0.0
  0
SPLINE
  5
98
330
1F
100
AcDbEntity
  8
0
  6
Continuous
 62
     7
370
    25
100
AcDbSpline
210
0.0
220
0.0
230
1.0
 70
     8
 71
     3
 72
    23
 73
    19
 74
     0
 42
0.00000001
 43
0.00000001
 40
0.0
 40
0.0
 40
0.0
 40
0.0
 40
0.0357729923012416
 40
0.0975554400197204
 40
0.1564070851149117
 40
0.2126962282788423
 40
0.2665724108761789
 40
0.3179772698429398
 40
0.3666943499024186
 40
0.4127503088240658
 40
0.4571942804969968
 40
0.5023668967986841
 40
0.5505220205723781
 40
0.6051414230247638
 40
0.6705569761529895
 40
0.7524665088901311
 40
0.859121074090721
 40
1.0
 40
1.0
 40
1.0
 40
1.0
 10
6.792275160023118
 20
31.39582560002485
 30
0.0
 10
6.791711435651913
 20
31.40986966123507
 30
0.0
 10
6.790174120053048
 20
31.44816879370602
 30
0.0
 10
6.77453551214371
 20
31.50797534235057
 30
0.0
 10
6.74861509791158
 20
31.57212622514784
 30
0.0
 10
6.714760206189644
 20
31.62850095074234
 30
0.0
 10
6.675784356952146
 20
31.67664096098585
 30
0.0
 10
6.633877539465889
 20
31.71621489193729
 30
0.0
 10
6.591683256038383
 20
31.7472578789564
 30
0.0
 10
6.551667450492022
 20
31.77041803199309
 30
0.0
 10
6.515507538746964
 20
31.78699801750965
 30
0.0
 10
6.48390545315061
 20
31.7985201055218
 30
0.0
 10
6.456565362898583
 20
31.80645477185444
 30
0.0
 10
6.432724940813883
 20
31.81193486367085
 30
0.0
 10
6.411513978039579
 20
31.81574023141072
 30
0.0
 10
6.392212070813468
 20
31.81837191321441
 30
0.0
 10
6.37403025877227
 20
31.82018684192678
 30
0.0
 10
6.364464581010207
 20
31.820792579795
 30
0.0
 10
6.359020459478727
 20
31.82113732385318
 30
0.0
  0
SPLINE
  5
9B
330
1F
100
AcDbEntity
  8
0
  6
Continuous
 62
     7
370
    25
100
AcDbSpline
210
0.0
220
0.0
230
1.0
 70
     8
 71
     3
 72
    20
 73
    16
 74
     0
 42
0.00000001
 43
0.00000001
 40
0.0
 40
0.0
 40
0.0
 40
0.0
 40
0.0673076968341721
 40
0.1346212368909914
 40
0.2020167075250107
 40
0.2694419440777661
 40
0.3368602915428877
 40
0.4042654454136124
 40
0.4837029291249429
 40
0.5631478230035802
 40
0.6426255736798282
 40
0.7221327639877271
 40
0.8149522987293474
 40
0.9077926452795134
 40
1.0
 40
1.0
 40
1.0
 40
1.0
 10
0.000000000525035
 20
15.21016231509855
 30
0.0
 10
0.0000000005104097
 20
15.05944308999761
 30
0.0
 10
0.000000000481156
 20
14.75799155531905
 30
0.0
 10
0.000000000330523
 20
14.32282776413443
 30
0.0
 10
-0.00000000039421
 20
13.90278917444526
 30
0.0
 10
-0.0000000008853406
 20
13.49775831168397
 30
0.0
 10
-0.0000000013251222
 20
13.10791495773237
 30
0.0
 10
-0.0000000018356478
 20
12.71465423782783
 30
0.0
 10
-0.0000000023469984
 20
12.32433394090203
 30
0.0
 10
-0.0000000027879088
 20
11.94416643812667
 30
0.0
 10
-0.0000000032458233
 20
11.59436264174145
 30
0.0
 10
-0.0000000037649717
 20
11.25132113579646
 30
0.0
 10
-0.000000003520727
 20
10.91707862335326
 30
0.0
 10
-0.0000000036622586
 20
10.59858683529208
 30
0.0
 10
-0.0000000034864991
 20
10.39589549131339
 30
0.0
 10
-0.0000000033989205
 20
10.29489649200306
 30
0.0
  0
SPLINE
  5
9C
330
1F
100
AcDbEntity
  8
0
  6
Continuous
 62
     7
370
    25
100
AcDbSpline
210
0.0
220
0.0
230
1.0
 70
     8
 71
     3
 72
     9
 73
     5
 74
     0
 42
0.00000001
 43
0.00000001
 40
0.0
 40
0.0
 40
0.0
 40
0.0
 40
0.4957297249185447
 40
1.0
 40
1.0
 40
1.0
 40
1.0
 10
0.0
 20
10.29489649198909
 30
0.0
 10
-0.1145702364929942
 20
10.29706233763329
 30
0.0
 10
-0.3456845528915515
 20
10.30143134262801
 30
0.0
 10
-0.575578413568126
 20
10.32054086429703
 30
0.0
 10
-0.6915070539310394
 20
10.33017722804575
 30
0.0
  0
SPLINE
  5
9D
330
1F
100
AcDbEntity
  8
0
  6
Continuous
 62
     7
370
    25
100
AcDbSpline
210
0.0
220
0.0
230
1.0
 70
     8
 71
     3
 72
    19
 73
    15
 74
     0
 42
0.00000001
 43
0.00000001
 40
0.0
 40
0.0
 40
0.0
 40
0.0
 40
0.0822005217021519
 40
0.1639637583888773
 40
0.2456199905421969
 40
0.3282719491430046
 40
0.4116620242370528
 40
0.4952605532735229
 40
0.5791569589381489
 40
0.6633088125137045
 40
0.747437807585184
 40
0.8315279234112105
 40
0.9156511159321437
 40
1.0
 40
1.0
 40
1.0
 40
1.0
 10
-0.6915076368674377
 20
10.33017740806705
 30
0.0
 10
-0.8209202211084108
 20
10.34193760097473
 30
0.0
 10
-1.079056948900147
 20
10.36539542567697
 30
0.0
 10
-1.455137552906538
 20
10.40094799081721
 30
0.0
 10
-1.815806668559774
 20
10.43876405631551
 30
0.0
 10
-2.158057055139322
 20
10.47563647594956
 30
0.0
 10
-2.479128844585123
 20
10.50495412734535
 30
0.0
 10
-2.773479180814474
 20
10.5228804234129
 30
0.0
 10
-3.036615714126575
 20
10.52774651471136
 30
0.0
 10
-3.26537493535349
 20
10.51661178752187
 30
0.0
 10
-3.455512808198108
 20
10.4877497457688
 30
0.0
 10
-3.602850490965161
 20
10.440920299997
 30
0.0
 10
-3.709829089123439
 20
10.37830819084385
 30
0.0
 10
-3.743300449630483
 20
10.32202651791016
 30
0.0
 10
-3.760058549632379
 20
10.29384798291758
 30
0.0
  0
SPLINE
  5
9E
330
1F
100
AcDbEntity
  8
0
  6
Continuous
 62
     7
370
    25
100
AcDbSpline
210
0.0
220
0.0
230
1.0
 70
     8
 71
     3
 72
    19
 73
    15
 74
     0
 42
0.00000001
 43
0.00000001
 40
0.0
 40
0.0
 40
0.0
 40
0.0
 40
0.0843488842620052
 40
0.1684720769819494
 40
0.2525621929544971
 40
0.3366911881428838
 40
0.4208430417756706
 40
0.5047394473935616
 40
0.5883379764076799
 40
0.6717280512671223
 40
0.7543800092339513
 40
0.8360362409816607
 40
0.9177994780442749
 40
0.9999999999999999
 40
0.9999999999999999
 40
0.9999999999999999
 40
0.9999999999999999
 10
3.760058466141623
 20
10.29384787644369
 30
0.0
 10
3.743300369927616
 20
10.32202641611236
 30
0.0
 10
3.709829016985142
 20
10.37830809838755
 30
0.0
 10
3.602850417234397
 20
10.44092021661793
 30
0.0
 10
3.455512723907114
 20
10.48774966811523
 30
0.0
 10
3.265374831426911
 20
10.51661171167031
 30
0.0
 10
3.03661558293198
 20
10.52774643682996
 30
0.0
 10
2.77347901563992
 20
10.52288034089683
 30
0.0
 10
2.47912864006988
 20
10.50495403822674
 30
0.0
 10
2.158056808966188
 20
10.47563637915787
 30
0.0
 10
1.815806379027659
 20
10.43876395344957
 30
0.0
 10
1.455137218146909
 20
10.40094788707285
 30
0.0
 10
1.079056570182892
 20
10.36539532081779
 30
0.0
 10
0.8209198162833955
 20
10.34193749426012
 30
0.0
 10
0.6915072190513333
 20
10.33017730043112
 30
0.0
  0
SPLINE
  5
9F
330
1F
100
AcDbEntity
  8
0
  6
Continuous
 62
     7
370
    25
100
AcDbSpline
210
0.0
220
0.0
230
1.0
 70
     8
 71
     3
 72
     9
 73
     5
 74
     0
 42
0.00000001
 43
0.00000001
 40
0.0
 40
0.0
 40
0.0
 40
0.0
 40
0.5042702740538394
 40
1.0
 40
1.0
 40
1.0
 40
1.0
 10
0.6915072142093207
 20
10.33017724264568
 30
0.0
 10
0.575578547310922
 20
10.32054087529442
 30
0.0
 10
0.3456846335443085
 20
10.30143134644239
 30
0.0
 10
0.1145702633825216
 20
10.29706233890361
 30
0.0
 10
0.0
 20
10.29489649199376
 30
0.0
  0
SPLINE
  5
A1
330
1F
100
AcDbEntity
  8
0
  6
Continuous
 62
     7
370
    25
100
AcDbSpline
210
0.0
220
0.0
230
1.0
 70
    24
 71
     3
 72
    32
 73
    28
 74
     0
 42
0.00000001
 43
0.00000001
 40
0.0
 40
0.0
 40
0.0
 40
0.0
 40
0.026035104633778
 40
0.0518756626539726
 40
0.0776524391737283
 40
0.1032894755351501
 40
0.1280862997881276
 40
0.1550075131950565
 40
0.1812938425626926
 40
0.2069715158339152
 40
0.2411104222333193
 40
0.2757977529899958
 40
0.3099903837254884
 40
0.3447577551330608
 40
0.3792799695684488
 40
0.4136554332552245
 40
0.4630166379694022
 40
0.5165180332313913
 40
0.5671210040385043
 40
0.6193595308678371
 40
0.6706741170325343
 40
0.7220334426987137
 40
0.7735173507718255
 40
0.8252051068272207
 40
0.8818859277675586
 40
0.941732271163183
 40
0.9999999999999999
 40
0.9999999999999999
 40
0.9999999999999999
 40
0.9999999999999999
 10
0.0000026788471419
 20
15.59645669291374
 30
0.0
 10
-0.0788420410214682
 20
15.59645669291374
 30
0.0
 10
-0.2359423157268932
 20
15.59645669291374
 30
0.0
 10
-0.4703188211729498
 20
15.59645669291374
 30
0.0
 10
-0.7018267436038337
 20
15.59645669291374
 30
0.0
 10
-0.9271889230886694
 20
15.59645669291374
 30
0.0
 10
-1.152045561510185
 20
15.59645669291374
 30
0.0
 10
-1.375213296835353
 20
15.59645669291374
 30
0.0
 10
-1.597585447292937
 20
15.59645669291374
 30
0.0
 10
-1.836326736825805
 20
15.59645669291374
 30
0.0
 10
-2.092028142058425
 20
15.59645669291374
 30
0.0
 10
-2.362294297946065
 20
15.59645669291374
 30
0.0
 10
-2.624688643943693
 20
15.59645669291374
 30
0.0
 10
-2.876612466079509
 20
15.59645669291374
 30
0.0
 10
-3.118992285508019
 20
15.59645669291373
 30
0.0
 10
-3.382477026341076
 20
15.59645669291374
 30
0.0
 10
-3.670817940594654
 20
15.59645669291374
 30
0.0
 10
-3.975253581329876
 20
15.59645669291375
 30
0.0
 10
-4.269049897693696
 20
15.59645669291374
 30
0.0
 10
-4.543468551731064
 20
15.59645669291374
 30
0.0
 10
-4.804355783662359
 20
15.59645669291374
 30
0.0
 10
-5.048335090886178
 20
15.59645669291374
 30
0.0
 10
-5.276935013677772
 20
15.59645669291374
 30
0.0
 10
-5.497066203961422
 20
15.59645669291374
 30
0.0
 10
-5.708574047714051
 20
15.59645669291375
 30
0.0
 10
-5.91144803875626
 20
15.59645669291374
 30
0.0
 10
-6.03282073137183
 20
15.59645669291374
 30
0.0
 10
-6.092695994393842
 20
15.59645669291374
 30
0.0
  0
SPLINE
  5
A2
330
1F
100
AcDbEntity
  8
0
  6
Continuous
 62
     7
370
    25
100
AcDbSpline
210
0.0
220
0.0
230
1.0
 70
     8
 71
     3
 72
    15
 73
    11
 74
     0
 42
0.00000001
 43
0.00000001
 40
0.0
 40
0.0
 40
0.0
 40
0.0
 40
0.1328803081927178
 40
0.2633050714942761
 40
0.3861607240827331
 40
0.4999498072612608
 40
0.6144406165802239
 40
0.7386635128459379
 40
0.869326276139225
 40
0.9999999999999999
 40
0.9999999999999999
 40
0.9999999999999999
 40
0.9999999999999999
 10
-0.0000000008721829
 20
15.21016231832874
 30
0.0
 10
0.0000002990789156
 20
15.23675503025397
 30
0.0
 10
0.000000893438204
 20
15.28944903743933
 30
0.0
 10
0.0000016820897912
 20
15.36879851320727
 30
0.0
 10
0.0000023245663399
 20
15.44422279671691
 30
0.0
 10
0.0000027889455815
 20
15.51039572467937
 30
0.0
 10
0.0000029907468518
 20
15.55742290769141
 30
0.0
 10
0.0000029734394813
 20
15.58453146230551
 30
0.0
 10
0.0000028491522472
 20
15.59622485730333
 30
0.0
 10
0.000002735617097
 20
15.59637941221624
 30
0.0
 10
0.0000026788471419
 20
15.59645669291374
 30
0.0
  0
SPLINE
  5
A3
330
1F
100
AcDbEntity
  8
0
  6
Continuous
 62
     7
370
    25
100
AcDbSpline
210
0.0
220
0.0
230
1.0
 70
    24
 71
     3
 72
    39
 73
    35
 74
     0
 42
0.00000001
 43
0.00000001
 40
0.0
 40
0.0
 40
0.0
 40
0.0
 40
0.0053978137320762
 40
0.0393271753192625
 40
0.0731720333055933
 40
0.1077008172916399
 40
0.1426358587687838
 40
0.1764859242538368
 40
0.2136490508712029
 40
0.252392933515141
 40
0.2927869523198025
 40
0.3333343215934266
 40
0.3723404518828018
 40
0.4126135310996912
 40
0.4506847622629871
 40
0.4966389195301744
 40
0.5421246727135421
 40
0.5880290573369549
 40
0.6342485619489384
 40
0.6809308695627458
 40
0.7255769146929099
 40
0.7597951502256555
 40
0.794374412260214
 40
0.8288902004409808
 40
0.8631998199550965
 40
0.8802190665255455
 40
0.8975404559060131
 40
0.9155238961192342
 40
0.9320419901152508
 40
0.9455770113698264
 40
0.9592172926539141
 40
0.9726729323379457
 40
0.9866585083053984
 40
1.0
 40
1.0
 40
1.0
 40
1.0
 10
6.808712270052652
 20
15.59645669291374
 30
0.0
 10
6.809805507462287
 20
15.59645669291374
 30
0.0
 10
6.817770572840284
 20
15.59645669291374
 30
0.0
 10
6.814139539703298
 20
15.59645669291374
 30
0.0
 10
6.796866636360958
 20
15.59645669291374
 30
0.0
 10
6.7607630877655
 20
15.59645669291374
 30
0.0
 10
6.708397411088398
 20
15.59645669291374
 30
0.0
 10
6.635803010556048
 20
15.59645669291374
 30
0.0
 10
6.538204223762769
 20
15.59645669291374
 30
0.0
 10
6.412028264631814
 20
15.59645669291374
 30
0.0
 10
6.260893086211111
 20
15.59645669291374
 30
0.0
 10
6.090862295510712
 20
15.59645669291374
 30
0.0
 10
5.901828336699399
 20
15.59645669291374
 30
0.0
 10
5.698305317792117
 20
15.59645669291374
 30
0.0
 10
5.462931634429669
 20
15.59645669291374
 30
0.0
 10
5.191291665098253
 20
15.59645669291374
 30
0.0
 10
4.875895183457956
 20
15.59645669291374
 30
0.0
 10
4.530974514076576
 20
15.59645669291374
 30
0.0
 10
4.156995917171413
 20
15.59645669291374
 30
0.0
 10
3.758209899326101
 20
15.59645669291374
 30
0.0
 10
3.367002821724859
 20
15.59645669291374
 30
0.0
 10
2.982317523781619
 20
15.59645669291374
 30
0.0
 10
2.60831724682482
 20
15.59645669291374
 30
0.0
 10
2.211752612392776
 20
15.59645669291374
 30
0.0
 10
1.865795893756268
 20
15.59645669291374
 30
0.0
 10
1.580582131531112
 20
15.59645669291374
 30
0.0
 10
1.35963851782679
 20
15.59645669291374
 30
0.0
 10
1.137571576266938
 20
15.59645669291374
 30
0.0
 10
0.9284238191258426
 20
15.59645669291374
 30
0.0
 10
0.7352707955018344
 20
15.59645669291374
 30
0.0
 10
0.5536734381816549
 20
15.59645669291374
 30
0.0
 10
0.3686564972643767
 20
15.59645669291374
 30
0.0
 10
0.1842925772896441
 20
15.59645669291374
 30
0.0
 10
0.0604597540021097
 20
15.59645669291374
 30
0.0
 10
0.0000026788471419
 20
15.59645669291374
 30
0.0
  0
SPLINE
  5
A4
330
1F
100
AcDbEntity
  8
0
  6
Continuous
 62
     7
370
    25
100
AcDbSpline
210
0.0
220
0.0
230
1.0
 70
     8
 71
     3
 72
    11
 73
     7
 74
     0
 42
0.00000001
 43
0.00000001
 40
0.0
 40
0.0
 40
0.0
 40
0.0
 40
0.250000060858564
 40
0.5000000811447555
 40
0.7500000608585661
 40
1.0
 40
1.0
 40
1.0
 40
1.0
 10
-1.243865439430767
 20
0.0566558474904736
 30
0.0
 10
-1.036976366581372
 20
0.0566630039016984
 30
0.0
 10
-0.6231982544584956
 20
0.0566773167229896
 30
0.0
 10
0.0000040008751517
 20
0.0566987859576693
 30
0.0
 10
0.6232060590768176
 20
0.0567202551918463
 30
0.0
 10
1.036983781248733
 20
0.0567345680164594
 30
0.0
 10
1.243872625546743
 20
0.0567417244281825
 30
0.0
  0
SPLINE
  5
A5
330
1F
100
AcDbEntity
  8
0
  6
Continuous
 62
     7
370
    25
100
AcDbSpline
210
0.0
220
0.0
230
1.0
 70
     8
 71
     3
 72
    13
 73
     9
 74
     0
 42
0.00000001
 43
0.00000001
 40
0.0
 40
0.0
 40
0.0
 40
0.0
 40
0.2576085002297164
 40
0.3825231827160248
 40
0.4999995854264808
 40
0.6174763346458721
 40
0.7423914725186663
 40
0.9999999999999999
 40
0.9999999999999999
 40
0.9999999999999999
 40
0.9999999999999999
 10
1.230061631870272
 20
-0.0885826771650386
 30
0.0
 10
1.232190083706107
 20
-0.0883053528799932
 30
0.0
 10
1.235350624487079
 20
-0.0878935537038565
 30
0.0
 10
1.239256931740596
 20
-0.0745062396881302
 30
0.0
 10
1.241671942444314
 20
-0.0572484417541115
 30
0.0
 10
1.243242235904421
 20
-0.0325706547433828
 30
0.0
 10
1.244277310430984
 20
0.0060376441525828
 30
0.0
 10
1.24403540939802
 20
0.0363368711755515
 30
0.0
 10
1.243872502434236
 20
0.0567417244281825
 30
0.0
  0
SPLINE
  5
A6
330
1F
100
AcDbEntity
  8
0
  6
Continuous
 62
     7
370
    25
100
AcDbSpline
210
0.0
220
0.0
230
1.0
 70
    24
 71
     3
 72
    11
 73
     7
 74
     0
 42
0.00000001
 43
0.00000001
 40
0.0
 40
0.0
 40
0.0
 40
0.0
 40
0.2503406069539177
 40
0.4999999791003464
 40
0.7496593617179729
 40
1.0
 40
1.0
 40
1.0
 40
1.0
 10
-1.230061356614709
 20
-0.0885826771650386
 30
0.0
 10
-1.025191165761514
 20
-0.0885826771650386
 30
0.0
 10
-0.6160082833227188
 20
-0.0885826771650386
 30
0.0
 10
0.0000001257057756
 20
-0.0885826771650386
 30
0.0
 10
0.6160085888296062
 20
-0.0885826771650386
 30
0.0
 10
1.025191581407093
 20
-0.0885826771650386
 30
0.0
 10
1.230061835915654
 20
-0.0885826771650386
 30
0.0
  0
SPLINE
  5
A7
330
1F
100
AcDbEntity
  8
0
  6
Continuous
 62
     7
370
    25
100
AcDbSpline
210
0.0
220
0.0
230
1.0
 70
     8
 71
     3
 72
    13
 73
     9
 74
     0
 42
0.00000001
 43
0.00000001
 40
0.0
 40
0.0
 40
0.0
 40
0.0
 40
0.2576124977912471
 40
0.3825361081970448
 40
0.5000194741085555
 40
0.6174839376575048
 40
0.7423809370163059
 40
1.0
 40
1.0
 40
1.0
 40
1.0
 10
-1.230061356627274
 20
-0.088582677165043
 30
0.0
 10
-1.232188464695657
 20
-0.0883058894617084
 30
0.0
 10
-1.235347067826988
 20
-0.0878948795466691
 30
0.0
 10
-1.239251146135407
 20
-0.0745205274841815
 30
0.0
 10
-1.241665128996555
 20
-0.057279945601206
 30
0.0
 10
-1.24323532661765
 20
-0.0326216554646449
 30
0.0
 10
-1.244270832256783
 20
0.0059673802470797
 30
0.0
 10
-1.244028808144692
 20
0.0362567291338784
 30
0.0
 10
-1.243865808388305
 20
0.0566561696980623
 30
0.0
  0
SPLINE
  5
A8
330
1F
100
AcDbEntity
  8
0
  6
Continuous
 62
     7
370
    25
100
AcDbSpline
210
0.0
220
0.0
230
1.0
 70
     8
 71
     3
 72
    30
 73
    26
 74
     0
 42
0.00000001
 43
0.00000001
 40
0.0
 40
0.0
 40
0.0
 40
0.0
 40
0.0164074477168575
 40
0.028962909550342
 40
0.0420450866654871
 40
0.0561245759149799
 40
0.0703072606093397
 40
0.0844221059248382
 40
0.0984810810055505
 40
0.1762210880142051
 40
0.2220511427329792
 40
0.2679178863770971
 40
0.3142404969560664
 40
0.3959336021319921
 40
0.4780743155505979
 40
0.558800299301898
 40
0.6818884411446229
 40
0.8059543446343455
 40
0.833659917389421
 40
0.861541911659601
 40
0.8892921188839118
 40
0.9169303072832853
 40
0.9446371055327091
 40
0.9719004353826765
 40
1.0
 40
1.0
 40
1.0
 40
1.0
 10
1.24387263171245
 20
0.0567417238622092
 30
0.0
 10
1.248301086034388
 20
0.1108578935162073
 30
0.0
 10
1.256118323924613
 20
0.2063853487272506
 30
0.0
 10
1.267128534639384
 20
0.3450903595974321
 30
0.0
 10
1.276964475767554
 20
0.4761637668574176
 30
0.0
 10
1.286781717316687
 20
0.6126412237482688
 30
0.0
 10
1.296375923477747
 20
0.7525640986248333
 30
0.0
 10
1.305473553568863
 20
0.8924562187755802
 30
0.0
 10
1.326987469179705
 20
1.242348439678855
 30
0.0
 10
1.34967852245788
 20
1.697391449625852
 30
0.0
 10
1.368393993472737
 20
2.258038930888041
 30
0.0
 10
1.377874747378176
 20
2.714949378806193
 30
0.0
 10
1.382316048080294
 20
3.290767032566842
 30
0.0
 10
1.374622307750992
 20
3.986883259998696
 30
0.0
 10
1.345183068758787
 20
4.796692974236598
 30
0.0
 10
1.286197454152059
 20
5.742594362722392
 30
0.0
 10
1.185319597775365
 20
6.825013503848822
 30
0.0
 10
1.070663855612858
 20
7.729250719809982
 30
0.0
 10
0.9849779775376276
 20
8.318740130139949
 30
0.0
 10
0.9434561996144226
 20
8.59193468469111
 30
0.0
 10
0.9002407946216094
 20
8.864641327328156
 30
0.0
 10
0.8554572453040055
 20
9.136506335160636
 30
0.0
 10
0.8092992214456208
 20
9.406501167699728
 30
0.0
 10
0.7614210195453521
 20
9.67774774823791
 30
0.0
 10
0.7282302273014976
 20
9.858286668269944
 30
0.0
 10
0.711384164241926
 20
9.949919613010197
 30
0.0
  0
SPLINE
  5
A9
330
1F
100
AcDbEntity
  8
0
  6
Continuous
 62
     7
370
    25
100
AcDbSpline
210
0.0
220
0.0
230
1.0
 70
     8
 71
     3
 72
    17
 73
    13
 74
     0
 42
0.00000001
 43
0.00000001
 40
0.0
 40
0.0
 40
0.0
 40
0.0
 40
0.0956023216032374
 40
0.1891924811598331
 40
0.2823676810636193
 40
0.3768773658837082
 40
0.4694828366922028
 40
0.5618271267127155
 40
0.6714374057939823
 40
0.781142871130447
 40
0.8906299520624094
 40
1.0
 40
1.0
 40
1.0
 40
1.0
 10
-0.7113843552246237
 20
9.94991965322771
 30
0.0
 10
-0.7675041579519168
 20
9.637926870396393
 30
0.0
 10
-0.8785625981877192
 20
9.020507882050211
 30
0.0
 10
-1.020613270665929
 20
8.094960843376416
 30
0.0
 10
-1.142754734743044
 20
7.170327061259458
 30
0.0
 10
-1.241570351684955
 20
6.246279758143638
 30
0.0
 10
-1.31576439707395
 20
5.322871578377268
 30
0.0
 10
-1.365931829606393
 20
4.347969769760847
 30
0.0
 10
-1.386173082950173
 20
3.315574899824398
 30
0.0
 10
-1.371696298552871
 20
2.226745626478283
 30
0.0
 10
-1.326547650733916
 20
1.139803680003576
 30
0.0
 10
-1.271416414007303
 20
0.4175763845584516
 30
0.0
 10
-1.243865536250692
 20
0.0566558409477807
 30
0.0
  0
SPLINE
  5
AA
330
1F
100
AcDbEntity
  8
0
  6
Continuous
 62
     7
370
    25
100
AcDbSpline
210
0.0
220
0.0
230
1.0
 70
     8
 71
     3
 72
    11
 73
     7
 74
     0
 42
0.00000001
 43
0.00000001
 40
0.0
 40
0.0
 40
0.0
 40
0.0
 40
0.2499361469651326
 40
0.4999641581512372
 40
0.7499799499239714
 40
1.0
 40
1.0
 40
1.0
 40
1.0
 10
-0.0000000000000076
 20
9.912428546719488
 30
0.0
 10
-0.0594361196242141
 20
9.912566770914198
 30
0.0
 10
-0.1783302046636145
 20
9.912843270108029
 30
0.0
 10
-0.3563403877576163
 20
9.922878601710895
 30
0.0
 10
-0.534150077267203
 20
9.934106163035853
 30
0.0
 10
-0.6523059720244531
 20
9.944648646889368
 30
0.0
 10
-0.7113844225106496
 20
9.949919933706
 30
0.0
  0
SPLINE
  5
AB
330
1F
100
AcDbEntity
  8
0
  6
Continuous
 62
     7
370
    25
100
AcDbSpline
210
0.0
220
0.0
230
1.0
 70
     8
 71
     3
 72
    12
 73
     8
 74
     0
 42
0.00000001
 43
0.00000001
 40
0.0
 40
0.0
 40
0.0
 40
0.0
 40
0.199601938482272
 40
0.4000134404676172
 40
0.6066465935397896
 40
0.7942651142983418
 40
1.0
 40
1.0
 40
1.0
 40
1.0
 10
0.7113841622747114
 20
9.94991963244612
 30
0.0
 10
0.6642307028862668
 20
9.9456223911981
 30
0.0
 10
0.5697325348657346
 20
9.937010479564323
 30
0.0
 10
0.4259751486305406
 20
9.927568620585982
 30
0.0
 10
0.2850168152480684
 20
9.917816899087327
 30
0.0
 10
0.1424449302455511
 20
9.912915446387565
 30
0.0
 10
0.0489174831594418
 20
9.91259575453989
 30
0.0
 10
-0.0000000000000044
 20
9.91242854671949
 30
0.0
  0
SPLINE
  5
AC
330
1F
100
AcDbEntity
  8
0
  6
Continuous
 62
     7
370
    25
100
AcDbSpline
210
0.0
220
0.0
230
1.0
 70
     8
 71
     3
 72
    29
 73
    25
 74
     0
 42
0.00000001
 43
0.00000001
 40
0.0
 40
0.0
 40
0.0
 40
0.0
 40
0.0001288113758888
 40
0.0012329413472253
 40
0.0044081275604441
 40
0.0167427154090429
 40
0.036711901589049
 40
0.0643968270053994
 40
0.0997110543516508
 40
0.1425998697465941
 40
0.1933775170365904
 40
0.2522694453685609
 40
0.2957904598148644
 40
0.3425252708311501
 40
0.3925344343399135
 40
0.4461701305225758
 40
0.5036299235162544
 40
0.5642807070907501
 40
0.6280266836451246
 40
0.6953845142783511
 40
0.7666670467133156
 40
0.8408579882794617
 40
0.9183377459050757
 40
0.9999999999999999
 40
0.9999999999999999
 40
0.9999999999999999
 40
0.9999999999999999
 10
-1.243865808388305
 20
0.0566561696980623
 30
0.0
 10
-1.244072704972391
 20
0.0566563693053615
 30
0.0
 10
-1.2460530529918
 20
0.0566582798826747
 30
0.0
 10
-1.25313283025803
 20
0.0566498784043996
 30
0.0
 10
-1.279807190859764
 20
0.0566289983840316
 30
0.0
 10
-1.336705978847865
 20
0.0565614320120154
 30
0.0
 10
-1.432635360173268
 20
0.0564575841398766
 30
0.0
 10
-1.564640465674421
 20
0.0563107262965451
 30
0.0
 10
-1.731693556307521
 20
0.0561334383149401
 30
0.0
 10
-1.932474105353623
 20
0.0559310786891823
 30
0.0
 10
-2.165239461071603
 20
0.0557142149469253
 30
0.0
 10
-2.392182312897571
 20
0.0555243382267036
 30
0.0
 10
-2.605587364596161
 20
0.0553663686541888
 30
0.0
 10
-2.799335494626034
 20
0.0552406147416475
 30
0.0
 10
-2.998152466015352
 20
0.0551326208408395
 30
0.0
 10
-3.199823380457332
 20
0.0550484185402569
 30
0.0
 10
-3.400711169125433
 20
0.05499499743466
 30
0.0
 10
-3.596068460381679
 20
0.0549800499972865
 30
0.0
 10
-3.781347321294166
 20
0.0550106130225817
 30
0.0
 10
-3.952169287186731
 20
0.0550945826123714
 30
0.0
 10
-4.103030721267546
 20
0.055239429672435
 30
0.0
 10
-4.226781372369614
 20
0.0554540891277378
 30
0.0
 10
-4.321416602619343
 20
0.0557397139916645
 30
0.0
 10
-4.350320836246842
 20
0.0559916130146174
 30
0.0
 10
-4.365152776885198
 20
0.056120872672682
 30
0.0
  0
SPLINE
  5
AD
330
1F
100
AcDbEntity
  8
0
  6
Continuous
 62
     7
370
    25
100
AcDbSpline
210
0.0
220
0.0
230
1.0
 70
    24
 71
     3
 72
    19
 73
    15
 74
     0
 42
0.00000001
 43
0.00000001
 40
0.0
 40
0.0
 40
0.0
 40
0.0
 40
0.0835481375668402
 40
0.1669724441264095
 40
0.25005661132511
 40
0.3335260451898631
 40
0.4168788073263565
 40
0.5000064720259852
 40
0.5834068137837706
 40
0.6667569583962012
 40
0.7499617871116715
 40
0.8332925276029743
 40
0.9166732238992417
 40
1.0
 40
1.0
 40
1.0
 40
1.0
 10
-4.232123868005315
 20
-0.0885826771650386
 30
0.0
 10
-4.217286851666914
 20
-0.0885826771650386
 30
0.0
 10
-4.187634809697886
 20
-0.0885826771650386
 30
0.0
 10
-4.087196486640269
 20
-0.0885826771650386
 30
0.0
 10
-3.947319183541957
 20
-0.0885826771650386
 30
0.0
 10
-3.765879442265486
 20
-0.0885826771650386
 30
0.0
 10
-3.546108129130158
 20
-0.0885826771650386
 30
0.0
 10
-3.290832019845426
 20
-0.0885826771650386
 30
0.0
 10
-3.003527460156789
 20
-0.0885826771650386
 30
0.0
 10
-2.687793224157775
 20
-0.0885826771650386
 30
0.0
 10
-2.348129413076757
 20
-0.0885826771650386
 30
0.0
 10
-1.988843043006118
 20
-0.0885826771650386
 30
0.0
 10
-1.614972366239406
 20
-0.0885826771650386
 30
0.0
 10
-1.358337357644217
 20
-0.0885826771650386
 30
0.0
 10
-1.230061356614709
 20
-0.0885826771650386
 30
0.0
  0
SPLINE
  5
AE
330
1F
100
AcDbEntity
  8
0
  6
Continuous
 62
     7
370
    25
100
AcDbSpline
210
0.0
220
0.0
230
1.0
 70
     8
 71
     3
 72
    13
 73
     9
 74
     0
 42
0.00000001
 43
0.00000001
 40
0.0
 40
0.0
 40
0.0
 40
0.0
 40
0.2574121352945258
 40
0.3823686628843753
 40
0.4999999999999621
 40
0.6176313371155402
 40
0.742587864705385
 40
0.9999999999999999
 40
0.9999999999999999
 40
0.9999999999999999
 40
0.9999999999999999
 10
-4.2321238680054
 20
-0.088582677165043
 30
0.0
 10
-4.252456895175663
 20
-0.0883080386627661
 30
0.0
 10
-4.28266025914135
 20
-0.0879000813736872
 30
0.0
 10
-4.32002536919553
 20
-0.0746042873159554
 30
0.0
 10
-4.343187844096397
 20
-0.0574506164251275
 30
0.0
 10
-4.358360775866156
 20
-0.0329045692737701
 30
0.0
 10
-4.368554249496795
 20
0.0055319564580252
 30
0.0
 10
-4.366521362843211
 20
0.03576671233823
 30
0.0
 10
-4.365152815299686
 20
0.0561208726727213
 30
0.0
  0
SPLINE
  5
AF
330
1F
100
AcDbEntity
  8
0
  6
Continuous
 62
     7
370
    25
100
AcDbSpline
210
0.0
220
0.0
230
1.0
 70
     8
 71
     3
 72
    14
 73
    10
 74
     0
 42
0.00000001
 43
0.00000001
 40
0.0
 40
0.0
 40
0.0
 40
0.0
 40
0.1437504015553668
 40
0.2879991780684671
 40
0.4321790859297521
 40
0.5729606091761034
 40
0.7153973118548562
 40
0.8578955590159514
 40
1.0
 40
1.0
 40
1.0
 40
1.0
 10
-3.601342663541717
 20
9.95790403017834
 30
0.0
 10
-3.634297018784854
 20
9.486391870938103
 30
0.0
 10
-3.700319980259114
 20
8.541732845007147
 30
0.0
 10
-3.803137786443418
 20
7.119020649481506
 30
0.0
 10
-3.908551045607531
 20
5.702651579536496
 30
0.0
 10
-4.017446621989191
 20
4.289309439123728
 30
0.0
 10
-4.129867374604973
 20
2.880225622021621
 30
0.0
 10
-4.245831459036512
 20
1.466818773517885
 30
0.0
 10
-4.32541572339083
 20
0.5259195392223944
 30
0.0
 10
-4.365152794993716
 20
0.0561208855860226
 30
0.0
  0
SPLINE
  5
B0
330
1F
100
AcDbEntity
  8
0
  6
Continuous
 62
     7
370
    25
100
AcDbSpline
210
0.0
220
0.0
230
1.0
 70
     8
 71
     3
 72
    19
 73
    15
 74
     0
 42
0.00000001
 43
0.00000001
 40
0.0
 40
0.0
 40
0.0
 40
0.0
 40
0.0833134203528691
 40
0.1666178479392486
 40
0.2499333847545315
 40
0.3332718213614875
 40
0.4166202863023692
 40
0.4999678104966508
 40
0.5833080543315585
 40
0.6666376154012527
 40
0.7499620654894585
 40
0.8332900790081987
 40
0.9166315945834068
 40
0.9999999999999999
 40
0.9999999999999999
 40
0.9999999999999999
 40
0.9999999999999999
 10
-0.7113843726146163
 20
9.949919677678263
 30
0.0
 10
-0.8333160496121413
 20
9.960737416772725
 30
0.0
 10
-1.077166242425065
 20
9.982371727305816
 30
0.0
 10
-1.43335198744074
 20
10.01805476579257
 30
0.0
 10
-1.775479087051835
 20
10.05888616862342
 30
0.0
 10
-2.098933807964222
 20
10.10019658656833
 30
0.0
 10
-2.400475879808408
 20
10.13408980001229
 30
0.0
 10
-2.676257709480743
 20
10.15709163807569
 30
0.0
 10
-2.922559630926857
 20
10.16724056743347
 30
0.0
 10
-3.136076327549211
 20
10.16084025738371
 30
0.0
 10
-3.313936819151417
 20
10.13694840719785
 30
0.0
 10
-3.452458322048168
 20
10.09528672287245
 30
0.0
 10
-3.553478078872263
 20
10.03779097548089
 30
0.0
 10
-3.585386066216238
 20
9.984536183980829
 30
0.0
 10
-3.601342633222536
 20
9.957904493306756
 30
0.0
  0
SPLINE
  5
B1
330
1F
100
AcDbEntity
  8
0
  6
Continuous
 62
     7
370
    25
100
AcDbSpline
210
0.0
220
0.0
230
1.0
 70
     8
 71
     3
 72
    19
 73
    15
 74
     0
 42
0.00000001
 43
0.00000001
 40
0.0
 40
0.0
 40
0.0
 40
0.0
 40
0.0833684041578101
 40
0.166709918638227
 40
0.2500379311143435
 40
0.3333623801849883
 40
0.4166919403021366
 40
0.5000321835022612
 40
0.5833797074428835
 40
0.6667281724621603
 40
0.7500666099260578
 40
0.8333821485908132
 40
0.9166865780661245
 40
0.9999999999999999
 40
0.9999999999999999
 40
0.9999999999999999
 40
0.9999999999999999
 10
3.601342647531181
 20
9.95790426434008
 30
0.0
 10
3.585386079279242
 20
9.984535955821107
 30
0.0
 10
3.553478089413073
 20
10.03779074898707
 30
0.0
 10
3.45245832626243
 20
10.0952864953766
 30
0.0
 10
3.313936815162381
 20
10.13694817652044
 30
0.0
 10
3.13607631353397
 20
10.16084002136478
 30
0.0
 10
2.922559605216511
 20
10.16724032387386
 30
0.0
 10
2.676257670342969
 20
10.15709138453195
 30
0.0
 10
2.400475825193181
 20
10.13408953540288
 30
0.0
 10
2.098933735409303
 20
10.10019630992525
 30
0.0
 10
1.775478993154174
 20
10.05888588032872
 30
0.0
 10
1.433351868663556
 20
10.01805447049884
 30
0.0
 10
1.077166097582069
 20
9.98237142833757
 30
0.0
 10
0.8333158888378428
 20
9.960737117152206
 30
0.0
 10
0.7113842040997029
 20
9.949919377751591
 30
0.0
  0
SPLINE
  5
B2
330
1F
100
AcDbEntity
  8
0
  6
Continuous
 62
     7
370
    25
100
AcDbSpline
210
0.0
220
0.0
230
1.0
 70
     8
 71
     3
 72
    14
 73
    10
 74
     0
 42
0.00000001
 43
0.00000001
 40
0.0
 40
0.0
 40
0.0
 40
0.0
 40
0.1437524298153586
 40
0.2880012665692755
 40
0.4321824474756901
 40
0.57296442049931
 40
0.7154003550792953
 40
0.85789747911955
 40
1.0
 40
1.0
 40
1.0
 40
1.0
 10
3.601342669170538
 20
9.957903948999746
 30
0.0
 10
3.634297206312998
 20
9.486389217875237
 30
0.0
 10
3.700320079445811
 20
8.54173151751948
 30
0.0
 10
3.803137852512532
 20
7.119020532534081
 30
0.0
 10
3.908550495786359
 20
5.702657975376858
 30
0.0
 10
4.017445433043775
 20
4.289324887290507
 30
0.0
 10
4.129864738033772
 20
2.88025808503678
 30
0.0
 10
4.245826694218991
 20
1.466876080391786
 30
0.0
 10
4.325409338418702
 20
0.5259950139664736
 30
0.0
 10
4.365145489046235
 20
0.0562067560613199
 30
0.0
  0
SPLINE
  5
B3
330
1F
100
AcDbEntity
  8
0
  6
Continuous
 62
     7
370
    25
100
AcDbSpline
210
0.0
220
0.0
230
1.0
 70
     8
 71
     3
 72
    50
 73
    46
 74
     0
 42
0.00000001
 43
0.00000001
 40
0.0
 40
0.0
 40
0.0
 40
0.0
 40
0.0037579858562951
 40
0.0149108145588304
 40
0.0326718241685452
 40
0.054161940139584
 40
0.0808428511681835
 40
0.1126619244002724
 40
0.1464856341319247
 40
0.1673823910265575
 40
0.2497648568194873
 40
0.2779277483566788
 40
0.2932837716425009
 40
0.3081560828017924
 40
0.3280719961232053
 40
0.3529850475261357
 40
0.3670486567183617
 40
0.3823239823048977
 40
0.3988196099445109
 40
0.4165457193700174
 40
0.4355169208467134
 40
0.4557512578942751
 40
0.4772607146087979
 40
0.5000554673883112
 40
0.5836812590740852
 40
0.6666118899967706
 40
0.7500124016295919
 40
0.8202380871744478
 40
0.8293898275108823
 40
0.8385286088569234
 40
0.8476564210085232
 40
0.8567752365284778
 40
0.8658870095987509
 40
0.8749936749066224
 40
0.8814469780537322
 40
0.8902838806018257
 40
0.9025533963250373
 40
0.9182766621047416
 40
0.9374974638909488
 40
0.9637190626149353
 40
0.9828818288841482
 40
0.9950748440298821
 40
0.9984304083193983
 40
0.9994352982820389
 40
1.0
 40
1.0
 40
1.0
 40
1.0
 10
4.365145489049293
 20
0.056206756061569
 30
0.0
 10
4.364650918310398
 20
0.0561891829168536
 30
0.0
 10
4.36268857655184
 20
0.0561194567624452
 30
0.0
 10
4.357762499784799
 20
0.0560479778495428
 30
0.0
 10
4.348589582573057
 20
0.0559359103608024
 30
0.0
 10
4.333711913487955
 20
0.055821127930243
 30
0.0
 10
4.31142121383031
 20
0.055695815691311
 30
0.0
 10
4.279732995291003
 20
0.0555712818817079
 30
0.0
 10
4.243845675484493
 20
0.0554708486491988
 30
0.0
 10
4.178951217299708
 20
0.0553288877455583
 30
0.0
 10
4.102179976679729
 20
0.0552207452643548
 30
0.0
 10
4.014440572092751
 20
0.0551473747382085
 30
0.0
 10
3.971226736893128
 20
0.0551187114004028
 30
0.0
 10
3.932626441107209
 20
0.0550931106801758
 30
0.0
 10
3.884631663407619
 20
0.0550658846916518
 30
0.0
 10
3.834720221342793
 20
0.0550432816710592
 30
0.0
 10
3.786739787280815
 20
0.0550263000534379
 30
0.0
 10
3.744951686772409
 20
0.0550143937937852
 30
0.0
 10
3.698385132159303
 20
0.055004441810615
 30
0.0
 10
3.646696126163993
 20
0.0549971601172827
 30
0.0
 10
3.589518945043157
 20
0.0549933231783621
 30
0.0
 10
3.526475311347729
 20
0.0549937556226918
 30
0.0
 10
3.457172887472691
 20
0.0549993802940198
 30
0.0
 10
3.315107804380071
 20
0.055021334634946
 30
0.0
 10
3.088492957801731
 20
0.0550938852047673
 30
0.0
 10
2.759963558163574
 20
0.0552700433093754
 30
0.0
 10
2.425361002804757
 20
0.0555175230501921
 30
0.0
 10
2.182914783883585
 20
0.0557210643513242
 30
0.0
 10
2.048442338377842
 20
0.0558332740345797
 30
0.0
 10
2.00659955724547
 20
0.0558683194025215
 30
0.0
 10
1.964627318805704
 20
0.0559036288962013
 30
0.0
 10
1.922523601633775
 20
0.0559389084352115
 30
0.0
 10
1.8802871255793
 20
0.0559753005642855
 30
0.0
 10
1.842026267491108
 20
0.0560053032197331
 30
0.0
 10
1.804076793462758
 20
0.0560447440800658
 30
0.0
 10
1.761083035815969
 20
0.0560929628068025
 30
0.0
 10
1.703407455121763
 20
0.0561597246004593
 30
0.0
 10
1.629118519864584
 20
0.0562486455282195
 30
0.0
 10
1.532356854212981
 20
0.0563682566458135
 30
0.0
 10
1.429534846801635
 20
0.056499425695543
 30
0.0
 10
1.337456210519438
 20
0.0566195988903722
 30
0.0
 10
1.281789020470483
 20
0.0566933001429796
 30
0.0
 10
1.255211599717282
 20
0.0567279232605416
 30
0.0
 10
1.247301441392033
 20
0.0567380857578507
 30
0.0
 10
1.244780210776763
 20
0.0567409986178127
 30
0.0
 10
1.243873132026655
 20
0.0567420465954797
 30
0.0
  0
SPLINE
  5
B4
330
1F
100
AcDbEntity
  8
0
  6
Continuous
 62
     7
370
    25
100
AcDbSpline
210
0.0
220
0.0
230
1.0
 70
     8
 71
     3
 72
    13
 73
     9
 74
     0
 42
0.00000001
 43
0.00000001
 40
0.0
 40
0.0
 40
0.0
 40
0.0
 40
0.2574096868222872
 40
0.3823588260326308
 40
0.4999816026321545
 40
0.6176186448772749
 40
0.7425855966382637
 40
1.0
 40
1.0
 40
1.0
 40
1.0
 10
4.232123868001458
 20
-0.0885826771650386
 30
0.0
 10
4.252464258447482
 20
-0.088307714224735
 30
0.0
 10
4.282678070165289
 20
-0.0878992816270491
 30
0.0
 10
4.320053354033118
 20
-0.0745912266806524
 30
0.0
 10
4.343216506155969
 20
-0.0574211066701161
 30
0.0
 10
4.358381131310209
 20
-0.0328566203293489
 30
0.0
 10
4.368559124924132
 20
0.0055997769779558
 30
0.0
 10
4.366518925853714
 20
0.0358456249443428
 30
0.0
 10
4.365145489049293
 20
0.056206756061569
 30
0.0
  0
SPLINE
  5
B5
330
1F
100
AcDbEntity
  8
0
  6
Continuous
 62
     7
370
    25
100
AcDbSpline
210
0.0
220
0.0
230
1.0
 70
    24
 71
     3
 72
    19
 73
    15
 74
     0
 42
0.00000001
 43
0.00000001
 40
0.0
 40
0.0
 40
0.0
 40
0.0
 40
0.0833283320979849
 40
0.1667107025373357
 40
0.2500382183171289
 40
0.3332462855291951
 40
0.4165964341966683
 40
0.4999935352932207
 40
0.5831244422609867
 40
0.6664772068744778
 40
0.7499433979224144
 40
0.8330308155205206
 40
0.9164534594628491
 40
1.0
 40
1.0
 40
1.0
 40
1.0
 10
1.230061835915654
 20
-0.0885826771650386
 30
0.0
 10
1.358340174296236
 20
-0.0885826771650386
 30
0.0
 10
1.614980039433608
 20
-0.0885826771650386
 30
0.0
 10
1.988849752323538
 20
-0.0885826771650386
 30
0.0
 10
2.348138406455482
 20
-0.0885826771650386
 30
0.0
 10
2.687802350649812
 20
-0.0885826771650386
 30
0.0
 10
3.003534628550965
 20
-0.0885826771650386
 30
0.0
 10
3.290839014800928
 20
-0.0885826771650386
 30
0.0
 10
3.546115195197381
 20
-0.0885826771650386
 30
0.0
 10
3.76588374660691
 20
-0.0885826771650386
 30
0.0
 10
3.947323279146438
 20
-0.0885826771650386
 30
0.0
 10
4.087199900668315
 20
-0.0885826771650386
 30
0.0
 10
4.187634401086975
 20
-0.0885826771650386
 30
0.0
 10
4.217286711368675
 20
-0.0885826771650386
 30
0.0
 10
4.232123868001458
 20
-0.0885826771650386
 30
0.0
  0
SPLINE
  5
B6
330
1F
100
AcDbEntity
  8
0
  6
Continuous
 62
     7
370
    25
100
AcDbSpline
210
0.0
220
0.0
230
1.0
 70
    24
 71
     3
 72
    13
 73
     9
 74
     0
 42
0.00000001
 43
0.00000001
 40
0.0
 40
0.0
 40
0.0
 40
0.0
 40
0.2644154526883829
 40
0.385193756826331
 40
0.4999572905168678
 40
0.6147389116948463
 40
0.7355542882785353
 40
1.0
 40
1.0
 40
1.0
 40
1.0
 10
0.0
 20
10.29489649199376
 30
0.0
 10
-0.0000000000000011
 20
10.27501248528849
 30
0.0
 10
-0.0000000000000011
 20
10.24604596625303
 30
0.0
 10
-0.0000000000000011
 20
10.19314174148305
 30
0.0
 10
-0.0000000000000022
 20
10.14744928102745
 30
0.0
 10
-0.0000000000000022
 20
10.09491511467281
 30
0.0
 10
-0.0000000000000022
 20
10.01569273416482
 30
0.0
 10
-0.0000000000000022
 20
9.954459380213095
 30
0.0
 10
-0.0000000000000022
 20
9.912428408598252
 30
0.0
  0
SPLINE
  5
B7
330
1F
100
AcDbEntity
  8
0
  6
Continuous
 62
     7
370
    25
100
AcDbSpline
210
0.0
220
0.0
230
1.0
 70
     8
 71
     3
 72
    13
 73
     9
 74
     0
 42
0.00000001
 43
0.00000001
 40
0.0
 40
0.0
 40
0.0
 40
0.0
 40
0.2643114605966675
 40
0.3851168620308499
 40
0.4999526244623609
 40
0.6148084497962232
 40
0.7356549800949417
 40
1.0
 40
1.0
 40
1.0
 40
1.0
 10
0.6915072190513082
 20
10.33017730043111
 30
0.0
 10
0.6906378449954178
 20
10.31030379695472
 30
0.0
 10
0.6893711174476228
 20
10.28134696973615
 30
0.0
 10
0.6898596893374326
 20
10.22863972990689
 30
0.0
 10
0.6916473894030697
 20
10.18318578745864
 30
0.0
 10
0.6949659285596198
 20
10.13099375094846
 30
0.0
 10
0.7013424916820555
 20
10.05236536436208
 30
0.0
 10
0.707297464696382
 20
9.991612478774782
 30
0.0
 10
0.7113841780709962
 20
9.949919656745406
 30
0.0
  0
SPLINE
  5
B8
330
1F
100
AcDbEntity
  8
0
  6
Continuous
 62
     7
370
    25
100
AcDbSpline
210
0.0
220
0.0
230
1.0
 70
     8
 71
     3
 72
    13
 73
     9
 74
     0
 42
0.00000001
 43
0.00000001
 40
0.0
 40
0.0
 40
0.0
 40
0.0
 40
0.2643104440881568
 40
0.3851125969793149
 40
0.4999462767356616
 40
0.6148027043492464
 40
0.7356514933592049
 40
1.0
 40
1.0
 40
1.0
 40
1.0
 10
-0.6915069620806692
 20
10.33017721968184
 30
0.0
 10
-0.6906376554196655
 20
10.31030400570798
 30
0.0
 10
-0.6893710352263338
 20
10.28134780963257
 30
0.0
 10
-0.6898599721665961
 20
10.22864003529548
 30
0.0
 10
-0.6916479444662141
 20
10.18318594327248
 30
0.0
 10
-0.6949665892819878
 20
10.13099425714114
 30
0.0
 10
-0.7013429265555947
 20
10.05236640761443
 30
0.0
 10
-0.7072977351511429
 20
9.991613019556805
 30
0.0
 10
-0.7113843286380092
 20
9.94991992464743
 30
0.0
  0
SPLINE
  5
B9
330
1F
100
AcDbEntity
  8
0
  6
Continuous
 62
     7
370
    25
100
AcDbSpline
210
0.0
220
0.0
230
1.0
 70
     8
 71
     3
 72
    11
 73
     7
 74
     0
 42
0.00000001
 43
0.00000001
 40
0.0
 40
0.0
 40
0.0
 40
0.0
 40
0.260708715351643
 40
0.4997420016770095
 40
0.7391127421539158
 40
1.0
 40
1.0
 40
1.0
 40
1.0
 10
3.760058978499712
 20
10.2938476283179
 30
0.0
 10
3.732001978998208
 20
10.27317704674567
 30
0.0
 10
3.67822065038777
 20
10.23355444419168
 30
0.0
 10
3.616171766083391
 20
10.15413744228232
 30
0.0
 10
3.594980411120474
 20
10.05692901143475
 30
0.0
 10
3.599161975177834
 20
9.991845196228251
 30
0.0
 10
3.601342683500519
 20
9.957903633801852
 30
0.0
  0
SPLINE
  5
BA
330
1F
100
AcDbEntity
  8
0
  6
Continuous
 62
     7
370
    25
100
AcDbSpline
210
0.0
220
0.0
230
1.0
 70
     8
 71
     3
 72
    11
 73
     7
 74
     0
 42
0.00000001
 43
0.00000001
 40
0.0
 40
0.0
 40
0.0
 40
0.0
 40
0.2607099881800394
 40
0.4997484458732496
 40
0.7391163317924333
 40
1.0
 40
1.0
 40
1.0
 40
1.0
 10
-3.76005854963238
 20
10.29384798291758
 30
0.0
 10
-3.7320013436927
 20
10.27317714323902
 30
0.0
 10
-3.678219188425914
 20
10.23355372843864
 30
0.0
 10
-3.616164845233556
 20
10.15413895879629
 30
0.0
 10
-3.594974385895533
 20
10.05692881954961
 30
0.0
 10
-3.599159878208719
 20
9.99184567578524
 30
0.0
 10
-3.601342633222493
 20
9.957904493306817
 30
0.0
  0
SPLINE
  5
BB
330
1F
100
AcDbEntity
  8
0
  6
Continuous
 62
     7
370
    25
100
AcDbSpline
210
0.0
220
0.0
230
1.0
 70
     8
 71
     3
 72
    14
 73
    10
 74
     0
 42
0.00000001
 43
0.00000001
 40
0.0
 40
0.0
 40
0.0
 40
0.0
 40
0.1250000911713362
 40
0.2500029395131563
 40
0.3750075222247176
 40
0.5000171750206378
 40
0.6672912182465579
 40
0.8329728935802028
 40
1.0
 40
1.0
 40
1.0
 40
1.0
 10
3.955810971567501
 20
9.892409271462313
 30
0.0
 10
3.944118505112415
 20
9.858796270450076
 30
0.0
 10
3.920733314297443
 20
9.79156952701195
 30
0.0
 10
3.881805917193857
 20
9.731981820978055
 30
0.0
 10
3.840323250582015
 20
9.701922908722441
 30
0.0
 10
3.791609023167572
 20
9.699203448998095
 30
0.0
 10
3.735455985124728
 20
9.730200504757397
 30
0.0
 10
3.670601094970519
 20
9.811083398828677
 30
0.0
 10
3.624490965561354
 20
9.908832004721983
 30
0.0
 10
3.601342669170538
 20
9.957903948999746
 30
0.0
  0
SPLINE
  5
C1
330
1F
100
AcDbEntity
  8
0
  6
Continuous
 62
     7
370
    25
100
AcDbSpline
210
0.0
220
0.0
230
1.0
 70
     8
 71
     3
 72
    14
 73
    10
 74
     0
 42
0.00000001
 43
0.00000001
 40
0.0
 40
0.0
 40
0.0
 40
0.0
 40
0.167025544313185
 40
0.3327246577405445
 40
0.4999828182686673
 40
0.624992460688084
 40
0.7499970481349157
 40
0.87499990139288
 40
1.0
 40
1.0
 40
1.0
 40
1.0
 10
-3.601342663541717
 20
9.95790403017834
 30
0.0
 10
-3.624490707720869
 20
9.908833019742282
 30
0.0
 10
-3.670602966229239
 20
9.8110806955726
 30
0.0
 10
-3.735458033522272
 20
9.73019550178603
 30
0.0
 10
-3.79161075234089
 20
9.699204828893906
 30
0.0
 10
-3.840323275106298
 20
9.70192218181163
 30
0.0
 10
-3.881806048075987
 20
9.731979913920048
 30
0.0
 10
-3.920733014282142
 20
9.791572337184908
 30
0.0
 10
-3.944118436103696
 20
9.85879660130171
 30
0.0
 10
-3.955811018178652
 20
9.892408363005735
 30
0.0
  0
SPLINE
  5
C3
330
1F
100
AcDbEntity
  8
0
  6
Continuous
 62
     7
370
    25
100
AcDbSpline
210
0.0
220
0.0
230
1.0
 70
     8
 71
     3
 72
    13
 73
     9
 74
     0
 42
0.00000001
 43
0.00000001
 40
0.0
 40
0.0
 40
0.0
 40
0.0
 40
0.257412135294652
 40
0.3823686628844951
 40
0.5000000000000365
 40
0.6176313371155925
 40
0.7425878647054405
 40
0.9999999999999999
 40
0.9999999999999999
 40
0.9999999999999999
 40
0.9999999999999999
 10
-4.756466831417048
 20
0.0561208726727213
 30
0.0
 10
-4.757835382146599
 20
0.03576671233823
 30
0.0
 10
-4.759868273532814
 20
0.0055319564580252
 30
0.0
 10
-4.749674806222068
 20
-0.0329045692737658
 30
0.0
 10
-4.734501879420941
 20
-0.0574506164251319
 30
0.0
 10
-4.711339409488708
 20
-0.0746042873159554
 30
0.0
 10
-4.673974305754419
 20
-0.0879000813736872
 30
0.0
 10
-4.643770946521364
 20
-0.0883080386627661
 30
0.0
 10
-4.623437922537127
 20
-0.088582677165043
 30
0.0
  0
SPLINE
  5
C5
330
1F
100
AcDbEntity
  8
0
  6
Continuous
 62
     7
370
    25
100
AcDbSpline
210
0.0
220
0.0
230
1.0
 70
     8
 71
     3
 72
    13
 73
     9
 74
     0
 42
0.00000001
 43
0.00000001
 40
0.0
 40
0.0
 40
0.0
 40
0.0
 40
0.2574121352700692
 40
0.3823686627991449
 40
0.4999999998523465
 40
0.6176313370303367
 40
0.7425878647227652
 40
0.9999999999999999
 40
0.9999999999999999
 40
0.9999999999999999
 40
0.9999999999999999
 10
4.623437922537126
 20
-0.0885826771650386
 30
0.0
 10
4.643770946580142
 20
-0.0883080386603052
 30
0.0
 10
4.67397430589665
 20
-0.0879000813676247
 30
0.0
 10
4.711339409712963
 20
-0.0746042872121976
 30
0.0
 10
4.734501879652533
 20
-0.0574506161888073
 30
0.0
 10
4.749674806389021
 20
-0.0329045688867219
 30
0.0
 10
4.75986827357598
 20
0.0055319570043555
 30
0.0
 10
4.757835382130597
 20
0.0357667129719532
 30
0.0
 10
4.756466831361611
 20
0.0561208733593637
 30
0.0
  0
SPLINE
  5
C8
330
1F
100
AcDbEntity
  8
0
  6
Continuous
 62
     7
370
    25
100
AcDbSpline
210
0.0
220
0.0
230
1.0
 70
     8
 71
     3
 72
     9
 73
     5
 74
     0
 42
0.00000001
 43
0.00000001
 40
0.0
 40
0.0
 40
0.0
 40
0.0
 40
0.6618058314274226
 40
0.9999999999999999
 40
0.9999999999999999
 40
0.9999999999999999
 40
0.9999999999999999
 10
4.680298081250607
 20
1.036157887172324
 30
0.0
 10
4.682454300902846
 20
1.012052440439339
 30
0.0
 10
4.685712385902775
 20
0.9756286956062153
 30
0.0
 10
4.687741337666844
 20
0.9430465436117854
 30
0.0
 10
4.688427517321769
 20
0.9320274498077262
 30
0.0
  0
SPLINE
  5
C9
330
1F
100
AcDbEntity
  8
0
  6
Continuous
 62
     7
370
    25
100
AcDbSpline
210
0.0
220
0.0
230
1.0
 70
     8
 71
     3
 72
     9
 73
     5
 74
     0
 42
0.00000001
 43
0.00000001
 40
0.0
 40
0.0
 40
0.0
 40
0.0
 40
0.7088777321690691
 40
1.0
 40
1.0
 40
1.0
 40
1.0
 10
-4.67973326281949
 20
1.042772083332159
 30
0.0
 10
-4.682108747608009
 20
1.016364901983743
 30
0.0
 10
-4.685459797698481
 20
0.9791128059592091
 30
0.0
 10
-4.687554623764621
 20
0.9457918799257485
 30
0.0
 10
-4.688164474279708
 20
0.9360914163726597
 30
0.0
  0
SPLINE
  5
CC
330
1F
100
AcDbEntity
  8
0
  6
Continuous
 62
     7
370
    25
100
AcDbSpline
210
0.0
220
0.0
230
1.0
 70
    24
 71
     3
 72
    13
 73
     9
 74
     0
 42
0.00000001
 43
0.00000001
 40
0.0
 40
0.0
 40
0.0
 40
0.0
 40
0.1666666666666653
 40
0.3333333333333304
 40
0.4999999999999985
 40
0.6666666666666665
 40
0.8333333333333318
 40
1.0
 40
1.0
 40
1.0
 40
1.0
 10
5.577188475607276
 20
30.40207629699279
 30
0.0
 10
4.958412758921166
 20
30.40207629699279
 30
0.0
 10
3.720861325548949
 20
30.40207629699278
 30
0.0
 10
1.860943933413948
 20
30.40207629699279
 30
0.0
 10
-0.0000000001091275
 20
30.40207629699278
 30
0.0
 10
-1.86094393363212
 20
30.40207629699279
 30
0.0
 10
-3.720861325766895
 20
30.40207629699279
 30
0.0
 10
-4.958412759138831
 20
30.40207629699278
 30
0.0
 10
-5.577188475824803
 20
30.40207629699278
 30
0.0
  0
SPLINE
  5
CD
330
1F
100
AcDbEntity
  8
0
  6
Continuous
 62
     7
370
    25
100
AcDbSpline
210
0.0
220
0.0
230
1.0
 70
     8
 71
     3
 72
    13
 73
     9
 74
     0
 42
0.00000001
 43
0.00000001
 40
0.0
 40
0.0
 40
0.0
 40
0.0
 40
0.2561250304564667
 40
0.381353029634119
 40
0.4999999999999987
 40
0.6186469703659028
 40
0.7438749695435256
 40
1.0
 40
1.0
 40
1.0
 40
1.0
 10
-5.561701151263505
 20
30.60236220472441
 30
0.0
 10
-5.563943768574024
 20
30.6019948855121
 30
0.0
 10
-5.567282875666185
 20
30.60144797178715
 30
0.0
 10
-5.571439551273953
 20
30.58335426027323
 30
0.0
 10
-5.574062298166703
 20
30.55988513303541
 30
0.0
 10
-5.575862972778685
 20
30.52614948037641
 30
0.0
 10
-5.577213962530845
 20
30.47301670254877
 30
0.0
 10
-5.577198715828725
 20
30.43057863240618
 30
0.0
 10
-5.577188475810315
 20
30.40207629687154
 30
0.0
  0
SPLINE
  5
CE
330
1F
100
AcDbEntity
  8
0
  6
Continuous
 62
     7
370
    25
100
AcDbSpline
210
0.0
220
0.0
230
1.0
 70
     8
 71
     3
 72
    13
 73
     9
 74
     0
 42
0.00000001
 43
0.00000001
 40
0.0
 40
0.0
 40
0.0
 40
0.0
 40
0.2561250304564852
 40
0.3813530296341157
 40
0.5000000000000171
 40
0.6186469703659252
 40
0.7438749695435707
 40
1.0
 40
1.0
 40
1.0
 40
1.0
 10
5.577188475593033
 20
30.40207629687154
 30
0.0
 10
5.57719871561144
 20
30.43057863240618
 30
0.0
 10
5.577213962313554
 20
30.47301670254877
 30
0.0
 10
5.575862972561459
 20
30.52614948037641
 30
0.0
 10
5.57406229794955
 20
30.55988513303542
 30
0.0
 10
5.571439551056904
 20
30.58335426027325
 30
0.0
 10
5.567282875449295
 20
30.60144797178714
 30
0.0
 10
5.563943768357277
 20
30.6019948855121
 30
0.0
 10
5.56170115104685
 20
30.60236220472441
 30
0.0
  0
SPLINE
  5
CF
330
1F
100
AcDbEntity
  8
0
  6
Continuous
 62
     7
370
    25
100
AcDbSpline
210
0.0
220
0.0
230
1.0
 70
     8
 71
     3
 72
     9
 73
     5
 74
     0
 42
0.00000001
 43
0.00000001
 40
0.0
 40
0.0
 40
0.0
 40
0.0
 40
0.1981108693828956
 40
1.0
 40
1.0
 40
1.0
 40
1.0
 10
-6.774640719105926
 20
30.40109581801107
 30
0.0
 10
-6.775089207680801
 20
30.40110862823429
 30
0.0
 10
-6.777353033872032
 20
30.40117329012421
 30
0.0
 10
-6.776942111162608
 20
30.40120740637729
 30
0.0
 10
-6.776612596708394
 20
30.40123476382981
 30
0.0
  0
SPLINE
  5
D0
330
1F
100
AcDbEntity
  8
0
  6
Continuous
 62
     7
370
    25
100
AcDbSpline
210
0.0
220
0.0
230
1.0
 70
     8
 71
     3
 72
     9
 73
     5
 74
     0
 42
0.00000001
 43
0.00000001
 40
0.0
 40
0.0
 40
0.0
 40
0.0
 40
0.4135039583353952
 40
1.0
 40
1.0
 40
1.0
 40
1.0
 10
6.77663571186939
 20
30.40121725082139
 30
0.0
 10
6.776792953123111
 20
30.40119973292262
 30
0.0
 10
6.777173218536669
 20
30.40115736839764
 30
0.0
 10
6.775474746833671
 20
30.40109726068208
 30
0.0
 10
6.774478599902987
 20
30.40106200774484
 30
0.0
  0
SPLINE
  5
D1
330
1F
100
AcDbEntity
  8
0
  6
Continuous
 62
     7
370
    25
100
AcDbSpline
210
0.0
220
0.0
230
1.0
 70
     8
 71
     3
 72
    11
 73
     7
 74
     0
 42
0.00000001
 43
0.00000001
 40
0.0
 40
0.0
 40
0.0
 40
0.0
 40
0.2501596685406103
 40
0.4987054953137112
 40
0.7484070249664614
 40
0.9999999999999999
 40
0.9999999999999999
 40
0.9999999999999999
 40
0.9999999999999999
 10
0.5882503255553121
 20
16.19725516718155
 30
0.0
 10
0.5111851094570967
 20
16.19679837912343
 30
0.0
 10
0.3575518439913656
 20
16.1958877498597
 30
0.0
 10
0.1231951099276093
 20
16.19552350449753
 30
0.0
 10
-0.111643912601287
 20
16.19579884158536
 30
0.0
 10
-0.2661570547412319
 20
16.19664269855445
 30
0.0
 10
-0.3437051242878881
 20
16.19706621902668
 30
0.0
  0
SPLINE
  5
D3
330
1F
100
AcDbEntity
  8
0
  6
Continuous
 62
     7
370
    25
100
AcDbSpline
210
0.0
220
0.0
230
1.0
 70
    24
 71
     3
 72
    11
 73
     7
 74
     0
 42
0.00000001
 43
0.00000001
 40
0.0
 40
0.0
 40
0.0
 40
0.0
 40
0.2617540097739962
 40
0.5000000000124757
 40
0.7382459902389826
 40
1.0
 40
1.0
 40
1.0
 40
1.0
 10
-0.3437051249549518
 20
15.67407736734906
 30
0.0
 10
-0.2630041866880674
 20
15.67407736734906
 30
0.0
 10
-0.1088500280973796
 20
15.67407736734906
 30
0.0
 10
0.1223362881727291
 20
15.67407736734906
 30
0.0
 10
0.3534985470850653
 20
15.67407736734906
 30
0.0
 10
0.5075848900034311
 20
15.67407736734906
 30
0.0
 10
0.5882503262220306
 20
15.67407736734906
 30
0.0
  0
SPLINE
  5
D5
330
1F
100
AcDbEntity
  8
0
  6
Continuous
 62
     7
370
    25
100
AcDbSpline
210
0.0
220
0.0
230
1.0
 70
     8
 71
     3
 72
    12
 73
     8
 74
     0
 42
0.00000001
 43
0.00000001
 40
0.0
 40
0.0
 40
0.0
 40
0.0
 40
0.1776068469506679
 40
0.3676242679055178
 40
0.5631762851564446
 40
0.7893648634308086
 40
1.0
 40
1.0
 40
1.0
 40
1.0
 10
-0.3437051242878859
 20
16.19706621902668
 30
0.0
 10
-0.3428077580826261
 20
16.23443235964561
 30
0.0
 10
-0.3409503207151152
 20
16.31177566214395
 30
0.0
 10
-0.329756982108621
 20
16.42180079950695
 30
0.0
 10
-0.3116211558684832
 20
16.52078706087874
 30
0.0
 10
-0.2870553855044925
 20
16.59449275379891
 30
0.0
 10
-0.267931712011812
 20
16.609088407326
 30
0.0
 10
-0.2587103317594191
 20
16.61612638939869
 30
0.0
  0
SPLINE
  5
D6
330
1F
100
AcDbEntity
  8
0
  6
Continuous
 62
     7
370
    25
100
AcDbSpline
210
0.0
220
0.0
230
1.0
 70
     8
 71
     3
 72
    11
 73
     7
 74
     0
 42
0.00000001
 43
0.00000001
 40
0.0
 40
0.0
 40
0.0
 40
0.0
 40
0.2505823826868113
 40
0.5012792641370445
 40
0.750690885750583
 40
1.0
 40
1.0
 40
1.0
 40
1.0
 10
-0.2587103317594191
 20
16.61612638939869
 30
0.0
 10
-0.19565825006497
 20
16.61570478255771
 30
0.0
 10
-0.0695252762493043
 20
16.61486137623069
 30
0.0
 10
0.1223898713164747
 20
16.61458620823325
 30
0.0
 10
0.3139500748535629
 20
16.61494660085514
 30
0.0
 10
0.4393892782305366
 20
16.61585183206132
 30
0.0
 10
0.5020959884938532
 20
16.61630435463353
 30
0.0
  0
SPLINE
  5
D7
330
1F
100
AcDbEntity
  8
0
  6
Continuous
 62
     7
370
    25
100
AcDbSpline
210
0.0
220
0.0
230
1.0
 70
     8
 71
     3
 72
    12
 73
     8
 74
     0
 42
0.00000001
 43
0.00000001
 40
0.0
 40
0.0
 40
0.0
 40
0.0
 40
0.1776106964761001
 40
0.3676267500467239
 40
0.5631748575012364
 40
0.7893608309049724
 40
1.0
 40
1.0
 40
1.0
 40
1.0
 10
0.5882503255553121
 20
16.19725516718155
 30
0.0
 10
0.5873247892669051
 20
16.2346140011023
 30
0.0
 10
0.5854090718889091
 20
16.3119410257259
 30
0.0
 10
0.574037248921621
 20
16.42194524702274
 30
0.0
 10
0.5556505148008581
 20
16.52092064939603
 30
0.0
 10
0.5307731860060633
 20
16.59463430039747
 30
0.0
 10
0.5114255236478086
 20
16.60925444912245
 30
0.0
 10
0.5020959884938521
 20
16.61630435463353
 30
0.0
  0
SPLINE
  5
D8
330
1F
100
AcDbEntity
  8
0
  6
Continuous
 62
     7
370
    25
100
AcDbSpline
210
0.0
220
0.0
230
1.0
 70
    24
 71
     3
 72
    11
 73
     7
 74
     0
 42
0.00000001
 43
0.00000001
 40
0.0
 40
0.0
 40
0.0
 40
0.0
 40
0.2817899682379549
 40
0.5608303440937333
 40
0.7796360114403065
 40
1.0
 40
1.0
 40
1.0
 40
1.0
 10
0.5801076979182649
 20
15.6347072886089
 30
0.0
 10
0.4947283960790648
 20
15.6347072886089
 30
0.0
 10
0.3248028890484994
 20
15.6347072886089
 30
0.0
 10
0.0845404227244772
 20
15.6347072886089
 30
0.0
 10
-0.1360871057557064
 20
15.6347072886089
 30
0.0
 10
-0.2689769815026455
 20
15.6347072886089
 30
0.0
 10
-0.3356576882977604
 20
15.6347072886089
 30
0.0
  0
SPLINE
  5
DB
330
1F
100
AcDbEntity
  8
0
  6
Continuous
 62
     7
370
    25
100
AcDbSpline
210
0.0
220
0.0
230
1.0
 70
     8
 71
     3
 72
     9
 73
     5
 74
     0
 42
0.00000001
 43
0.00000001
 40
0.0
 40
0.0
 40
0.0
 40
0.0
 40
0.8053549075234566
 40
1.0
 40
1.0
 40
1.0
 40
1.0
 10
-7.090538890046926
 20
16.34261981294351
 30
0.0
 10
-7.100064483959049
 20
16.34449212200183
 30
0.0
 10
-7.111892305237762
 20
16.34681694679749
 30
0.0
 10
-7.10794412461354
 20
16.34941564438697
 30
0.0
 10
-7.107175630630823
 20
16.34992146811958
 30
0.0
  0
SPLINE
  5
DC
330
1F
100
AcDbEntity
  8
0
  6
Continuous
 62
     7
370
    25
100
AcDbSpline
210
0.0
220
0.0
230
1.0
 70
     8
 71
     3
 72
    14
 73
    10
 74
     0
 42
0.00000001
 43
0.00000001
 40
0.0
 40
0.0
 40
0.0
 40
0.0
 40
0.1562039305377539
 40
0.3139892698248315
 40
0.4737146981473618
 40
0.6358820544757028
 40
0.8011050644930013
 40
0.9005963463057822
 40
1.0
 40
1.0
 40
1.0
 40
1.0
 10
-0.3437051242878826
 20
16.19706621902668
 30
0.0
 10
-0.4721916441176562
 20
16.19789257915276
 30
0.0
 10
-0.7304654814327384
 20
16.19955366547563
 30
0.0
 10
-1.117243856052984
 20
16.20011161687999
 30
0.0
 10
-1.504835840149434
 20
16.19974190401342
 30
0.0
 10
-1.89178600966881
 20
16.19875000891094
 30
0.0
 10
-2.221618334053726
 20
16.19791913462477
 30
0.0
 10
-2.494720825924098
 20
16.19750736685438
 30
0.0
 10
-2.638287716777976
 20
16.19757644370106
 30
0.0
 10
-2.710039536219816
 20
16.19761096690764
 30
0.0
  0
SPLINE
  5
DD
330
1F
100
AcDbEntity
  8
0
  6
Continuous
 62
     7
370
    25
100
AcDbSpline
210
0.0
220
0.0
230
1.0
 70
    24
 71
     3
 72
    10
 73
     6
 74
     0
 42
0.00000001
 43
0.00000001
 40
0.0
 40
0.0
 40
0.0
 40
0.0
 40
0.0957275564287132
 40
0.8644806958623478
 40
0.9999999999999999
 40
0.9999999999999999
 40
0.9999999999999999
 40
0.9999999999999999
 10
-7.10661223935774
 20
15.67407736734908
 30
0.0
 10
-7.107572756757009
 20
15.67407736734908
 30
0.0
 10
-7.116246839546595
 20
15.67407736734908
 30
0.0
 10
-7.110991623971051
 20
15.67407736734907
 30
0.0
 10
-7.095199077115726
 20
15.67407736734908
 30
0.0
 10
-7.092832318097899
 20
15.67407736734908
 30
0.0
  0
SPLINE
  5
DF
330
1F
100
AcDbEntity
  8
0
  6
Continuous
 62
     7
370
    25
100
AcDbSpline
210
0.0
220
0.0
230
1.0
 70
    24
 71
     3
 72
    36
 73
    32
 74
     0
 42
0.00000001
 43
0.00000001
 40
0.0
 40
0.0
 40
0.0
 40
0.0
 40
0.0294190908576212
 40
0.0587758389847652
 40
0.0881080569771178
 40
0.1175345789009547
 40
0.1470051469852128
 40
0.1761862479876266
 40
0.2036746793791242
 40
0.2313197089993659
 40
0.2590694163805398
 40
0.2866750638917993
 40
0.3142285442827382
 40
0.3552819858696915
 40
0.3964684270729179
 40
0.4375061348052289
 40
0.4783389333837555
 40
0.5190300212982447
 40
0.5597013986221858
 40
0.590219426570877
 40
0.620737701712337
 40
0.6512840443366134
 40
0.6820016068906273
 40
0.7130623590716195
 40
0.7441505555368506
 40
0.775120293721509
 40
0.805984469661943
 40
0.8543299321516173
 40
0.902680530260376
 40
0.9512593862830966
 40
1.0
 40
1.0
 40
1.0
 40
1.0
 10
-0.3356576882977604
 20
15.6347072886089
 30
0.0
 10
-0.4869313686637325
 20
15.6347072886089
 30
0.0
 10
-0.7891581615600154
 20
15.6347072886089
 30
0.0
 10
-1.238033124633061
 20
15.63470728860891
 30
0.0
 10
-1.680629329403475
 20
15.6347072886089
 30
0.0
 10
-2.113028884785448
 20
15.63470728860891
 30
0.0
 10
-2.528335569124486
 20
15.6347072886089
 30
0.0
 10
-2.911482173492386
 20
15.63470728860891
 30
0.0
 10
-3.26260459687402
 20
15.6347072886089
 30
0.0
 10
-3.586543416485374
 20
15.63470728860891
 30
0.0
 10
-3.890552639666529
 20
15.6347072886089
 30
0.0
 10
-4.174653725870845
 20
15.63470728860891
 30
0.0
 10
-4.482581201937641
 20
15.63470728860891
 30
0.0
 10
-4.806277411297415
 20
15.6347072886089
 30
0.0
 10
-5.140755962734525
 20
15.63470728860892
 30
0.0
 10
-5.455795032849813
 20
15.6347072886089
 30
0.0
 10
-5.744954604904402
 20
15.63470728860892
 30
0.0
 10
-5.998785980873931
 20
15.63470728860891
 30
0.0
 10
-6.201470638081225
 20
15.63470728860892
 30
0.0
 10
-6.37697702704662
 20
15.63470728860892
 30
0.0
 10
-6.53816539105306
 20
15.63470728860892
 30
0.0
 10
-6.693183992625729
 20
15.63470728860892
 30
0.0
 10
-6.815396664995781
 20
15.63470728860892
 30
0.0
 10
-6.900288458251081
 20
15.63470728860892
 30
0.0
 10
-6.96530339995395
 20
15.63470728860892
 30
0.0
 10
-7.018790910452788
 20
15.63470728860892
 30
0.0
 10
-7.063144782883917
 20
15.63470728860892
 30
0.0
 10
-7.0786181653845
 20
15.63470728860892
 30
0.0
 10
-7.042085072858749
 20
15.63470728860893
 30
0.0
 10
-6.946842078329039
 20
15.63470728860893
 30
0.0
 10
-6.871642257074142
 20
15.63470728860892
 30
0.0
 10
-6.833979850474813
 20
15.63470728860893
 30
0.0
  0
SPLINE
  5
E0
330
1F
100
AcDbEntity
  8
0
  6
Continuous
 62
     7
370
    25
100
AcDbSpline
210
0.0
220
0.0
230
1.0
 70
     8
 71
     3
 72
    13
 73
     9
 74
     0
 42
0.00000001
 43
0.00000001
 40
0.0
 40
0.0
 40
0.0
 40
0.0
 40
0.1934241899729287
 40
0.3596379073264393
 40
0.5233500494890707
 40
0.6842682982084374
 40
0.8430094939486322
 40
1.0
 40
1.0
 40
1.0
 40
1.0
 10
2.952507847406977
 20
16.2012605645304
 30
0.0
 10
2.811760228581087
 20
16.20088943296016
 30
0.0
 10
2.550065044008738
 20
16.20019937976009
 30
0.0
 10
2.144965412443788
 20
16.20055357871352
 30
0.0
 10
1.756014002640816
 20
16.20095237547712
 30
0.0
 10
1.365718489618099
 20
16.20089759323355
 30
0.0
 10
0.976861559665196
 20
16.19999783387295
 30
0.0
 10
0.7173076731644742
 20
16.19816600366156
 30
0.0
 10
0.5882503255553078
 20
16.19725516718155
 30
0.0
  0
SPLINE
  5
E1
330
1F
100
AcDbEntity
  8
0
  6
Continuous
 62
     7
370
    25
100
AcDbSpline
210
0.0
220
0.0
230
1.0
 70
    24
 71
     3
 72
     9
 73
     5
 74
     0
 42
0.00000001
 43
0.00000001
 40
0.0
 40
0.0
 40
0.0
 40
0.0
 40
0.5594949028341234
 40
0.9999999999999999
 40
0.9999999999999999
 40
0.9999999999999999
 40
0.9999999999999999
 10
7.309385265307408
 20
15.67407736734908
 30
0.0
 10
7.31669578167612
 20
15.67407736734908
 30
0.0
 10
7.32976206044234
 20
15.67407736734907
 30
0.0
 10
7.325648139461671
 20
15.67407736734908
 30
0.0
 10
7.32383593630035
 20
15.67407736734908
 30
0.0
  0
SPLINE
  5
E3
330
1F
100
AcDbEntity
  8
0
  6
Continuous
 62
     7
370
    25
100
AcDbSpline
210
0.0
220
0.0
230
1.0
 70
    24
 71
     3
 72
    34
 73
    30
 74
     0
 42
0.00000001
 43
0.00000001
 40
0.0
 40
0.0
 40
0.0
 40
0.0
 40
0.0425701953199587
 40
0.0851440876510094
 40
0.1278630556500996
 40
0.170774608870266
 40
0.213536056031723
 40
0.256087973834064
 40
0.2941709178045913
 40
0.3323499317136559
 40
0.3705795354886209
 40
0.4088251099037105
 40
0.4471304300981553
 40
0.4852561516036773
 40
0.5232396268543218
 40
0.5611705206899187
 40
0.5991001241052107
 40
0.6370811896053283
 40
0.6752251556944191
 40
0.7135639490875512
 40
0.7515996794234141
 40
0.7894692591830162
 40
0.8193247833204442
 40
0.8495399839753941
 40
0.8797704729795441
 40
0.9097967033005787
 40
0.9397975765214094
 40
0.9698584641715484
 40
1.0
 40
1.0
 40
1.0
 40
1.0
 10
7.219744419606974
 20
15.63470728860893
 30
0.0
 10
7.239716974669061
 20
15.63470728860893
 30
0.0
 10
7.279663819310942
 20
15.63470728860892
 30
0.0
 10
7.295148850236764
 20
15.63470728860893
 30
0.0
 10
7.276423464369545
 20
15.63470728860892
 30
0.0
 10
7.224693179498996
 20
15.63470728860892
 30
0.0
 10
7.150882274442693
 20
15.63470728860892
 30
0.0
 10
7.058075460945175
 20
15.63470728860892
 30
0.0
 10
6.916443098029089
 20
15.63470728860892
 30
0.0
 10
6.735778790632007
 20
15.63470728860891
 30
0.0
 10
6.552650231487745
 20
15.63470728860892
 30
0.0
 10
6.369843167611283
 20
15.63470728860892
 30
0.0
 10
6.172738388977439
 20
15.63470728860892
 30
0.0
 10
5.949222452939863
 20
15.63470728860891
 30
0.0
 10
5.702327445621992
 20
15.63470728860891
 30
0.0
 10
5.437167371622139
 20
15.63470728860891
 30
0.0
 10
5.15833941886202
 20
15.63470728860891
 30
0.0
 10
4.860759507967669
 20
15.63470728860891
 30
0.0
 10
4.537580100640614
 20
15.6347072886089
 30
0.0
 10
4.184880824819385
 20
15.63470728860891
 30
0.0
 10
3.801450011032382
 20
15.63470728860891
 30
0.0
 10
3.416044986476688
 20
15.6347072886089
 30
0.0
 10
3.032483463543763
 20
15.63470728860891
 30
0.0
 10
2.655488479202393
 20
15.63470728860891
 30
0.0
 10
2.258464959376322
 20
15.6347072886089
 30
0.0
 10
1.848973185294709
 20
15.63470728860891
 30
0.0
 10
1.431377469084822
 20
15.6347072886089
 30
0.0
 10
1.007906184237289
 20
15.6347072886089
 30
0.0
 10
0.7228344889693306
 20
15.6347072886089
 30
0.0
 10
0.5801076979182649
 20
15.6347072886089
 30
0.0
  0
SPLINE
  5
E5
330
1F
100
AcDbEntity
  8
0
  6
Continuous
 62
     7
370
    25
100
AcDbSpline
210
0.0
220
0.0
230
1.0
 70
     8
 71
     3
 72
    11
 73
     7
 74
     0
 42
0.00000001
 43
0.00000001
 40
0.0
 40
0.0
 40
0.0
 40
0.0
 40
0.2492495784100074
 40
0.5004346749316292
 40
0.749152915659399
 40
1.0
 40
1.0
 40
1.0
 40
1.0
 10
-4.657715593543015
 20
17.06537038108338
 30
0.0
 10
-4.691883713461787
 20
17.06069089740498
 30
0.0
 10
-4.760485281792017
 20
17.05129559207132
 30
0.0
 10
-4.856728693427877
 20
17.03770386413011
 30
0.0
 10
-4.942447152466565
 20
17.02543463154045
 30
0.0
 10
-4.983422963587092
 20
17.01951751506084
 30
0.0
 10
-5.003998176141463
 20
17.01654634924502
 30
0.0
  0
SPLINE
  5
E6
330
1F
100
AcDbEntity
  8
0
  6
Continuous
 62
     7
370
    25
100
AcDbSpline
210
0.0
220
0.0
230
1.0
 70
     8
 71
     3
 72
    15
 73
    11
 74
     0
 42
0.00000001
 43
0.00000001
 40
0.0
 40
0.0
 40
0.0
 40
0.0
 40
0.1009335481130644
 40
0.2292368900682581
 40
0.357465610597501
 40
0.4857904908209629
 40
0.614361715055003
 40
0.7429061210702769
 40
0.871394890323174
 40
1.0
 40
1.0
 40
1.0
 40
1.0
 10
4.605301461652092
 20
17.10119439553971
 30
0.0
 10
4.295351754491479
 20
17.13956440464739
 30
0.0
 10
3.591404372522158
 20
17.22670908274672
 30
0.0
 10
2.487730036667448
 20
17.3143861725664
 30
0.0
 10
1.297141986327276
 20
17.37386442670787
 30
0.0
 10
0.1040521344042672
 20
17.39249557793078
 30
0.0
 10
-1.089996228800479
 20
17.37227985421409
 30
0.0
 10
-2.282938136305943
 20
17.31161698278311
 30
0.0
 10
-3.473405643497774
 20
17.21416390239073
 30
0.0
 10
-4.262826533638598
 20
17.11498318197784
 30
0.0
 10
-4.657715593543015
 20
17.06537038108338
 30
0.0
  0
SPLINE
  5
E7
330
1F
100
AcDbEntity
  8
0
  6
Continuous
 62
     7
370
    25
100
AcDbSpline
210
0.0
220
0.0
230
1.0
 70
     8
 71
     3
 72
    30
 73
    26
 74
     0
 42
0.00000001
 43
0.00000001
 40
0.0
 40
0.0
 40
0.0
 40
0.0
 40
0.0391687144900752
 40
0.09004058137632
 40
0.1222021801131489
 40
0.15607147433497
 40
0.1904525022217449
 40
0.2225937677362076
 40
0.2545736342424368
 40
0.3070963992281276
 40
0.3590308055479197
 40
0.4161466614281741
 40
0.4682314415620436
 40
0.5200993352806269
 40
0.5733791647798532
 40
0.626929968886558
 40
0.6736131566545911
 40
0.7203081917421261
 40
0.7669934170037845
 40
0.8134483788303651
 40
0.8506491631116601
 40
0.8879244000787837
 40
0.9253325567131553
 40
0.962570050226822
 40
1.0
 40
1.0
 40
1.0
 40
1.0
 10
-6.712346615815803
 20
15.65494717345478
 30
0.0
 10
-6.711322381822717
 20
15.65496766427348
 30
0.0
 10
-6.708967884734837
 20
15.65501476832712
 30
0.0
 10
-6.677757596666616
 20
15.65500563347537
 30
0.0
 10
-6.637740054314058
 20
15.65503766052824
 30
0.0
 10
-6.595409452802689
 20
15.65511559988053
 30
0.0
 10
-6.546736925130051
 20
15.65527956104483
 30
0.0
 10
-6.487528963549172
 20
15.65543466663976
 30
0.0
 10
-6.398203428724353
 20
15.65554396539358
 30
0.0
 10
-6.252996963151032
 20
15.65536218455595
 30
0.0
 10
-6.062106835143149
 20
15.6549463331222
 30
0.0
 10
-5.876987880440904
 20
15.65470177835948
 30
0.0
 10
-5.681448296695295
 20
15.65450016149785
 30
0.0
 10
-5.466709097983082
 20
15.65419158515865
 30
0.0
 10
-5.222511234372409
 20
15.65372276864265
 30
0.0
 10
-4.966225826961195
 20
15.65319331162111
 30
0.0
 10
-4.707732496636885
 20
15.65267710712836
 30
0.0
 10
-4.448310895620798
 20
15.65220962422914
 30
0.0
 10
-4.171178145594492
 20
15.65193846992792
 30
0.0
 10
-3.892428111620191
 20
15.65182400348242
 30
0.0
 10
-3.614436992140208
 20
15.65190512310864
 30
0.0
 10
-3.340896200166022
 20
15.65213502163354
 30
0.0
 10
-3.049785112016961
 20
15.65248004159993
 30
0.0
 10
-2.741639220146833
 20
15.652948771387
 30
0.0
 10
-2.520106078424803
 20
15.65331463405162
 30
0.0
 10
-2.40905400535602
 20
15.6534980368917
 30
0.0
  0
SPLINE
  5
E9
330
1F
100
AcDbEntity
  8
0
  6
Continuous
 62
     7
370
    25
100
AcDbSpline
210
0.0
220
0.0
230
1.0
 70
     8
 71
     3
 72
    28
 73
    24
 74
     0
 42
0.00000001
 43
0.00000001
 40
0.0
 40
0.0
 40
0.0
 40
0.0
 40
0.0374636468225158
 40
0.0750266318297813
 40
0.1124948273729243
 40
0.1499415569043349
 40
0.1873234938654557
 40
0.2339858483674739
 40
0.280585736862272
 40
0.3270290314843058
 40
0.3739164544225268
 40
0.4269267929485234
 40
0.4801883702657589
 40
0.5331970327593796
 40
0.5862920447303023
 40
0.6392739246981886
 40
0.6923093315833464
 40
0.7453838566542239
 40
0.7982377336002439
 40
0.8514610155996271
 40
0.904250716343408
 40
0.9572253710884912
 40
1.0
 40
1.0
 40
1.0
 40
1.0
 10
2.711658136335731
 20
15.65706043339337
 30
0.0
 10
2.823829835332489
 20
15.65706041148976
 30
0.0
 10
3.048470666542038
 20
15.65706036762447
 30
0.0
 10
3.360776599476239
 20
15.65706030220228
 30
0.0
 10
3.656177098562873
 20
15.65706023643561
 30
0.0
 10
3.933436617104603
 20
15.65706017084742
 30
0.0
 10
4.215395095814163
 20
15.65706009971345
 30
0.0
 10
4.497389035725268
 20
15.65706002308287
 30
0.0
 10
4.77676187728495
 20
15.6570599412425
 30
0.0
 10
5.038132435883736
 20
15.65705985835378
 30
0.0
 10
5.297510630818388
 20
15.65705977366319
 30
0.0
 10
5.555116990458092
 20
15.65705968265648
 30
0.0
 10
5.80225923294003
 20
15.65705958964314
 30
0.0
 10
6.021444820078068
 20
15.65705949533501
 30
0.0
 10
6.215302579574571
 20
15.65705940185994
 30
0.0
 10
6.398694522954153
 20
15.65705930785519
 30
0.0
 10
6.587521800960741
 20
15.65705921405
 30
0.0
 10
6.758006436787007
 20
15.65705912065209
 30
0.0
 10
6.869401633512375
 20
15.65705902604455
 30
0.0
 10
6.946165343389905
 20
15.65705893332576
 30
0.0
 10
7.006857242005013
 20
15.65705883867319
 30
0.0
 10
7.046069246974355
 20
15.65705875129335
 30
0.0
 10
7.049000175848317
 20
15.65705869459939
 30
0.0
 10
7.05030952658351
 20
15.65705866927217
 30
0.0
  0
SPLINE
  5
EA
330
1F
100
AcDbEntity
  8
0
  6
Continuous
 62
     7
370
    25
100
AcDbSpline
210
0.0
220
0.0
230
1.0
 70
     8
 71
     3
 72
    28
 73
    24
 74
     0
 42
0.00000001
 43
0.00000001
 40
0.0
 40
0.0
 40
0.0
 40
0.0
 40
0.0373735336303423
 40
0.0748450347098792
 40
0.1122228025798513
 40
0.1495791385015666
 40
0.1868710627335405
 40
0.2334206871921469
 40
0.2799083023434134
 40
0.3262384772368055
 40
0.3730130836091916
 40
0.4258966569853651
 40
0.4790312643504711
 40
0.5319117963399588
 40
0.5848793058365243
 40
0.6377184900661624
 40
0.6906422757069435
 40
0.7435871228034453
 40
0.7963135340875054
 40
0.849409946540474
 40
0.9020707478367815
 40
0.9549175535637884
 40
1.0
 40
1.0
 40
1.0
 40
1.0
 10
-2.470463566927943
 20
15.65706037112098
 30
0.0
 10
-2.582774786887541
 20
15.65706034897512
 30
0.0
 10
-2.807691628825133
 20
15.65706030462533
 30
0.0
 10
-3.120507151386293
 20
15.65706023847654
 30
0.0
 10
-3.41647135668284
 20
15.65706017198316
 30
0.0
 10
-3.694348341113439
 20
15.65706010566833
 30
0.0
 10
-3.977019661622157
 20
15.65706003374778
 30
0.0
 10
-4.259832073716586
 20
15.65705995626777
 30
0.0
 10
-4.540129586680471
 20
15.65705987352368
 30
0.0
 10
-4.802469552101251
 20
15.65705978971414
 30
0.0
 10
-5.062899356914413
 20
15.65705970408733
 30
0.0
 10
-5.321624193767232
 20
15.65705961207263
 30
0.0
 10
-5.569950397184639
 20
15.65705951803365
 30
0.0
 10
-5.790342977324889
 20
15.65705942267381
 30
0.0
 10
-5.985436195798313
 20
15.6570593281911
 30
0.0
 10
-6.170116641087638
 20
15.65705923308376
 30
0.0
 10
-6.360233557450376
 20
15.65705913830477
 30
0.0
 10
-6.531974385378352
 20
15.65705904384254
 30
0.0
 10
-6.644657977852245
 20
15.65705894819224
 30
0.0
 10
-6.72274471504498
 20
15.65705885445116
 30
0.0
 10
-6.784847471632214
 20
15.65705875874631
 30
0.0
 10
-6.825761145512961
 20
15.6570586689602
 30
0.0
 10
-6.82950617557225
 20
15.6570586101903
 30
0.0
 10
-6.831230227510974
 20
15.65705858313514
 30
0.0
  0
SPLINE
  5
EB
330
1F
100
AcDbEntity
  8
0
  6
Continuous
 62
     7
370
    25
100
AcDbSpline
210
0.0
220
0.0
230
1.0
 70
     8
 71
     3
 72
     9
 73
     5
 74
     0
 42
0.00000001
 43
0.00000001
 40
0.0
 40
0.0
 40
0.0
 40
0.0
 40
0.499592008362621
 40
1.0
 40
1.0
 40
1.0
 40
1.0
 10
-2.186718849050346
 20
15.655420294925
 30
0.0
 10
-2.236457565969987
 20
15.65588864477853
 30
0.0
 10
-2.336016238020519
 20
15.65682610944108
 30
0.0
 10
-2.425622472146446
 20
15.65698263193875
 30
0.0
 10
-2.47046214780359
 20
15.65706095704746
 30
0.0
  0
SPLINE
  5
EC
330
1F
100
AcDbEntity
  8
0
  6
Continuous
 62
     7
370
    25
100
AcDbSpline
210
0.0
220
0.0
230
1.0
 70
     8
 71
     3
 72
    15
 73
    11
 74
     0
 42
0.00000001
 43
0.00000001
 40
0.0
 40
0.0
 40
0.0
 40
0.0
 40
0.1249170467193459
 40
0.2502136082631557
 40
0.3748706895486532
 40
0.5001989542628232
 40
0.6250928980381081
 40
0.7501034743692782
 40
0.8753526465404655
 40
1.0
 40
1.0
 40
1.0
 40
1.0
 10
-1.62939479964963
 20
15.63975882028414
 30
0.0
 10
-1.631468750862281
 20
15.6404833707636
 30
0.0
 10
-1.635622954230898
 20
15.64193467300452
 30
0.0
 10
-1.669304628552597
 20
15.64416421204051
 30
0.0
 10
-1.721529990846598
 20
15.64640503952659
 30
0.0
 10
-1.79192442569656
 20
15.6485911639369
 30
0.0
 10
-1.87716377141536
 20
15.65065511767589
 30
0.0
 10
-1.973905792779077
 20
15.65252864484282
 30
0.0
 10
-2.078388819306767
 20
15.65417951047887
 30
0.0
 10
-2.150666860854657
 20
15.65500736467555
 30
0.0
 10
-2.186718849050346
 20
15.655420294925
 30
0.0
  0
SPLINE
  5
EE
330
1F
100
AcDbEntity
  8
0
  6
Continuous
 62
     7
370
    25
100
AcDbSpline
210
0.0
220
0.0
230
1.0
 70
     8
 71
     3
 72
    40
 73
    36
 74
     0
 42
0.00000001
 43
0.00000001
 40
0.0
 40
0.0
 40
0.0
 40
0.0
 40
0.0469661605832391
 40
0.0964749442664575
 40
0.1487172976648177
 40
0.2033062844624161
 40
0.2603042493519873
 40
0.3106894496875807
 40
0.3651112876899357
 40
0.4246292672721896
 40
0.4855059274815319
 40
0.5422577419577329
 40
0.5958253818388567
 40
0.6121232672130106
 40
0.6288485183981581
 40
0.6464463592030334
 40
0.6652786153956308
 40
0.6858445290210733
 40
0.7094717374994622
 40
0.7184395088230533
 40
0.7298348154577879
 40
0.7473303041813676
 40
0.7655556470154414
 40
0.7784350358769248
 40
0.7897132128472626
 40
0.8009680466376204
 40
0.8118851037056803
 40
0.8316904586934821
 40
0.8486413798748472
 40
0.8640141970595682
 40
0.8884729995150116
 40
0.9127765445397844
 40
0.9389254523836531
 40
0.9676173018598657
 40
1.0
 40
1.0
 40
1.0
 40
1.0
 10
2.651640047657067
 20
15.65349364039943
 30
0.0
 10
2.768560088312817
 20
15.65329932545842
 30
0.0
 10
3.008729909857073
 20
15.65290017588197
 30
0.0
 10
3.349519689481478
 20
15.65238927429856
 30
0.0
 10
3.685505055552954
 20
15.65201998982818
 30
0.0
 10
4.012033115320178
 20
15.6518111776118
 30
0.0
 10
4.310003579588142
 20
15.6518851613208
 30
0.0
 10
4.585851938915887
 20
15.65207492825853
 30
0.0
 10
4.847615042216052
 20
15.65249407529224
 30
0.0
 10
5.109641058434231
 20
15.65299491023738
 30
0.0
 10
5.362406594888526
 20
15.65353020222529
 30
0.0
 10
5.590548556149971
 20
15.65397692627327
 30
0.0
 10
5.745326902733982
 20
15.65425582260696
 30
0.0
 10
5.843832804078223
 20
15.65439794901896
 30
0.0
 10
5.899453393620576
 20
15.65446803029535
 30
0.0
 10
5.956055375001799
 20
15.65453467164008
 30
0.0
 10
6.014987396856085
 20
15.65460166162145
 30
0.0
 10
6.078484911028365
 20
15.65467508424687
 30
0.0
 10
6.130866670329554
 20
15.65473875436374
 30
0.0
 10
6.173798901446502
 20
15.65479493860785
 30
0.0
 10
6.210553244355201
 20
15.65484490897044
 30
0.0
 10
6.256184011097829
 20
15.6549134299692
 30
0.0
 10
6.303245039234119
 20
15.65499198961282
 30
0.0
 10
6.344464196888565
 20
15.65506913121599
 30
0.0
 10
6.379014347744629
 20
15.65513862932661
 30
0.0
 10
6.411566445698637
 20
15.65520509722536
 30
0.0
 10
6.452015617851883
 20
15.65528428737808
 30
0.0
 10
6.497093999142433
 20
15.65536553152633
 30
0.0
 10
6.544298731260112
 20
15.65543430058209
 30
0.0
 10
6.593022965910666
 20
15.65548708410765
 30
0.0
 10
6.643110744067648
 20
15.65550724959945
 30
0.0
 10
6.69257456174874
 20
15.65546139523495
 30
0.0
 10
6.73677660381745
 20
15.65537482448518
 30
0.0
 10
6.778164576823269
 20
15.65525418154825
 30
0.0
 10
6.801976777509797
 20
15.65517942090566
 30
0.0
 10
6.814602385671939
 20
15.65513978162193
 30
0.0
  0
SPLINE
  5
EF
330
1F
100
AcDbEntity
  8
0
  6
Continuous
 62
     7
370
    25
100
AcDbSpline
210
0.0
220
0.0
230
1.0
 70
     8
 71
     3
 72
    22
 73
    18
 74
     0
 42
0.00000001
 43
0.00000001
 40
0.0
 40
0.0
 40
0.0
 40
0.0
 40
0.052531393884466
 40
0.154633493354008
 40
0.2569959405181447
 40
0.2975741526122148
 40
0.3387637643653378
 40
0.3833158497951462
 40
0.4344948842133868
 40
0.4670351351561551
 40
0.5116874063061144
 40
0.5618921922711253
 40
0.6155867298107287
 40
0.671020842182224
 40
0.7263415986029786
 40
0.874588553120793
 40
1.0
 40
1.0
 40
1.0
 40
1.0
 10
6.932510811083897
 20
15.65495448507524
 30
0.0
 10
6.933106612180086
 20
15.65494478675506
 30
0.0
 10
6.93486043590406
 20
15.65491623839534
 30
0.0
 10
6.920735315498553
 20
15.65481725251241
 30
0.0
 10
6.897374946889727
 20
15.6546918410671
 30
0.0
 10
6.872949881884613
 20
15.65458068404174
 30
0.0
 10
6.853749205021371
 20
15.65450411009403
 30
0.0
 10
6.830662991047737
 20
15.65442041764213
 30
0.0
 10
6.807317724945854
 20
15.65432093726648
 30
0.0
 10
6.783018398379209
 20
15.65418904671998
 30
0.0
 10
6.758481757362225
 20
15.6540305604374
 30
0.0
 10
6.729627763275784
 20
15.65380986484362
 30
0.0
 10
6.699860872009376
 20
15.65360506316544
 30
0.0
 10
6.667633370903893
 20
15.65336341303927
 30
0.0
 10
6.608427209588234
 20
15.6527687898158
 30
0.0
 10
6.519549954410421
 20
15.65144236928384
 30
0.0
 10
6.420307137743444
 20
15.65044072477331
 30
0.0
 10
6.374826402757655
 20
15.6499816937818
 30
0.0
  0
SPLINE
  5
F0
330
1F
100
AcDbEntity
  8
0
  6
Continuous
 62
     7
370
    25
100
AcDbSpline
210
0.0
220
0.0
230
1.0
 70
     8
 71
     3
 72
    15
 73
    11
 74
     0
 42
0.00000001
 43
0.00000001
 40
0.0
 40
0.0
 40
0.0
 40
0.0
 40
0.1234972683002126
 40
0.2472039758144657
 40
0.3717388854320109
 40
0.4968077263158505
 40
0.6221704356333714
 40
0.7479936015335781
 40
0.8740723731046273
 40
1.0
 40
1.0
 40
1.0
 40
1.0
 10
1.988712590492514
 20
15.63987997213215
 30
0.0
 10
1.991749209580722
 20
15.64069417155509
 30
0.0
 10
1.997827597564289
 20
15.64232395120307
 30
0.0
 10
2.044273994837025
 20
15.64478503581123
 30
0.0
 10
2.115349651446657
 20
15.64715531277092
 30
0.0
 10
2.207977090163104
 20
15.64933276723642
 30
0.0
 10
2.315759605141138
 20
15.65118274599025
 30
0.0
 10
2.430894304885387
 20
15.65257347066083
 30
0.0
 10
2.547097988535797
 20
15.65344842417308
 30
0.0
 10
2.616806630876064
 20
15.65347857435085
 30
0.0
 10
2.651640047636225
 20
15.65349364039823
 30
0.0
  0
SPLINE
  5
F1
330
1F
100
AcDbEntity
  8
0
  6
Continuous
 62
     7
370
    25
100
AcDbSpline
210
0.0
220
0.0
230
1.0
 70
     8
 71
     3
 72
     9
 73
     5
 74
     0
 42
0.00000001
 43
0.00000001
 40
0.0
 40
0.0
 40
0.0
 40
0.0
 40
0.4999802881875768
 40
1.0
 40
1.0
 40
1.0
 40
1.0
 10
1.986395745515431
 20
15.60379887250659
 30
0.0
 10
1.986781885611353
 20
15.60920253827762
 30
0.0
 10
1.987554196250483
 20
15.62001029590066
 30
0.0
 10
1.988326448930168
 20
15.63325657264957
 30
0.0
 10
1.988712590492511
 20
15.63987997213215
 30
0.0
  0
SPLINE
  5
F2
330
1F
100
AcDbEntity
  8
0
  6
Continuous
 62
     7
370
    25
100
AcDbSpline
210
0.0
220
0.0
230
1.0
 70
     8
 71
     3
 72
     9
 73
     5
 74
     0
 42
0.00000001
 43
0.00000001
 40
0.0
 40
0.0
 40
0.0
 40
0.0
 40
0.500019688165834
 40
1.0
 40
1.0
 40
1.0
 40
1.0
 10
-1.747504947107283
 20
15.63987995230742
 30
0.0
 10
-1.747891060904866
 20
15.63325747697348
 30
0.0
 10
-1.748663258093738
 20
15.62001304782263
 30
0.0
 10
-1.749435513165208
 20
15.60920426766307
 30
0.0
 10
-1.749821625496658
 20
15.60380009038835
 30
0.0
  0
SPLINE
  5
F3
330
1F
100
AcDbEntity
  8
0
  6
Continuous
 62
     7
370
    25
100
AcDbSpline
210
0.0
220
0.0
230
1.0
 70
     8
 71
     3
 72
    15
 73
    11
 74
     0
 42
0.00000001
 43
0.00000001
 40
0.0
 40
0.0
 40
0.0
 40
0.0
 40
0.1255868763250204
 40
0.2514475809277889
 40
0.3775063483851668
 40
0.5031405242624045
 40
0.6279164917852293
 40
0.7522935664175737
 40
0.8761454145138567
 40
1.0
 40
1.0
 40
1.0
 40
1.0
 10
-2.409054583962997
 20
15.65349807288757
 30
0.0
 10
-2.374281631460545
 20
15.65348425230089
 30
0.0
 10
-2.304659907883074
 20
15.65345658099328
 30
0.0
 10
-2.188590971878795
 20
15.6525739550965
 30
0.0
 10
-2.073446943037117
 20
15.65118414294184
 30
0.0
 10
-1.965802189334078
 20
15.6493332813113
 30
0.0
 10
-1.873438990392744
 20
15.64715754762654
 30
0.0
 10
-1.80267844283076
 20
15.64479032686948
 30
0.0
 10
-1.756268601134492
 20
15.64232845234079
 30
0.0
 10
-1.750426186637753
 20
15.64069612499813
 30
0.0
 10
-1.747504947107287
 20
15.63987995230742
 30
0.0
  0
SPLINE
  5
F4
330
1F
100
AcDbEntity
  8
0
  6
Continuous
 62
     7
370
    25
100
AcDbSpline
210
0.0
220
0.0
230
1.0
 70
     8
 71
     3
 72
    13
 73
     9
 74
     0
 42
0.00000001
 43
0.00000001
 40
0.0
 40
0.0
 40
0.0
 40
0.0
 40
0.7380906167016076
 40
0.9285668404762276
 40
0.9791632517286362
 40
0.9933014726425777
 40
0.9975806734551349
 40
1.0
 40
1.0
 40
1.0
 40
1.0
 10
0.1042344116996233
 20
15.60227683847483
 30
0.0
 10
0.3360876470389397
 20
15.60227730708249
 30
0.0
 10
0.6277743604608187
 20
15.60227789662193
 30
0.0
 10
0.9353546602347715
 20
15.60221237267362
 30
0.0
 10
1.015523083009645
 20
15.60217463316711
 30
0.0
 10
1.037202039976764
 20
15.60214789566603
 30
0.0
 10
1.043747404516584
 20
15.60213669586209
 30
0.0
 10
1.045851492434521
 20
15.60212731804893
 30
0.0
 10
1.046611431967643
 20
15.60212393103697
 30
0.0
  0
SPLINE
  5
F6
330
1F
100
AcDbEntity
  8
0
  6
Continuous
 62
     7
370
    25
100
AcDbSpline
210
0.0
220
0.0
230
1.0
 70
     8
 71
     3
 72
     9
 73
     5
 74
     0
 42
0.00000001
 43
0.00000001
 40
0.0
 40
0.0
 40
0.0
 40
0.0
 40
0.5006164654021145
 40
0.9999999999999999
 40
0.9999999999999999
 40
0.9999999999999999
 40
0.9999999999999999
 10
-4.934972901214297
 20
15.65518000424863
 30
0.0
 10
-4.868777646113143
 20
15.6446731263266
 30
0.0
 10
-4.736550163247626
 20
15.62368524708539
 30
0.0
 10
-4.600322293990092
 20
15.60610100614716
 30
0.0
 10
-4.532292339129526
 20
15.5973197257542
 30
0.0
  0
SPLINE
  5
F7
330
1F
100
AcDbEntity
  8
0
  6
Continuous
 62
     7
370
    25
100
AcDbSpline
210
0.0
220
0.0
230
1.0
 70
     8
 71
     3
 72
     9
 73
     5
 74
     0
 42
0.00000001
 43
0.00000001
 40
0.0
 40
0.0
 40
0.0
 40
0.0
 40
0.5000472949118974
 40
1.0
 40
1.0
 40
1.0
 40
1.0
 10
0.1042344116996244
 20
15.60227683847483
 30
0.0
 10
-0.0528432830478076
 20
15.60228947817256
 30
0.0
 10
-0.3669689594502901
 20
15.60231475517705
 30
0.0
 10
-0.6810940780578775
 20
15.60218868437068
 30
0.0
 10
-0.8381417808418615
 20
15.60212565493
 30
0.0
  0
SPLINE
  5
F8
330
1F
100
AcDbEntity
  8
0
  6
Continuous
 62
     7
370
    25
100
AcDbSpline
210
0.0
220
0.0
230
1.0
 70
    24
 71
     3
 72
    11
 73
     7
 74
     0
 42
0.00000001
 43
0.00000001
 40
0.0
 40
0.0
 40
0.0
 40
0.0
 40
0.2982619015042272
 40
0.5386489776763765
 40
0.7459457167095594
 40
0.9999999999999999
 40
0.9999999999999999
 40
0.9999999999999999
 40
0.9999999999999999
 10
-4.248007803302009
 20
15.59685514780409
 30
0.0
 10
-4.231962767422776
 20
15.59685514780409
 30
0.0
 10
-4.202986079050771
 20
15.59685514780409
 30
0.0
 10
-4.152837195982821
 20
15.59685514780409
 30
0.0
 10
-4.104838049882503
 20
15.5968551478041
 30
0.0
 10
-4.075775563666266
 20
15.59685514780409
 30
0.0
 10
-4.059771591096491
 20
15.59685514780409
 30
0.0
  0
SPLINE
  5
F9
330
1F
100
AcDbEntity
  8
0
  6
Continuous
 62
     7
370
    25
100
AcDbSpline
210
0.0
220
0.0
230
1.0
 70
    24
 71
     3
 72
    11
 73
     7
 74
     0
 42
0.00000001
 43
0.00000001
 40
0.0
 40
0.0
 40
0.0
 40
0.0
 40
0.254054283290384
 40
0.4613510223235988
 40
0.7017380984957515
 40
1.0
 40
1.0
 40
1.0
 40
1.0
 10
4.297031243811483
 20
15.59685514780409
 30
0.0
 10
4.313051409608654
 20
15.59685514780409
 30
0.0
 10
4.342143301989269
 20
15.59685514780409
 30
0.0
 10
4.390144247380628
 20
15.59685514780409
 30
0.0
 10
4.440264818279278
 20
15.59685514780409
 30
0.0
 10
4.469185337156836
 20
15.59685514780409
 30
0.0
 10
4.485199270739557
 20
15.59685514780409
 30
0.0
  0
SPLINE
  5
FA
330
1F
100
AcDbEntity
  8
0
  6
Continuous
 62
     7
370
    25
100
AcDbSpline
210
0.0
220
0.0
230
1.0
 70
    24
 71
     3
 72
    10
 73
     6
 74
     0
 42
0.00000001
 43
0.00000001
 40
0.0
 40
0.0
 40
0.0
 40
0.0
 40
0.3195124598531422
 40
0.6529481321513282
 40
1.0
 40
1.0
 40
1.0
 40
1.0
 10
-4.059771591804664
 20
15.59685514780409
 30
0.0
 10
-3.974512935888864
 20
15.59685514780409
 30
0.0
 10
-3.800280356178068
 20
15.59685514780409
 30
0.0
 10
-3.548136961767779
 20
15.59685514780409
 30
0.0
 10
-3.3895601803436
 20
15.59685514780409
 30
0.0
 10
-3.308685270894392
 20
15.59685514780409
 30
0.0
  0
SPLINE
  5
FB
330
1F
100
AcDbEntity
  8
0
  6
Continuous
 62
     7
370
    25
100
AcDbSpline
210
0.0
220
0.0
230
1.0
 70
    24
 71
     3
 72
    10
 73
     6
 74
     0
 42
0.00000001
 43
0.00000001
 40
0.0
 40
0.0
 40
0.0
 40
0.0
 40
0.3470518678486652
 40
0.6804875401468533
 40
1.0
 40
1.0
 40
1.0
 40
1.0
 10
3.544668102672986
 20
15.59685514780409
 30
0.0
 10
3.625711330176353
 20
15.59685514780409
 30
0.0
 10
3.784618143936467
 20
15.59685514780409
 30
0.0
 10
4.037186644552275
 20
15.59685514780409
 30
0.0
 10
4.211656486923142
 20
15.59685514780409
 30
0.0
 10
4.297031244520561
 20
15.59685514780409
 30
0.0
  0
SPLINE
  5
100
330
1F
100
AcDbEntity
  8
0
  6
Continuous
 62
     7
370
    25
100
AcDbSpline
210
0.0
220
0.0
230
1.0
 70
    24
 71
     3
 72
    10
 73
     6
 74
     0
 42
0.00000001
 43
0.00000001
 40
0.0
 40
0.0
 40
0.0
 40
0.0
 40
0.3340524870488151
 40
0.667182628099114
 40
1.0
 40
1.0
 40
1.0
 40
1.0
 10
-3.308685270906852
 20
15.59685514780409
 30
0.0
 10
-3.205489502948468
 20
15.59685514780409
 30
0.0
 10
-2.99938289891316
 20
15.59685514780409
 30
0.0
 10
-2.733154181552718
 20
15.59685514780409
 30
0.0
 10
-2.589399386209421
 20
15.59685514780409
 30
0.0
 10
-2.517555746502319
 20
15.59685514780409
 30
0.0
  0
SPLINE
  5
101
330
1F
100
AcDbEntity
  8
0
  6
Continuous
 62
     7
370
    25
100
AcDbSpline
210
0.0
220
0.0
230
1.0
 70
    24
 71
     3
 72
    10
 73
     6
 74
     0
 42
0.00000001
 43
0.00000001
 40
0.0
 40
0.0
 40
0.0
 40
0.0
 40
0.332817371945275
 40
0.6659475130401377
 40
1.0
 40
1.0
 40
1.0
 40
1.0
 10
2.751076788161341
 20
15.59685514780409
 30
0.0
 10
2.823222760247243
 20
15.59685514780409
 30
0.0
 10
2.967582504468675
 20
15.59685514780409
 30
0.0
 10
3.234638986158515
 20
15.5968551478041
 30
0.0
 10
3.441229863402097
 20
15.59685514780409
 30
0.0
 10
3.544668102685476
 20
15.59685514780409
 30
0.0
  0
LWPOLYLINE
  5
104
330
1F
100
AcDbEntity
  8
0
  6
Continuous
 62
     7
370
    25
100
AcDbPolyline
 90
        9
 70
   128
 43
0.0
 10
-4.9260726546
 20
15.5968551478
 10
-4.924789117
 20
15.6079435412
 10
-4.9242132033
 20
15.6186281904
 10
-4.9243658835
 20
15.6285200523
 10
-4.9252415982
 20
15.6372589501
 10
-4.9268084614
 20
15.6445266881
 10
-4.9290094214
 20
15.6500586378
 10
-4.9317643382
 20
15.653653373
 10
-4.9349729012
 20
15.6551800042
  0
SPLINE
  5
107
330
1F
100
AcDbEntity
  8
0
  6
Continuous
 62
     7
370
    25
100
AcDbSpline
210
0.0
220
0.0
230
1.0
 70
    24
 71
     3
 72
    10
 73
     6
 74
     0
 42
0.00000001
 43
0.00000001
 40
0.0
 40
0.0
 40
0.0
 40
0.0
 40
0.348053696497879
 40
0.6814501771224074
 40
1.0
 40
1.0
 40
1.0
 40
1.0
 10
-6.103313897763242
 20
15.59685514780411
 30
0.0
 10
-6.018393141026795
 20
15.59685514780411
 30
0.0
 10
-5.852127805241825
 20
15.59685514780411
 30
0.0
 10
-5.590416209048588
 20
15.5968551478041
 30
0.0
 10
-5.411167457737998
 20
15.59685514780411
 30
0.0
 10
-5.323584082122106
 20
15.59685514780411
 30
0.0
  0
SPLINE
  5
108
330
1F
100
AcDbEntity
  8
0
  6
Continuous
 62
     7
370
    25
100
AcDbSpline
210
0.0
220
0.0
230
1.0
 70
    24
 71
     3
 72
    10
 73
     6
 74
     0
 42
0.00000001
 43
0.00000001
 40
0.0
 40
0.0
 40
0.0
 40
0.0
 40
0.318549822877582
 40
0.6519463035021134
 40
1.0
 40
1.0
 40
1.0
 40
1.0
 10
5.537174313210548
 20
15.59685514780411
 30
0.0
 10
5.624653246589782
 20
15.59685514780411
 30
0.0
 10
5.803688245685717
 20
15.59685514780411
 30
0.0
 10
6.065008562883431
 20
15.5968551478041
 30
0.0
 10
6.23096474591466
 20
15.5968551478041
 30
0.0
 10
6.31572760151272
 20
15.59685514780411
 30
0.0
  0
SPLINE
  5
119
330
1F
100
AcDbEntity
  8
0
  6
Continuous
 62
     7
370
    25
100
AcDbSpline
210
0.0
220
0.0
230
1.0
 70
     8
 71
     3
 72
    15
 73
    11
 74
     0
 42
0.00000001
 43
0.00000001
 40
0.0
 40
0.0
 40
0.0
 40
0.0
 40
0.1505500549658688
 40
0.3011668548368261
 40
0.451716964010671
 40
0.6023341172760613
 40
0.7017121348312167
 40
0.8010901576163615
 40
0.9005450780393568
 40
1.0
 40
1.0
 40
1.0
 40
1.0
 10
5.85820854554933
 20
31.39230786145907
 30
0.0
 10
5.270946181870646
 20
31.39596597516141
 30
0.0
 10
4.096161097446426
 20
31.40328382435531
 30
0.0
 10
2.331600437924213
 20
31.4108280539168
 30
0.0
 10
0.565929797198586
 20
31.41492274544048
 30
0.0
 10
-0.9997642303432267
 20
31.41405826189148
 30
0.0
 10
-2.365059635272647
 20
31.41041094410494
 30
0.0
 10
-3.529948191145777
 20
31.40569262769812
 30
0.0
 10
-4.694533694517318
 20
31.39969667926229
 30
0.0
 10
-5.470316926539633
 20
31.39477080073951
 30
0.0
 10
-5.858208545549337
 20
31.39230786145908
 30
0.0
  0
LWPOLYLINE
  5
11A
330
1F
100
AcDbEntity
  8
0
  6
Continuous
 62
     7
370
    25
100
AcDbPolyline
 90
        3
 70
   128
 43
0.0
 10
5.8909848773
 20
30.7602125982
 10
5.8699165563
 20
31.1665901507
 10
5.8582085455
 20
31.3923078615
  0
LWPOLYLINE
  5
11C
330
1F
100
AcDbEntity
  8
0
  6
Continuous
 62
     7
370
    25
100
AcDbPolyline
 90
        3
 70
   128
 43
0.0
 10
-5.8582085455
 20
31.3923078615
 10
-5.8699165563
 20
31.1665901507
 10
-5.8909848773
 20
30.7602125982
  0
SPLINE
  5
11D
330
1F
100
AcDbEntity
  8
0
  6
Continuous
 62
     7
370
    25
100
AcDbSpline
210
0.0
220
0.0
230
1.0
 70
     8
 71
     3
 72
    15
 73
    11
 74
     0
 42
0.00000001
 43
0.00000001
 40
0.0
 40
0.0
 40
0.0
 40
0.0
 40
0.0993646237968598
 40
0.1987291850733936
 40
0.2981840652760979
 40
0.3976388292002754
 40
0.5482139075078863
 40
0.698873861509015
 40
0.8493977706996542
 40
1.0
 40
1.0
 40
1.0
 40
1.0
 10
-5.830228297858521
 20
31.81869400903123
 30
0.0
 10
-5.444642694462419
 20
31.82110543144265
 30
0.0
 10
-4.673471730281082
 20
31.82592827474822
 30
0.0
 10
-3.514943272713213
 20
31.83168173060134
 30
0.0
 10
-2.355338036481939
 20
31.83616660746151
 30
0.0
 10
-0.995962871251604
 20
31.83959696450161
 30
0.0
 10
0.5631211216227855
 20
31.8404079829461
 30
0.0
 10
2.320522251975829
 20
31.83656580528865
 30
0.0
 10
4.076973007203491
 20
31.82941871984372
 30
0.0
 10
5.24570854189038
 20
31.82226953244778
 30
0.0
 10
5.830228297858514
 20
31.81869400903122
 30
0.0
  0
LWPOLYLINE
  5
11E
330
1F
100
AcDbEntity
  8
0
  6
Continuous
 62
     7
370
    25
100
AcDbPolyline
 90
        9
 70
   128
 43
0.0
 10
5.8302282979
 20
31.818694009
 10
5.8360071283
 20
31.8094872096
 10
5.8414613295
 20
31.784767431
 10
5.8463989226
 20
31.7454047683
 10
5.8506461126
 20
31.6927847214
 10
5.8540534056
 20
31.6287594283
 10
5.8565008704
 20
31.5555824723
 10
5.8579023604
 20
31.4758295602
 10
5.8582085455
 20
31.3923078615
  0
LWPOLYLINE
  5
11F
330
1F
100
AcDbEntity
  8
0
  6
Continuous
 62
     7
370
    25
100
AcDbPolyline
 90
        9
 70
   128
 43
0.0
 10
-5.8302282979
 20
31.818694009
 10
-5.8360071283
 20
31.8094872096
 10
-5.8414613295
 20
31.784767431
 10
-5.8463989226
 20
31.7454047683
 10
-5.8506461126
 20
31.6927847214
 10
-5.8540534056
 20
31.6287594283
 10
-5.8565008704
 20
31.5555824723
 10
-5.8579023604
 20
31.4758295602
 10
-5.8582085455
 20
31.3923078615
  0
SPLINE
  5
123
330
1F
100
AcDbEntity
  8
0
  6
Continuous
 62
     7
370
    25
100
AcDbSpline
210
0.0
220
0.0
230
1.0
 70
     8
 71
     3
 72
    16
 73
    12
 74
     0
 42
0.00000001
 43
0.00000001
 40
0.0
 40
0.0
 40
0.0
 40
0.0
 40
0.1142782158203392
 40
0.2285555515434134
 40
0.342860224867255
 40
0.4571644627458133
 40
0.5713268414031313
 40
0.6854894226976451
 40
0.7995961135811817
 40
0.9137035508851615
 40
1.0
 40
1.0
 40
1.0
 40
1.0
 10
5.890984877315066
 20
30.76021259816085
 30
0.0
 10
5.946804953153807
 20
30.76059054828583
 30
0.0
 10
6.058444674940996
 20
30.76134644562505
 30
0.0
 10
6.21876671093744
 20
30.76217097529057
 30
0.0
 10
6.36771081359154
 20
30.76272842247815
 30
0.0
 10
6.501358980516063
 20
30.76299389753874
 30
0.0
 10
6.615207763188656
 20
30.76295308870521
 30
0.0
 10
6.707047218508006
 20
30.76261975826777
 30
0.0
 10
6.772790258450147
 20
30.76198747539363
 30
0.0
 10
6.810479690357334
 20
30.7611741941854
 30
0.0
 10
6.816529682049989
 20
30.76050203738403
 30
0.0
 10
6.819134885020748
 20
30.76021259816085
 30
0.0
  0
SPLINE
  5
125
330
1F
100
AcDbEntity
  8
0
  6
Continuous
 62
     7
370
    25
100
AcDbSpline
210
0.0
220
0.0
230
1.0
 70
    24
 71
     3
 72
    16
 73
    12
 74
     0
 42
0.00000001
 43
0.00000001
 40
0.0
 40
0.0
 40
0.0
 40
0.0
 40
0.0863101498182315
 40
0.2004198316650627
 40
0.3145284798085683
 40
0.4286797431232739
 40
0.542830725635639
 40
0.6571267817006565
 40
0.7714234410517938
 40
0.885711111328684
 40
1.0
 40
1.0
 40
1.0
 40
1.0
 10
6.669383182706549
 20
30.60236220472441
 30
0.0
 10
6.667181533039243
 20
30.60236220472441
 30
0.0
 10
6.662069107019394
 20
30.60236220472441
 30
0.0
 10
6.630070128400294
 20
30.6023622047244
 30
0.0
 10
6.574217163345259
 20
30.60236220472441
 30
0.0
 10
6.496165681846898
 20
30.6023622047244
 30
0.0
 10
6.399393897208991
 20
30.6023622047244
 30
0.0
 10
6.285777926808792
 20
30.60236220472442
 30
0.0
 10
6.159146945749693
 20
30.60236220472441
 30
0.0
 10
6.022835280891519
 20
30.60236220472441
 30
0.0
 10
5.927915713053348
 20
30.60236220472441
 30
0.0
 10
5.880455676156722
 20
30.60236220472441
 30
0.0
  0
SPLINE
  5
126
330
1F
100
AcDbEntity
  8
0
  6
Continuous
 62
     7
370
    25
100
AcDbSpline
210
0.0
220
0.0
230
1.0
 70
     8
 71
     3
 72
    16
 73
    12
 74
     0
 42
0.00000001
 43
0.00000001
 40
0.0
 40
0.0
 40
0.0
 40
0.0
 40
0.0876082858161131
 40
0.2015455578118193
 40
0.3154825114088164
 40
0.4294993833592111
 40
0.543516177781452
 40
0.6576709438510515
 40
0.7718258799667915
 40
0.8859127372554287
 40
1.0
 40
1.0
 40
1.0
 40
1.0
 10
6.786750160669684
 20
31.39223591033863
 30
0.0
 10
6.784100187354531
 20
31.39298379431875
 30
0.0
 10
6.778003842185652
 20
31.3947043244324
 30
0.0
 10
6.739929916638813
 20
31.39685405604953
 30
0.0
 10
6.674025860913832
 20
31.39855104505142
 30
0.0
 10
6.582086279529547
 20
31.39945646744122
 30
0.0
 10
6.468193411855039
 20
31.39956958639055
 30
0.0
 10
6.334562364076882
 20
31.39884204173658
 30
0.0
 10
6.185696025791206
 20
31.3973460318349
 30
0.0
 10
6.025503362362893
 20
31.395168371007
 30
0.0
 10
5.913973550548465
 20
31.39326136577127
 30
0.0
 10
5.85820854554933
 20
31.39230786145907
 30
0.0
  0
LWPOLYLINE
  5
127
330
1F
100
AcDbEntity
  8
0
  6
Continuous
 62
     7
370
    25
100
AcDbPolyline
 90
        3
 70
   128
 43
0.0
 10
6.7867501607
 20
31.3922359103
 10
6.7983160053
 20
31.1665901507
 10
6.819134885
 20
30.7602125982
  0
SPLINE
  5
129
330
1F
100
AcDbEntity
  8
0
  6
Continuous
 62
     7
370
    25
100
AcDbSpline
210
0.0
220
0.0
230
1.0
 70
     8
 71
     3
 72
    16
 73
    12
 74
     0
 42
0.00000001
 43
0.00000001
 40
0.0
 40
0.0
 40
0.0
 40
0.0
 40
0.1142782172032014
 40
0.2285555543635946
 40
0.3428602279715672
 40
0.4571644661392615
 40
0.5713268501530844
 40
0.685489436797891
 40
0.7995961253086615
 40
0.9137035602750132
 40
0.9999999999999999
 40
0.9999999999999999
 40
0.9999999999999999
 40
0.9999999999999999
 10
-6.819134885020752
 20
30.76021259816085
 30
0.0
 10
-6.814979775028461
 20
30.76059053335402
 30
0.0
 10
-6.806669587041884
 20
30.76134640082992
 30
0.0
 10
-6.759062440762448
 20
30.76217092173232
 30
0.0
 10
-6.686324242222741
 20
30.76272838222208
 30
0.0
 10
-6.588969634157616
 20
30.76299388531319
 30
0.0
 10
-6.469544248019221
 20
30.76295310864342
 30
0.0
 10
-6.332138903121901
 20
30.76261980387645
 30
0.0
 10
-6.179961140351317
 20
30.76198752841944
 30
0.0
 10
-6.031093338640939
 20
30.76117423366875
 30
0.0
 10
-5.933157350729979
 20
30.7605020492583
 30
0.0
 10
-5.890984877315068
 20
30.76021259816085
 30
0.0
  0
SPLINE
  5
12A
330
1F
100
AcDbEntity
  8
0
  6
Continuous
 62
     7
370
    25
100
AcDbSpline
210
0.0
220
0.0
230
1.0
 70
    24
 71
     3
 72
    16
 73
    12
 74
     0
 42
0.00000001
 43
0.00000001
 40
0.0
 40
0.0
 40
0.0
 40
0.0
 40
0.0863101411656618
 40
0.2004198204717896
 40
0.3145284660333527
 40
0.4286797344339561
 40
0.5428307220704466
 40
0.6571267788486417
 40
0.7714234389300179
 40
0.8857111103076676
 40
1.0
 40
1.0
 40
1.0
 40
1.0
 10
-5.880455676156723
 20
30.60236220472441
 30
0.0
 10
-5.916314278133775
 20
30.60236220472441
 30
0.0
 10
-5.999581139635207
 20
30.60236220472441
 30
0.0
 10
-6.126154914109958
 20
30.60236220472441
 30
0.0
 10
-6.255535556231333
 20
30.6023622047244
 30
0.0
 10
-6.372348558117117
 20
30.6023622047244
 30
0.0
 10
-6.473865348674471
 20
30.60236220472441
 30
0.0
 10
-6.556605962174119
 20
30.6023622047244
 30
0.0
 10
-6.618410773536047
 20
30.60236220472442
 30
0.0
 10
-6.658838653704985
 20
30.6023622047244
 30
0.0
 10
-6.665868327216634
 20
30.6023622047244
 30
0.0
 10
-6.669383182706563
 20
30.60236220472441
 30
0.0
  0
SPLINE
  5
12B
330
1F
100
AcDbEntity
  8
0
  6
Continuous
 62
     7
370
    25
100
AcDbSpline
210
0.0
220
0.0
230
1.0
 70
     8
 71
     3
 72
    16
 73
    12
 74
     0
 42
0.00000001
 43
0.00000001
 40
0.0
 40
0.0
 40
0.0
 40
0.0
 40
0.0875984812869761
 40
0.2015347926670323
 40
0.3154707869690604
 40
0.4294887749473814
 40
0.5435066877219116
 40
0.6576634993505852
 40
0.7718204832482921
 40
0.8859100389290968
 40
1.0
 40
1.0
 40
1.0
 40
1.0
 10
-5.858208545549337
 20
31.39230786145908
 30
0.0
 10
-5.901046052578963
 20
31.39304797010994
 30
0.0
 10
-5.999600821688547
 20
31.3947507124556
 30
0.0
 10
-6.148935674889531
 20
31.39688285823388
 30
0.0
 10
-6.300868112824102
 20
31.39856633243024
 30
0.0
 10
-6.438028862918804
 20
31.39946186561853
 30
0.0
 10
-6.557223736001682
 20
31.3995662711803
 30
0.0
 10
-6.654372415414397
 20
31.39882931918936
 30
0.0
 10
-6.726926114954447
 20
31.39732067659373
 30
0.0
 10
-6.774384493496792
 20
31.39512578803019
 30
0.0
 10
-6.782628266730019
 20
31.39319920404343
 30
0.0
 10
-6.786750160669692
 20
31.39223591033864
 30
0.0
  0
LWPOLYLINE
  5
12C
330
1F
100
AcDbEntity
  8
0
  6
Continuous
 62
     7
370
    25
100
AcDbPolyline
 90
        3
 70
   128
 43
0.0
 10
-6.819134885
 20
30.7602125982
 10
-6.7983160053
 20
31.1665901507
 10
-6.7867501607
 20
31.3922359103
  0
SPLINE
  5
12D
330
1F
100
AcDbEntity
  8
0
  6
Continuous
 62
     7
370
    25
100
AcDbSpline
210
0.0
220
0.0
230
1.0
 70
     8
 71
     3
 72
    16
 73
    12
 74
     0
 42
0.00000001
 43
0.00000001
 40
0.0
 40
0.0
 40
0.0
 40
0.0
 40
0.1139361850274205
 40
0.2278776392014258
 40
0.3421696173511634
 40
0.4564644752471526
 40
0.5706662968958479
 40
0.6848668001234185
 40
0.7987568632742118
 40
0.9126420332570446
 40
1.0
 40
1.0
 40
1.0
 40
1.0
 10
-6.344243185833741
 20
31.81862419989356
 30
0.0
 10
-6.341808257950822
 20
31.81845497552726
 30
0.0
 10
-6.336938289578161
 20
31.81811651896863
 30
0.0
 10
-6.31030548364968
 20
31.81783986817169
 30
0.0
 10
-6.26992214741339
 20
31.81767525640091
 30
0.0
 10
-6.216033675281041
 20
31.81761229879018
 30
0.0
 10
-6.15009727935928
 20
31.81762390020567
 30
0.0
 10
-6.074344693134114
 20
31.81771960039748
 30
0.0
 10
-5.990518687184604
 20
31.81792183381914
 30
0.0
 10
-5.908193652291078
 20
31.81822856327273
 30
0.0
 10
-5.85382798184365
 20
31.81855312116004
 30
0.0
 10
-5.83022829785852
 20
31.81869400903123
 30
0.0
  0
SPLINE
  5
12F
330
1F
100
AcDbEntity
  8
0
  6
Continuous
 62
     7
370
    25
100
AcDbSpline
210
0.0
220
0.0
230
1.0
 70
     8
 71
     3
 72
    16
 73
    12
 74
     0
 42
0.00000001
 43
0.00000001
 40
0.0
 40
0.0
 40
0.0
 40
0.0
 40
0.113894107415809
 40
0.2277938777962387
 40
0.3420715413414262
 40
0.4563521082290465
 40
0.5705580011485976
 40
0.6847625398304213
 40
0.7986804913506177
 40
0.9125937687087335
 40
1.0
 40
1.0
 40
1.0
 40
1.0
 10
5.830228297858514
 20
31.81869400903122
 30
0.0
 10
5.860980187249497
 20
31.81851523220537
 30
0.0
 10
5.922485495055799
 20
31.81815766966468
 30
0.0
 10
6.010804692756652
 20
31.8178643779103
 30
0.0
 10
6.092939107317873
 20
31.81768755118146
 30
0.0
 10
6.166770197550124
 20
31.8176155104226
 30
0.0
 10
6.229817912919831
 20
31.81761867521391
 30
0.0
 10
6.280831665990585
 20
31.81770477949312
 30
0.0
 10
6.317588699150619
 20
31.81789388118409
 30
0.0
 10
6.339012927332306
 20
31.81818357548545
 30
0.0
 10
6.342659824459776
 20
31.81849080922691
 30
0.0
 10
6.344243185833732
 20
31.81862419989356
 30
0.0
  0
SPLINE
  5
131
330
1F
100
AcDbEntity
  8
0
  6
Continuous
 62
     7
370
    25
100
AcDbSpline
210
0.0
220
0.0
230
1.0
 70
     8
 71
     3
 72
    10
 73
     6
 74
     0
 42
0.00000001
 43
0.00000001
 40
0.0
 40
0.0
 40
0.0
 40
0.0
 40
0.012026462939172
 40
0.5057462918291135
 40
1.0
 40
1.0
 40
1.0
 40
1.0
 10
-6.336846611566167
 20
31.82615310789294
 30
0.0
 10
-6.337215134742178
 20
31.82615002539542
 30
0.0
 10
-6.352712561596888
 20
31.82602039778171
 30
0.0
 10
-6.359808012719679
 20
31.82351233055332
 30
0.0
 10
-6.349433330212857
 20
31.82025416366085
 30
0.0
 10
-6.344243185833741
 20
31.81862419989356
 30
0.0
  0
SPLINE
  5
132
330
1F
100
AcDbEntity
  8
0
  6
Continuous
 62
     7
370
    25
100
AcDbSpline
210
0.0
220
0.0
230
1.0
 70
     8
 71
     3
 72
    10
 73
     6
 74
     0
 42
0.00000001
 43
0.00000001
 40
0.0
 40
0.0
 40
0.0
 40
0.0
 40
0.4330312961629168
 40
0.8664142357812082
 40
0.9999999999999999
 40
0.9999999999999999
 40
0.9999999999999999
 40
0.9999999999999999
 10
6.344243185833732
 20
31.81862419989356
 30
0.0
 10
6.349268862922489
 20
31.82008389972426
 30
0.0
 10
6.359324298205628
 20
31.82300448473624
 30
0.0
 10
6.353836909778956
 20
31.82552617695355
 30
0.0
 10
6.338463810516937
 20
31.82587562191648
 30
0.0
 10
6.334841693106521
 20
31.825957956042
 30
0.0
  0
SPLINE
  5
133
330
1F
100
AcDbEntity
  8
0
  6
Continuous
 62
     7
370
    25
100
AcDbSpline
210
0.0
220
0.0
230
1.0
 70
     8
 71
     3
 72
    15
 73
    11
 74
     0
 42
0.00000001
 43
0.00000001
 40
0.0
 40
0.0
 40
0.0
 40
0.0
 40
0.1627473075645348
 40
0.3302194303744931
 40
0.3310818150291071
 40
0.4942191154494298
 40
0.6621001305795498
 40
0.8253866910160509
 40
0.9934074367989273
 40
1.0
 40
1.0
 40
1.0
 40
1.0
 10
0.0
 20
31.92103314570096
 30
0.0
 10
-0.0741699007893892
 20
31.92108785418254
 30
0.0
 10
-0.2246629734928678
 20
31.92119885942065
 30
0.0
 10
-0.3714849124985988
 20
31.92178931724675
 30
0.0
 10
-0.5138649286093027
 20
31.9224937820583
 30
0.0
 10
-0.6523040869419147
 20
31.92333627946858
 30
0.0
 10
-0.8409356802901936
 20
31.92483189226087
 30
0.0
 10
-1.003564264941112
 20
31.92625988350913
 30
0.0
 10
-1.1039222228639
 20
31.92721075644267
 30
0.0
 10
-1.140037984133154
 20
31.92744466033221
 30
0.0
 10
-1.141401542501689
 20
31.92745349142408
 30
0.0
  0
SPLINE
  5
134
330
1F
100
AcDbEntity
  8
0
  6
Continuous
 62
     7
370
    25
100
AcDbSpline
210
0.0
220
0.0
230
1.0
 70
     8
 71
     3
 72
     9
 73
     5
 74
     0
 42
0.00000001
 43
0.00000001
 40
0.0
 40
0.0
 40
0.0
 40
0.0
 40
0.166974415526574
 40
1.0
 40
1.0
 40
1.0
 40
1.0
 10
-1.333145581672585
 20
31.92584819914485
 30
0.0
 10
-1.33294095857702
 20
31.92576085494565
 30
0.0
 10
-1.33171548283621
 20
31.92523775564971
 30
0.0
 10
-1.312069740272672
 20
31.92431957050295
 30
0.0
 10
-1.295704334091266
 20
31.92355469878442
 30
0.0
  0
SPLINE
  5
135
330
1F
100
AcDbEntity
  8
0
  6
Continuous
 62
     7
370
    25
100
AcDbSpline
210
0.0
220
0.0
230
1.0
 70
     8
 71
     3
 72
     9
 73
     5
 74
     0
 42
0.00000001
 43
0.00000001
 40
0.0
 40
0.0
 40
0.0
 40
0.0
 40
0.8505575961311644
 40
1.0
 40
1.0
 40
1.0
 40
1.0
 10
1.295326575818793
 20
31.92354823862009
 30
0.0
 10
1.311943866544464
 20
31.92431927975745
 30
0.0
 10
1.331480804197194
 20
31.92522579230977
 30
0.0
 10
1.332928020591512
 20
31.92574483296648
 30
0.0
 10
1.333144296088397
 20
31.92582239964993
 30
0.0
  0
SPLINE
  5
136
330
1F
100
AcDbEntity
  8
0
  6
Continuous
 62
     7
370
    25
100
AcDbSpline
210
0.0
220
0.0
230
1.0
 70
     8
 71
     3
 72
    14
 73
    10
 74
     0
 42
0.00000001
 43
0.00000001
 40
0.0
 40
0.0
 40
0.0
 40
0.0
 40
0.0065575427299474
 40
0.1698969746027246
 40
0.3379668656432024
 40
0.5012002379738925
 40
0.6691772987529567
 40
0.8322163305353103
 40
0.9999999999999999
 40
0.9999999999999999
 40
0.9999999999999999
 40
0.9999999999999999
 10
1.141040764588584
 20
31.9274504895901
 30
0.0
 10
1.139690447918588
 20
31.92744180913666
 30
0.0
 10
1.104705587516508
 20
31.9272169104453
 30
0.0
 10
1.004507215054332
 20
31.92626775773675
 30
0.0
 10
0.8438832154329667
 20
31.92485714071674
 30
0.0
 10
0.6537273591866732
 20
31.92334517192854
 30
0.0
 10
0.4479028454563382
 20
31.92209478488484
 30
0.0
 10
0.2271732469621706
 20
31.9212070917178
 30
0.0
 10
0.0764449939239905
 20
31.92109167945165
 30
0.0
 10
0.0
 20
31.92103314570096
 30
0.0
  0
SPLINE
  5
137
330
1F
100
AcDbEntity
  8
0
  6
Continuous
 62
     7
370
    25
100
AcDbSpline
210
0.0
220
0.0
230
1.0
 70
     8
 71
     3
 72
   129
 73
   125
 74
     0
 42
0.00000001
 43
0.00000001
 40
0.0
 40
0.0
 40
0.0
 40
0.0
 40
0.0056290999024669
 40
0.0145341310618544
 40
0.0269878005507461
 40
0.0421434561532139
 40
0.0527914346521517
 40
0.065667137060993
 40
0.080083140436477
 40
0.0907434619472543
 40
0.105094606252871
 40
0.1264822675852504
 40
0.1432072440941574
 40
0.158038933553374
 40
0.1747812171006227
 40
0.1891368219535402
 40
0.2025256120991137
 40
0.2169226380190916
 40
0.2312101902254717
 40
0.2464155001406395
 40
0.2551620054162919
 40
0.263599171206819
 40
0.2713998072538403
 40
0.2793113190785445
 40
0.2881237950766597
 40
0.2978392158479563
 40
0.3110260968396827
 40
0.3214287521883411
 40
0.3272227360802027
 40
0.3313297221684082
 40
0.3345722449759102
 40
0.3410306394591366
 40
0.3474833179351078
 40
0.3534176522300633
 40
0.3602608228313289
 40
0.3677989953462898
 40
0.3707790221180428
 40
0.3761642049827858
 40
0.3836081820662045
 40
0.3929739884819457
 40
0.4026556992768038
 40
0.4113283061239603
 40
0.4205595866008651
 40
0.4259678984622836
 40
0.4386965988545329
 40
0.4446495132744722
 40
0.4509742064707972
 40
0.4581929139378879
 40
0.4660910907305918
 40
0.4716399760578206
 40
0.4751819879864086
 40
0.4793310345044345
 40
0.4868951325892202
 40
0.4966218890884515
 40
0.5085231732561586
 40
0.5172871075863176
 40
0.5519013705286728
 40
0.5671028792625693
 40
0.5690912903012084
 40
0.5710790994538041
 40
0.5730663260138766
 40
0.5750530187550663
 40
0.5770392272096482
 40
0.5790250009852221
 40
0.5790896068692974
 40
0.5796704140874378
 40
0.5813476399110433
 40
0.5877958078963074
 40
0.5926953922566939
 40
0.5965666267962986
 40
0.6012198329987911
 40
0.6056943840685819
 40
0.6099905431463228
 40
0.6141081528377073
 40
0.6162333721188841
 40
0.6240795951369701
 40
0.6344517530074932
 40
0.6424031157304337
 40
0.650765374022308
 40
0.6588166889715403
 40
0.6668776558318742
 40
0.6749510142627358
 40
0.680510530601442
 40
0.685387268725056
 40
0.6892807698055299
 40
0.6938702698883911
 40
0.699162724915805
 40
0.7051679003876835
 40
0.7118968469541367
 40
0.7193574485113686
 40
0.7383076840481441
 40
0.7600894906927868
 40
0.7646865987126219
 40
0.7693923489391998
 40
0.7742025923832428
 40
0.7791116628315298
 40
0.7841194926930172
 40
0.7892496888906624
 40
0.793545387787274
 40
0.7976730597724615
 40
0.8016132769077707
 40
0.8057194358036314
 40
0.8091558572440626
 40
0.8132532711701583
 40
0.8161305612458127
 40
0.8182421827262164
 40
0.8223812334335947
 40
0.8265516398122641
 40
0.8297346716187296
 40
0.8328412582476497
 40
0.8381916871434094
 40
0.8439240042434614
 40
0.8507498460560713
 40
0.8560044502026697
 40
0.859687438763976
 40
0.8713817080571784
 40
0.8825789872036696
 40
0.8940960394813465
 40
0.9036257888399256
 40
0.9171738888807913
 40
0.9298137907147196
 40
0.9532762001587399
 40
0.9766281115119609
 40
1.0
 40
1.0
 40
1.0
 40
1.0
 10
-7.127137445205773
 20
15.24580415593366
 30
0.0
 10
-7.12719239602181
 20
15.24582722254915
 30
0.0
 10
-7.127334277028733
 20
15.24588677971079
 30
0.0
 10
-7.125482376401832
 20
15.2459872032171
 30
0.0
 10
-7.121370213355122
 20
15.24603458826984
 30
0.0
 10
-7.114239571474113
 20
15.24600090816936
 30
0.0
 10
-7.104606547163679
 20
15.24595657741575
 30
0.0
 10
-7.092974616857357
 20
15.24592338999729
 30
0.0
 10
-7.078859788217009
 20
15.24583670041074
 30
0.0
 10
-7.061911079159607
 20
15.24575921054794
 30
0.0
 10
-7.039246876388829
 20
15.24567284670843
 30
0.0
 10
-7.008996710067708
 20
15.24573148309775
 30
0.0
 10
-6.973186476097388
 20
15.24624761879234
 30
0.0
 10
-6.936342984079612
 20
15.24702337085267
 30
0.0
 10
-6.897347046533274
 20
15.24791842193462
 30
0.0
 10
-6.855809153922733
 20
15.24890003557636
 30
0.0
 10
-6.813280183766748
 20
15.24976063056707
 30
0.0
 10
-6.767853114308562
 20
15.25080298698134
 30
0.0
 10
-6.717411670386051
 20
15.25190339614007
 30
0.0
 10
-6.670846489358941
 20
15.25234731428587
 30
0.0
 10
-6.629778090077884
 20
15.25262247099828
 30
0.0
 10
-6.597245530894528
 20
15.25273413765128
 30
0.0
 10
-6.56503490594113
 20
15.25276948181777
 30
0.0
 10
-6.531564127204729
 20
15.25271216910093
 30
0.0
 10
-6.494609157111456
 20
15.25255910222359
 30
0.0
 10
-6.44912645532803
 20
15.25227293476166
 30
0.0
 10
-6.399855951368991
 20
15.25187009644238
 30
0.0
 10
-6.354991985961516
 20
15.25145306861988
 30
0.0
 10
-6.323321693207579
 20
15.25114901052716
 30
0.0
 10
-6.302552927618318
 20
15.25094731971154
 30
0.0
 10
-6.280527512431398
 20
15.25075021493648
 30
0.0
 10
-6.254439495558656
 20
15.25052873702103
 30
0.0
 10
-6.223502289115697
 20
15.25025549746614
 30
0.0
 10
-6.191444008770325
 20
15.24999899941512
 30
0.0
 10
-6.157005722272618
 20
15.24936559045779
 30
0.0
 10
-6.127046685706379
 20
15.24873942946975
 30
0.0
 10
-6.099276969734015
 20
15.24826332237314
 30
0.0
 10
-6.071425574871961
 20
15.24792851101505
 30
0.0
 10
-6.03178451085238
 20
15.247482521693
 30
0.0
 10
-5.983679235369157
 20
15.2469213345089
 30
0.0
 10
-5.932394070526345
 20
15.24627139511762
 30
0.0
 10
-5.880257686956834
 20
15.24569895558993
 30
0.0
 10
-5.835134530640422
 20
15.24504002336627
 30
0.0
 10
-5.781162737489908
 20
15.24426267288145
 30
0.0
 10
-5.732589954901476
 20
15.24358706918518
 30
0.0
 10
-5.681051791109018
 20
15.24288665760134
 30
0.0
 10
-5.640319040551837
 20
15.24240069247697
 30
0.0
 10
-5.594873332109996
 20
15.24193118803933
 30
0.0
 10
-5.550397425984083
 20
15.24149293729337
 30
0.0
 10
-5.51336281839674
 20
15.24114647226773
 30
0.0
 10
-5.484243430256665
 20
15.24086695103951
 30
0.0
 10
-5.450439100612614
 20
15.24054686266835
 30
0.0
 10
-5.402382364740692
 20
15.24012818317382
 30
0.0
 10
-5.335822644126925
 20
15.23963637428543
 30
0.0
 10
-5.265000688589802
 20
15.23926346320265
 30
0.0
 10
-5.133560638341049
 20
15.23880115237175
 30
0.0
 10
-4.988515989211587
 20
15.23871204006782
 30
0.0
 10
-4.854722297953132
 20
15.23863756228924
 30
0.0
 10
-4.804500525301676
 20
15.23858324348892
 30
0.0
 10
-4.788834081282102
 20
15.23856426965484
 30
0.0
 10
-4.773122532376099
 20
15.23854279933338
 30
0.0
 10
-4.757365588770916
 20
15.23851923062057
 30
0.0
 10
-4.741562574588051
 20
15.23849096363099
 30
0.0
 10
-4.730823947656305
 20
15.23847443495226
 30
0.0
 10
-4.723812131353899
 20
15.23845699272232
 30
0.0
 10
-4.717619055184991
 20
15.23843823959311
 30
0.0
 10
-4.69436375229522
 20
15.23836745233397
 30
0.0
 10
-4.659348862109273
 20
15.23824119064819
 30
0.0
 10
-4.618071399678962
 20
15.23806377542916
 30
0.0
 10
-4.581413822851857
 20
15.23788670414745
 30
0.0
 10
-4.54568332907485
 20
15.23769777706915
 30
0.0
 10
-4.508526863024621
 20
15.23748047654276
 30
0.0
 10
-4.472614535682146
 20
15.2372517411302
 30
0.0
 10
-4.44305756252105
 20
15.23704470007191
 30
0.0
 10
-4.403354038415992
 20
15.23676411417254
 30
0.0
 10
-4.345577740031327
 20
15.23630977341273
 30
0.0
 10
-4.27017272016998
 20
15.2355822044352
 30
0.0
 10
-4.192123478371433
 20
15.23461058946052
 30
0.0
 10
-4.119901775295994
 20
15.23352291039845
 30
0.0
 10
-4.046387639731259
 20
15.23228726020902
 30
0.0
 10
-3.972800274928162
 20
15.23094266480869
 30
0.0
 10
-3.905948672296839
 20
15.2296272272052
 30
0.0
 10
-3.848298454519736
 20
15.22842865781689
 30
0.0
 10
-3.803278684200006
 20
15.2274655760797
 30
0.0
 10
-3.760985385620095
 20
15.22653218763112
 30
0.0
 10
-3.717044003537072
 20
15.22553933662491
 30
0.0
 10
-3.665903506015804
 20
15.22436283257026
 30
0.0
 10
-3.607252631873225
 20
15.22299535317052
 30
0.0
 10
-3.54072757585118
 20
15.22144491830726
 30
0.0
 10
-3.430018172381232
 20
15.21897211708995
 30
0.0
 10
-3.264493010563214
 20
15.21598445461207
 30
0.0
 10
-3.102657636295465
 20
15.21473394334116
 30
0.0
 10
-2.98919330457963
 20
15.21390215544089
 30
0.0
 10
-2.937277736711268
 20
15.21348678611459
 30
0.0
 10
-2.883816725324081
 20
15.21308132592075
 30
0.0
 10
-2.828837737546924
 20
15.21274207230229
 30
0.0
 10
-2.772259906820382
 20
15.21251071830935
 30
0.0
 10
-2.717531182045487
 20
15.21221516924253
 30
0.0
 10
-2.665677968930252
 20
15.21151886097884
 30
0.0
 10
-2.618035774773902
 20
15.21075489721537
 30
0.0
 10
-2.570823017937748
 20
15.20998225127145
 30
0.0
 10
-2.526026142636752
 20
15.20942390476604
 30
0.0
 10
-2.480403892427824
 20
15.2093057261318
 30
0.0
 10
-2.439389934305692
 20
15.20934929893828
 30
0.0
 10
-2.40341963316693
 20
15.20935259880648
 30
0.0
 10
-2.367164326696138
 20
15.2093151654074
 30
0.0
 10
-2.325601728154275
 20
15.20917095362175
 30
0.0
 10
-2.279515290610912
 20
15.20891945395273
 30
0.0
 10
-2.237363109588536
 20
15.20862491019481
 30
0.0
 10
-2.190258360514583
 20
15.2082577356781
 30
0.0
 10
-2.132507872614865
 20
15.20779412415972
 30
0.0
 10
-2.059079470602575
 20
15.20720058867023
 30
0.0
 10
-1.985476407824456
 20
15.20667482544701
 30
0.0
 10
-1.919887327244417
 20
15.20626284477467
 30
0.0
 10
-1.833626590299472
 20
15.20580191668711
 30
0.0
 10
-1.721625272525898
 20
15.20537143500147
 30
0.0
 10
-1.5750487365078
 20
15.20469976321978
 30
0.0
 10
-1.436438660152872
 20
15.20433710420013
 30
0.0
 10
-1.286421716301208
 20
15.20420414297342
 30
0.0
 10
-1.130022166158345
 20
15.20412294595466
 30
0.0
 10
-0.9100651833955948
 20
15.20447292237496
 30
0.0
 10
-0.6421859096525504
 20
15.20577598846538
 30
0.0
 10
-0.3217378591032518
 20
15.20926549959621
 30
0.0
 10
-0.107276518503781
 20
15.20986329355403
 30
0.0
 10
-0.0000000008721829
 20
15.21016231832874
 30
0.0
  0
SPLINE
  5
138
330
1F
100
AcDbEntity
  8
0
  6
Continuous
 62
     7
370
    25
100
AcDbSpline
210
0.0
220
0.0
230
1.0
 70
     8
 71
     3
 72
    12
 73
     8
 74
     0
 42
0.00000001
 43
0.00000001
 40
0.0
 40
0.0
 40
0.0
 40
0.0
 40
0.2376839713103843
 40
0.4752715141601471
 40
0.7139538011916301
 40
0.8931362242640044
 40
0.9999999999999999
 40
0.9999999999999999
 40
0.9999999999999999
 40
0.9999999999999999
 10
-3.760059056891089
 20
10.29384792826785
 30
0.0
 10
-3.781826753606948
 20
10.24602818111544
 30
0.0
 10
-3.825353315877377
 20
10.1504080872968
 30
0.0
 10
-3.886624357966187
 20
10.07042920345642
 30
0.0
 10
-3.939124341342226
 20
10.04030617125392
 30
0.0
 10
-3.979296255606054
 20
10.03783994077301
 30
0.0
 10
-3.999390005390163
 20
10.05492930982961
 30
0.0
 10
-4.006896813659488
 20
10.06131371385225
 30
0.0
  0
SPLINE
  5
139
330
1F
100
AcDbEntity
  8
0
  6
Continuous
 62
     7
370
    25
100
AcDbSpline
210
0.0
220
0.0
230
1.0
 70
     8
 71
     3
 72
    12
 73
     8
 74
     0
 42
0.00000001
 43
0.00000001
 40
0.0
 40
0.0
 40
0.0
 40
0.0
 40
0.1074966531503813
 40
0.2865513063222777
 40
0.5250650464709221
 40
0.7624847935650677
 40
1.0
 40
1.0
 40
1.0
 40
1.0
 10
4.007048744351118
 20
10.06142447971403
 30
0.0
 10
3.999492523977124
 20
10.05499437206919
 30
0.0
 10
3.979350084602773
 20
10.0378537849772
 30
0.0
 10
3.939125634342199
 20
10.04029773435772
 30
0.0
 10
3.886624645688447
 20
10.07043327362886
 30
0.0
 10
3.825353313428492
 20
10.1504074067838
 30
0.0
 10
3.781826672900761
 20
10.24602781466094
 30
0.0
 10
3.760058978327971
 20
10.29384762819029
 30
0.0
  0
SPLINE
  5
13A
330
1F
100
AcDbEntity
  8
0
  6
Continuous
 62
     7
370
    25
100
AcDbSpline
210
0.0
220
0.0
230
1.0
 70
     8
 71
     3
 72
   124
 73
   120
 74
     0
 42
0.00000001
 43
0.00000001
 40
0.0
 40
0.0
 40
0.0
 40
0.0
 40
0.0232584901092342
 40
0.04648722507453
 40
0.0701457484017535
 40
0.0936816033665808
 40
0.1169761131351189
 40
0.1403499685994599
 40
0.1637628741351231
 40
0.1871676557456038
 40
0.2104892475845999
 40
0.2341976206809407
 40
0.2562961610859172
 40
0.2807198668193013
 40
0.3055341709258169
 40
0.3301493390523939
 40
0.3356587037669422
 40
0.3411621698496914
 40
0.3466594492500222
 40
0.3523986822264358
 40
0.3585450815837899
 40
0.3639778297711062
 40
0.3688877240889206
 40
0.3782877073178337
 40
0.3848988214030766
 40
0.3888393701999815
 40
0.3944362447293633
 40
0.4022106985531915
 40
0.4075259887894495
 40
0.4135249807375307
 40
0.4202075199275279
 40
0.4231082034152198
 40
0.4259411592415369
 40
0.4293430988714806
 40
0.4333140996906441
 40
0.4466006783853649
 40
0.46100013857015
 40
0.4725248587172087
 40
0.4840586185464013
 40
0.4937123360129667
 40
0.5027905084373512
 40
0.5139063323960495
 40
0.5277202295584923
 40
0.5398538911913876
 40
0.5531679317060749
 40
0.5546847303483963
 40
0.5561490322077707
 40
0.5575608154983623
 40
0.5589200515085337
 40
0.5602267054458958
 40
0.5614807372525882
 40
0.57194464406565
 40
0.5786716866087055
 40
0.5821507864857499
 40
0.5889760966713928
 40
0.5963236674426682
 40
0.6023664595952101
 40
0.6109059489590152
 40
0.6200730758078792
 40
0.6307720130918695
 40
0.640052238978808
 40
0.6495272538521394
 40
0.6712204139441958
 40
0.674630829888557
 40
0.6780409190568034
 40
0.6814499263296063
 40
0.6848578789079084
 40
0.6870119761971862
 40
0.6892002666847196
 40
0.6937987469864525
 40
0.7008053872786112
 40
0.7056602707986795
 40
0.7100085430122651
 40
0.7143561297094833
 40
0.7187034263093689
 40
0.7359985646006253
 40
0.753274599719941
 40
0.7705847932111544
 40
0.7877367457915918
 40
0.7911250264990444
 40
0.7950744742981528
 40
0.8010014271090782
 40
0.8080694355782775
 40
0.812717504521126
 40
0.8175206799225683
 40
0.820842694317837
 40
0.8242347332147959
 40
0.8276966080583898
 40
0.8312280964032618
 40
0.834828940250416
 40
0.8384988443727617
 40
0.8422374746321669
 40
0.8559667494564189
 40
0.8663888922992057
 40
0.8735076806175066
 40
0.8778303795964782
 40
0.8897147919990612
 40
0.8995971086581112
 40
0.9074933296273945
 40
0.9142674923996224
 40
0.9236872122541799
 40
0.9328654420866976
 40
0.9384004304604987
 40
0.9438456469594261
 40
0.9483209889727202
 40
0.9515369506857644
 40
0.9557941246772074
 40
0.9616802220669712
 40
0.9688283124241848
 40
0.9709093034814134
 40
0.9730771230396447
 40
0.9753318546287686
 40
0.9776735933574977
 40
0.9801024469520182
 40
0.9826185368480395
 40
0.9837969088990913
 40
0.9872809611307097
 40
0.9928269145175768
 40
1.0
 40
1.0
 40
1.0
 40
1.0
 10
0.0000000019222528
 20
15.21016231832862
 30
0.0
 10
0.1067178062235158
 20
15.2098583723756
 30
0.0
 10
0.3200168881808099
 20
15.2092508693149
 30
0.0
 10
0.6401855121372362
 20
15.20580952167549
 30
0.0
 10
0.9574137050820605
 20
15.20429041195176
 30
0.0
 10
1.268033250360713
 20
15.20392226821144
 30
0.0
 10
1.57131827853022
 20
15.20466303598393
 30
0.0
 10
1.86838119496319
 20
15.20579565886465
 30
0.0
 10
2.158797064530225
 20
15.20811789710511
 30
0.0
 10
2.439895076290215
 20
15.20896277199682
 30
0.0
 10
2.713948023452485
 20
15.21247540480207
 30
0.0
 10
2.972073522971517
 20
15.21320086163473
 30
0.0
 10
3.225376843358741
 20
15.21570403969339
 30
0.0
 10
3.471628472204825
 20
15.21957498602684
 30
0.0
 10
3.713858309218937
 20
15.22555669033442
 30
0.0
 10
3.88602136405675
 20
15.22929961989038
 30
0.0
 10
3.995140887553537
 20
15.23138072672644
 30
0.0
 10
4.045261939455145
 20
15.23228186590959
 30
0.0
 10
4.095636138782211
 20
15.23313046998385
 30
0.0
 10
4.147473789334149
 20
15.23394354604156
 30
0.0
 10
4.19862312464131
 20
15.23466814174293
 30
0.0
 10
4.246864114119844
 20
15.23527359572041
 30
0.0
 10
4.304138806704749
 20
15.2358947963702
 30
0.0
 10
4.364136154224662
 20
15.23644207140119
 30
0.0
 10
4.420635441597511
 20
15.23687447135577
 30
0.0
 10
4.465994608299222
 20
15.2372094601315
 30
0.0
 10
4.514267362928519
 20
15.23754595925933
 30
0.0
 10
4.565844625118884
 20
15.23784517513899
 30
0.0
 10
4.618001966714354
 20
15.23809602849886
 30
0.0
 10
4.666744660831081
 20
15.2382906991634
 30
0.0
 10
4.708530052632337
 20
15.23842540995344
 30
0.0
 10
4.741574184896712
 20
15.23851293762202
 30
0.0
 10
4.765776037704447
 20
15.23856030786725
 30
0.0
 10
4.792679287963296
 20
15.23860162684324
 30
0.0
 10
4.846817978406238
 20
15.23866151640019
 30
0.0
 10
4.928639657911938
 20
15.23869129174057
 30
0.0
 10
5.027692518906864
 20
15.23869006988299
 30
0.0
 10
5.120186595492267
 20
15.23877819155472
 30
0.0
 10
5.199263250244115
 20
15.23896717685504
 30
0.0
 10
5.270937995537088
 20
15.23930267976118
 30
0.0
 10
5.340330705809045
 20
15.23967532264563
 30
0.0
 10
5.417849476161099
 20
15.24019978729188
 30
0.0
 10
5.50029578594604
 20
15.24088619840764
 30
0.0
 10
5.585469366078872
 20
15.24176546703634
 30
0.0
 10
5.642482391039579
 20
15.2424552550127
 30
0.0
 10
5.676386571036026
 20
15.24288942746567
 30
0.0
 10
5.685496804055097
 20
15.24300760708793
 30
0.0
 10
5.694252475013362
 20
15.24312259343607
 30
0.0
 10
5.702656391274002
 20
15.24323440910599
 30
0.0
 10
5.710711202265925
 20
15.24334283542263
 30
0.0
 10
5.737398098181003
 20
15.24370883295913
 30
0.0
 10
5.774690028280488
 20
15.24421155438595
 30
0.0
 10
5.815619019876514
 20
15.24477175357896
 30
0.0
 10
5.848907580973485
 20
15.2452366480503
 30
0.0
 10
5.882926725967097
 20
15.24564800739073
 30
0.0
 10
5.921149793868556
 20
15.24591493769116
 30
0.0
 10
5.962007724925659
 20
15.24660455420154
 30
0.0
 10
6.005615554613758
 20
15.2476625895985
 30
0.0
 10
6.056837078151747
 20
15.2482175985884
 30
0.0
 10
6.108306682412415
 20
15.24875250858913
 30
0.0
 10
6.159149490442207
 20
15.2493216734241
 30
0.0
 10
6.227404104266633
 20
15.25012865753604
 30
0.0
 10
6.283538535558629
 20
15.25073934570714
 30
0.0
 10
6.328353823619698
 20
15.25122714656529
 30
0.0
 10
6.344287624340796
 20
15.25138703838357
 30
0.0
 10
6.360074396591653
 20
15.2515337290988
 30
0.0
 10
6.373797516069878
 20
15.25165206564897
 30
0.0
 10
6.385565080770411
 20
15.25174021194969
 30
0.0
 10
6.399064051849637
 20
15.25186305142486
 30
0.0
 10
6.419700187989613
 20
15.25203518349489
 30
0.0
 10
6.443943934401508
 20
15.25222464782641
 30
0.0
 10
6.467437813573637
 20
15.25238593389279
 30
0.0
 10
6.486832224940716
 20
15.25250309741211
 30
0.0
 10
6.505276828826905
 20
15.25259797545289
 30
0.0
 10
6.541585575947681
 20
15.25274735371469
 30
0.0
 10
6.594293367860923
 20
15.25281562204718
 30
0.0
 10
6.661082361442539
 20
15.2524280450647
 30
0.0
 10
6.723961972201141
 20
15.25180605456931
 30
0.0
 10
6.766924342717732
 20
15.25081116113872
 30
0.0
 10
6.793486419588881
 20
15.25025820658804
 30
0.0
 10
6.807630775196786
 20
15.24996682469292
 30
0.0
 10
6.825272588178964
 20
15.24958807610136
 30
0.0
 10
6.843045907952177
 20
15.2491979178136
 30
0.0
 10
6.859169899661667
 20
15.24883282226947
 30
0.0
 10
6.87131245663935
 20
15.24855068840579
 30
0.0
 10
6.882008649556484
 20
15.24829908907788
 30
0.0
 10
6.89127442651588
 20
15.24807971630531
 30
0.0
 10
6.900537976960579
 20
15.24785996691151
 30
0.0
 10
6.909786291134694
 20
15.24764121934748
 30
0.0
 10
6.919005958711533
 20
15.24742490728527
 30
0.0
 10
6.928183037212128
 20
15.24721288716058
 30
0.0
 10
6.945372276296676
 20
15.24682296593777
 30
0.0
 10
6.966700212787474
 20
15.24638934570844
 30
0.0
 10
6.988569417875101
 20
15.24603856771422
 30
0.0
 10
7.002844594345607
 20
15.24585509630131
 30
0.0
 10
7.01737939550897
 20
15.24572645343177
 30
0.0
 10
7.032541284734349
 20
15.24568694623953
 30
0.0
 10
7.048150950936997
 20
15.24569787887922
 30
0.0
 10
7.060005872161433
 20
15.24574476310706
 30
0.0
 10
7.070795875489782
 20
15.24579828494751
 30
0.0
 10
7.081207197559449
 20
15.24586172535001
 30
0.0
 10
7.090058052338587
 20
15.2459203975595
 30
0.0
 10
7.096748713072102
 20
15.24595734726566
 30
0.0
 10
7.101474620754772
 20
15.24597793737769
 30
0.0
 10
7.105178917776603
 20
15.24598017106279
 30
0.0
 10
7.108329685867337
 20
15.24599264254251
 30
0.0
 10
7.111612147078231
 20
15.24600893107593
 30
0.0
 10
7.115432183182314
 20
15.24602493784616
 30
0.0
 10
7.118281778216678
 20
15.24602959897574
 30
0.0
 10
7.120163890663185
 20
15.24602705341139
 30
0.0
 10
7.121167529320874
 20
15.24602398781681
 30
0.0
 10
7.12213480776107
 20
15.24601894781542
 30
0.0
 10
7.123056259953906
 20
15.24601188425411
 30
0.0
 10
7.123922032300225
 20
15.24600170823617
 30
0.0
 10
7.124570594073934
 20
15.24599331782767
 30
0.0
 10
7.12526191784446
 20
15.24597500386905
 30
0.0
 10
7.126106948573526
 20
15.24593988333681
 30
0.0
 10
7.127158688231455
 20
15.24587547770569
 30
0.0
 10
7.127211939414073
 20
15.24581934799329
 30
0.0
 10
7.127241971186824
 20
15.24578769283213
 30
0.0
  0
SPLINE
  5
13B
330
1F
100
AcDbEntity
  8
0
  6
Continuous
 62
     7
370
    25
100
AcDbSpline
210
0.0
220
0.0
230
1.0
 70
     8
 71
     3
 72
     9
 73
     5
 74
     0
 42
0.00000001
 43
0.00000001
 40
0.0
 40
0.0
 40
0.0
 40
0.0
 40
0.4062406527330066
 40
1.0
 40
1.0
 40
1.0
 40
1.0
 10
3.964165389713033
 20
10.05566750313566
 30
0.0
 10
3.958547400456549
 20
10.03394120723945
 30
0.0
 10
3.944718185633537
 20
9.980459863730273
 30
0.0
 10
3.951678950588847
 20
9.925212923862661
 30
0.0
 10
3.955811969845191
 20
9.892409536908369
 30
0.0
  0
SPLINE
  5
13C
330
1F
100
AcDbEntity
  8
0
  6
Continuous
 62
     7
370
    25
100
AcDbSpline
210
0.0
220
0.0
230
1.0
 70
     8
 71
     3
 72
     9
 73
     5
 74
     0
 42
0.00000001
 43
0.00000001
 40
0.0
 40
0.0
 40
0.0
 40
0.0
 40
0.3524247515710665
 40
1.0
 40
1.0
 40
1.0
 40
1.0
 10
-3.961534415154574
 20
10.04228218799961
 30
0.0
 10
-3.957185113740005
 20
10.02499031656638
 30
0.0
 10
-3.944844035551879
 20
9.97592488811352
 30
0.0
 10
-3.951500472371885
 20
9.925234313155213
 30
0.0
 10
-3.955811016099253
 20
9.892408351483583
 30
0.0
  0
SPLINE
  5
13E
330
1F
100
AcDbEntity
  8
0
  6
Continuous
 62
     7
370
    25
100
AcDbSpline
210
0.0
220
0.0
230
1.0
 70
     8
 71
     3
 72
    13
 73
     9
 74
     0
 42
0.00000001
 43
0.00000001
 40
0.0
 40
0.0
 40
0.0
 40
0.0
 40
0.1491473499416847
 40
0.2982944498025089
 40
0.4477643247908789
 40
0.5966359685204121
 40
0.8933349406575433
 40
0.9999999999999999
 40
0.9999999999999999
 40
0.9999999999999999
 40
0.9999999999999999
 10
4.644689751990581
 20
1.430432196477271
 30
0.0
 10
4.646310250601494
 20
1.410055145429391
 30
0.0
 10
4.649551245106171
 20
1.369301077500583
 30
0.0
 10
4.655155526032966
 20
1.308520776200405
 30
0.0
 10
4.660763425259294
 20
1.248362763595704
 30
0.0
 10
4.668235601933286
 20
1.169767115015183
 30
0.0
 10
4.675200425671776
 20
1.09786060280781
 30
0.0
 10
4.679231981797443
 20
1.049062099781534
 30
0.0
 10
4.680298081250607
 20
1.036157887172324
 30
0.0
  0
SPLINE
  5
140
330
1F
100
AcDbEntity
  8
0
  6
Continuous
 62
     7
370
    25
100
AcDbSpline
210
0.0
220
0.0
230
1.0
 70
     8
 71
     3
 72
    12
 73
     8
 74
     0
 42
0.00000001
 43
0.00000001
 40
0.0
 40
0.0
 40
0.0
 40
0.0
 40
0.2023618583110872
 40
0.4041281785018133
 40
0.6075044360141808
 40
0.9030463606635877
 40
1.0
 40
1.0
 40
1.0
 40
1.0
 10
-4.644601006684172
 20
1.430425135943906
 30
0.0
 10
-4.646871123061171
 20
1.40328589652682
 30
0.0
 10
-4.651404675006583
 20
1.349087286753773
 30
0.0
 10
-4.658874806296388
 20
1.268363923568384
 30
0.0
 10
-4.667509835309487
 20
1.177223861191457
 30
0.0
 10
-4.674911637082062
 20
1.100983571316657
 30
0.0
 10
-4.678778160309181
 20
1.054303036029551
 30
0.0
 10
-4.67973326281949
 20
1.042772083332159
 30
0.0
  0
SPLINE
  5
141
330
1F
100
AcDbEntity
  8
0
  6
Continuous
 62
     7
370
    25
100
AcDbSpline
210
0.0
220
0.0
230
1.0
 70
     8
 71
     3
 72
     9
 73
     5
 74
     0
 42
0.00000001
 43
0.00000001
 40
0.0
 40
0.0
 40
0.0
 40
0.0
 40
0.2033861660954958
 40
1.0
 40
1.0
 40
1.0
 40
1.0
 10
3.956671687107381
 20
9.908878293343072
 30
0.0
 10
3.956843496486948
 20
9.907989193952025
 30
0.0
 10
3.957688241156003
 20
9.903617709853009
 30
0.0
 10
3.956643346217405
 20
9.897379063332469
 30
0.0
 10
3.955810968454344
 20
9.892409271209367
 30
0.0
  0
SPLINE
  5
144
330
1F
100
AcDbEntity
  8
0
  6
Continuous
 62
     7
370
    25
100
AcDbSpline
210
0.0
220
0.0
230
1.0
 70
     8
 71
     3
 72
     9
 73
     5
 74
     0
 42
0.00000001
 43
0.00000001
 40
0.0
 40
0.0
 40
0.0
 40
0.0
 40
0.7663677737085212
 40
1.0
 40
1.0
 40
1.0
 40
1.0
 10
-4.756466822417088
 20
0.0561208726326528
 30
0.0
 10
-4.759348264048075
 20
0.0561264445764952
 30
0.0
 10
-4.763108131999001
 20
0.056133715163847
 30
0.0
 10
-4.762123983691344
 20
0.0561039258229273
 30
0.0
 10
-4.761894054931227
 20
0.0560969660728895
 30
0.0
  0
SPLINE
  5
147
330
1F
100
AcDbEntity
  8
0
  6
Continuous
 62
     7
370
    25
100
AcDbSpline
210
0.0
220
0.0
230
1.0
 70
     8
 71
     3
 72
    21
 73
    17
 74
     0
 42
0.00000001
 43
0.00000001
 40
0.0
 40
0.0
 40
0.0
 40
0.0
 40
0.1023769720192842
 40
0.1932875504497618
 40
0.2887916828408029
 40
0.3695168757747183
 40
0.4443799409490158
 40
0.5134408859792929
 40
0.5775145781845562
 40
0.6418885149774971
 40
0.711047963171855
 40
0.760277074788173
 40
0.8120928862700857
 40
0.8664107392021251
 40
0.9371765261522214
 40
1.0
 40
1.0
 40
1.0
 40
1.0
 10
-5.577188475860924
 20
30.40207629699822
 30
0.0
 10
-5.638789567751696
 20
30.40203609902317
 30
0.0
 10
-5.755092325312797
 20
30.40196020531408
 30
0.0
 10
-5.927790570045323
 20
30.40159937378378
 30
0.0
 10
-6.0850139709636
 20
30.40117551764108
 30
0.0
 10
-6.227905661239759
 20
30.40080292250914
 30
0.0
 10
-6.349098558180482
 20
30.40054164382878
 30
0.0
 10
-6.452237260458469
 20
30.40038979020285
 30
0.0
 10
-6.538680202218356
 20
30.40031335891745
 30
0.0
 10
-6.611283000654606
 20
30.40024896874162
 30
0.0
 10
-6.664288124705802
 20
30.40026233388238
 30
0.0
 10
-6.702714308031974
 20
30.40034344161411
 30
0.0
 10
-6.730116764084354
 20
30.40046508507366
 30
0.0
 10
-6.752930352190539
 20
30.40064561784978
 30
0.0
 10
-6.768852041909213
 20
30.40087350141839
 30
0.0
 10
-6.772789185338846
 20
30.40102470907472
 30
0.0
 10
-6.774640719105926
 20
30.40109581801107
 30
0.0
  0
SPLINE
  5
148
330
1F
100
AcDbEntity
  8
0
  6
Continuous
 62
     7
370
    25
100
AcDbSpline
210
0.0
220
0.0
230
1.0
 70
     8
 71
     3
 72
    23
 73
    19
 74
     0
 42
0.00000001
 43
0.00000001
 40
0.0
 40
0.0
 40
0.0
 40
0.0
 40
0.0251177822260547
 40
0.0803148967967101
 40
0.1324115160821545
 40
0.2129179401898074
 40
0.2877411134610711
 40
0.356987863817393
 40
0.42149302837982
 40
0.4856277258449771
 40
0.5547877986216336
 40
0.60414226363275
 40
0.6561700559260755
 40
0.7107663140115289
 40
0.7816251292457005
 40
0.8553883432080241
 40
0.9179910331885807
 40
0.9999999999999999
 40
0.9999999999999999
 40
0.9999999999999999
 40
0.9999999999999999
 10
6.774478599902987
 20
30.40106200774484
 30
0.0
 10
6.774002553401925
 20
30.40103701297686
 30
0.0
 10
6.77248037977771
 20
30.40095709142198
 30
0.0
 10
6.764797972272476
 20
30.40080727306189
 30
0.0
 10
6.748361992731502
 20
30.40059586604965
 30
0.0
 10
6.719339914292741
 20
30.40038544168549
 30
0.0
 10
6.67183469785674
 20
30.40025848607814
 30
0.0
 10
6.611475862591997
 20
30.40024381335425
 30
0.0
 10
6.53890380158713
 20
30.40031330228487
 30
0.0
 10
6.452483282500347
 20
30.4003950675455
 30
0.0
 10
6.362039770958116
 20
30.40052937104635
 30
0.0
 10
6.271529651709476
 20
30.40071382570267
 30
0.0
 10
6.185156606505077
 20
30.40092001883314
 30
0.0
 10
6.08382154298671
 20
30.40118450188242
 30
0.0
 10
5.967274658615354
 20
30.40149159712479
 30
0.0
 10
5.844116320548128
 20
30.40179827495411
 30
0.0
 10
5.713367936356783
 20
30.40198722669337
 30
0.0
 10
5.62646879575051
 20
30.40204406442745
 30
0.0
 10
5.577188475643452
 20
30.40207629698705
 30
0.0
  0
SPLINE
  5
149
330
1F
100
AcDbEntity
  8
0
  6
Continuous
 62
     7
370
    25
100
AcDbSpline
210
0.0
220
0.0
230
1.0
 70
     8
 71
     3
 72
    28
 73
    24
 74
     0
 42
0.00000001
 43
0.00000001
 40
0.0
 40
0.0
 40
0.0
 40
0.0
 40
0.0386627460445444
 40
0.0766089592618746
 40
0.1141757323187743
 40
0.1515993165435444
 40
0.2076486833009898
 40
0.2629350340493484
 40
0.3173675574591652
 40
0.3711336292566699
 40
0.424837362508556
 40
0.4789621314817483
 40
0.5336462648890761
 40
0.5813484094603385
 40
0.6281944536361941
 40
0.6743021194575938
 40
0.7206796018799342
 40
0.7688379426126111
 40
0.8180239585035212
 40
0.8661875706371501
 40
0.9135925214826075
 40
0.9772179178505266
 40
1.0
 40
1.0
 40
1.0
 40
1.0
 10
-2.710039536219816
 20
16.19761096690764
 30
0.0
 10
-2.820996522253095
 20
16.1978351775337
 30
0.0
 10
-3.0408541395328
 20
16.19827944351258
 30
0.0
 10
-3.345707794450727
 20
16.20016752539831
 30
0.0
 10
-3.631910231456832
 20
16.20279768988578
 30
0.0
 10
-3.944897547573772
 20
16.20679079547293
 30
0.0
 10
-4.27547436665037
 20
16.21255338051134
 30
0.0
 10
-4.612177918995227
 20
16.22056609324597
 30
0.0
 10
-4.918405249038829
 20
16.22959544426354
 30
0.0
 10
-5.202293280309116
 20
16.2390580633706
 30
0.0
 10
-5.471941678441728
 20
16.24827425433445
 30
0.0
 10
-5.724807652358096
 20
16.25765542442485
 30
0.0
 10
-5.945643712211875
 20
16.26720406915487
 30
0.0
 10
-6.131936696413367
 20
16.27724787031149
 30
0.0
 10
-6.29500214908846
 20
16.28661109111747
 30
0.0
 10
-6.45162633159628
 20
16.29485202311693
 30
0.0
 10
-6.613748156565451
 20
16.30072585391619
 30
0.0
 10
-6.766764286709323
 20
16.3057143992907
 30
0.0
 10
-6.880366759608779
 20
16.31281210625247
 30
0.0
 10
-6.959462690334687
 20
16.32160718520141
 30
0.0
 10
-7.026986994628428
 20
16.33089003155085
 30
0.0
 10
-7.076617890058791
 20
16.33751045317041
 30
0.0
 10
-7.087634314157113
 20
16.34155375998597
 30
0.0
 10
-7.090538890046928
 20
16.34261981294352
 30
0.0
  0
SPLINE
  5
14A
330
1F
100
AcDbEntity
  8
0
  6
Continuous
 62
     7
370
    25
100
AcDbSpline
210
0.0
220
0.0
230
1.0
 70
    24
 71
     3
 72
    33
 73
    29
 74
     0
 42
0.00000001
 43
0.00000001
 40
0.0
 40
0.0
 40
0.0
 40
0.0
 40
0.0374215151439552
 40
0.0829489960309253
 40
0.1284865467181968
 40
0.1737457907029181
 40
0.2190269421124893
 40
0.2647188437693741
 40
0.3104185551173163
 40
0.3559474020272964
 40
0.4013800237205046
 40
0.4469108146897917
 40
0.4925261576689063
 40
0.5381188638792711
 40
0.5836186298957281
 40
0.6291783626839595
 40
0.6750584388271836
 40
0.7211468681575036
 40
0.744065873874223
 40
0.7667955013696085
 40
0.7892748201034393
 40
0.8101134338691962
 40
0.8285273551705554
 40
0.8468849158402192
 40
0.8652703791925511
 40
0.90867280547338
 40
0.9533974393637155
 40
1.0
 40
1.0
 40
1.0
 40
1.0
 10
-7.092832318097899
 20
15.67407736734908
 30
0.0
 10
-7.083467532285105
 20
15.67407736734908
 30
0.0
 10
-7.062709431544721
 20
15.67407736734908
 30
0.0
 10
-7.000496975668958
 20
15.67407736734908
 30
0.0
 10
-6.921738857138958
 20
15.67407736734908
 30
0.0
 10
-6.808315814778234
 20
15.67407736734907
 30
0.0
 10
-6.634851391033127
 20
15.67407736734908
 30
0.0
 10
-6.437617320542619
 20
15.67407736734907
 30
0.0
 10
-6.246491362299616
 20
15.67407736734907
 30
0.0
 10
-6.044808747840514
 20
15.67407736734907
 30
0.0
 10
-5.817613670949657
 20
15.67407736734907
 30
0.0
 10
-5.561091991568492
 20
15.67407736734907
 30
0.0
 10
-5.282391397141476
 20
15.67407736734907
 30
0.0
 10
-4.987869930265254
 20
15.67407736734907
 30
0.0
 10
-4.674269587816498
 20
15.67407736734906
 30
0.0
 10
-4.333083714987409
 20
15.67407736734907
 30
0.0
 10
-3.957907167367634
 20
15.67407736734907
 30
0.0
 10
-3.614834187191275
 20
15.67407736734906
 30
0.0
 10
-3.322463395468959
 20
15.67407736734906
 30
0.0
 10
-3.095847165304143
 20
15.67407736734907
 30
0.0
 10
-2.866796375834438
 20
15.67407736734906
 30
0.0
 10
-2.644025184728308
 20
15.67407736734906
 30
0.0
 10
-2.429062379120327
 20
15.67407736734906
 30
0.0
 10
-2.217830546884981
 20
15.67407736734906
 30
0.0
 10
-1.904239966903438
 20
15.67407736734907
 30
0.0
 10
-1.475016883108005
 20
15.67407736734906
 30
0.0
 10
-0.9197996457148209
 20
15.67407736734906
 30
0.0
 10
-0.5383511586792418
 20
15.67407736734906
 30
0.0
 10
-0.3437051242878859
 20
15.67407736734906
 30
0.0
  0
SPLINE
  5
14B
330
1F
100
AcDbEntity
  8
0
  6
Continuous
 62
     7
370
    25
100
AcDbSpline
210
0.0
220
0.0
230
1.0
 70
     8
 71
     3
 72
    35
 73
    31
 74
     0
 42
0.00000001
 43
0.00000001
 40
0.0
 40
0.0
 40
0.0
 40
0.0
 40
0.0012642932631111
 40
0.0446130983931824
 40
0.0878681677593053
 40
0.1311560917259726
 40
0.1746305098928755
 40
0.2183277144660609
 40
0.2618851631332127
 40
0.3051775052370257
 40
0.3484085657041969
 40
0.3917293295850205
 40
0.4350442038310974
 40
0.4784508915325462
 40
0.5155410479821806
 40
0.5525015042046715
 40
0.5894159874073649
 40
0.6263323643485222
 40
0.6633112510973338
 40
0.7004802613776789
 40
0.7378252692582852
 40
0.7637986097986148
 40
0.7896951472044814
 40
0.8156269939520118
 40
0.84176409677648
 40
0.868263228197064
 40
0.9012118062245297
 40
0.9340614856881614
 40
0.9669773864960365
 40
1.0
 40
1.0
 40
1.0
 40
1.0
 10
-6.598405930861829
 20
16.79899714677628
 30
0.0
 10
-6.59927276349677
 20
16.79887836727775
 30
0.0
 10
-6.629860674356846
 20
16.79468699680278
 30
0.0
 10
-6.686572338272503
 20
16.7853197277013
 30
0.0
 10
-6.733795313568498
 20
16.77452429402276
 30
0.0
 10
-6.742394282569923
 20
16.76514358653603
 30
0.0
 10
-6.711698981574838
 20
16.75656966878691
 30
0.0
 10
-6.648050261833941
 20
16.74733358009316
 30
0.0
 10
-6.564627519728756
 20
16.73613733441139
 30
0.0
 10
-6.447074491653313
 20
16.72482433138872
 30
0.0
 10
-6.252542125703447
 20
16.71828603165586
 30
0.0
 10
-6.037588022764889
 20
16.71030953446581
 30
0.0
 10
-5.828754876018967
 20
16.69830332185384
 30
0.0
 10
-5.612162584331979
 20
16.68602201563156
 30
0.0
 10
-5.375611673774017
 20
16.67548488427879
 30
0.0
 10
-5.129101808025114
 20
16.6661911286065
 30
0.0
 10
-4.865220542129372
 20
16.65709122533077
 30
0.0
 10
-4.587946970852842
 20
16.6477659734567
 30
0.0
 10
-4.291118419023267
 20
16.63882034176704
 30
0.0
 10
-3.968025505096346
 20
16.63090027652501
 30
0.0
 10
-3.649538527439606
 20
16.62514805043494
 30
0.0
 10
-3.345115016105747
 20
16.62116171324213
 30
0.0
 10
-3.063120821344304
 20
16.61853253920679
 30
0.0
 10
-2.763471156545001
 20
16.61679914887401
 30
0.0
 10
-2.442939072311441
 20
16.61612056498301
 30
0.0
 10
-2.073498751386353
 20
16.61665462616111
 30
0.0
 10
-1.656919975852362
 20
16.61797549441839
 30
0.0
 10
-1.197915756367964
 20
16.61908710623808
 30
0.0
 10
-0.7310973249268845
 20
16.61903899173347
 30
0.0
 10
-0.4163424590802003
 20
16.61709830375855
 30
0.0
 10
-0.2587103317594191
 20
16.61612638939869
 30
0.0
  0
SPLINE
  5
14C
330
1F
100
AcDbEntity
  8
0
  6
Continuous
 62
     7
370
    25
100
AcDbSpline
210
0.0
220
0.0
230
1.0
 70
     8
 71
     3
 72
    28
 73
    24
 74
     0
 42
0.00000001
 43
0.00000001
 40
0.0
 40
0.0
 40
0.0
 40
0.0
 40
0.0052906470123881
 40
0.0654694678820691
 40
0.1253341913326124
 40
0.1766305451870182
 40
0.2294934325670396
 40
0.2834626384096576
 40
0.3350237466160015
 40
0.3850331020378005
 40
0.4357045456334924
 40
0.4872433344425079
 40
0.5392771031978763
 40
0.5911028291449651
 40
0.6427751207407055
 40
0.6946679149642749
 40
0.7470547791281561
 40
0.7998580815460722
 40
0.8531970719611406
 40
0.8894499975153187
 40
0.926113667879984
 40
0.9628923771956103
 40
1.0
 40
1.0
 40
1.0
 40
1.0
 10
7.327117438468359
 20
16.39611663621079
 30
0.0
 10
7.327544924997693
 20
16.39587893607601
 30
0.0
 10
7.332834885854428
 20
16.39293749974445
 30
0.0
 10
7.305731237307714
 20
16.38737933008127
 30
0.0
 10
7.252058617466692
 20
16.37826658621353
 30
0.0
 10
7.178387507115646
 20
16.36728204171058
 30
0.0
 10
7.086857868502663
 20
16.35576523310795
 30
0.0
 10
6.942806024421901
 20
16.34658976480179
 30
0.0
 10
6.758892716179272
 20
16.33838202985122
 30
0.0
 10
6.578983677768241
 20
16.32710386253582
 30
0.0
 10
6.398569563981045
 20
16.31364550464193
 30
0.0
 10
6.200975867912017
 20
16.29952540948625
 30
0.0
 10
5.974514307586313
 20
16.28623278286016
 30
0.0
 10
5.723557235513473
 20
16.27341511480244
 30
0.0
 10
5.454045697709273
 20
16.26075654370741
 30
0.0
 10
5.169469635530623
 20
16.24789496044926
 30
0.0
 10
4.863378448265642
 20
16.23561733537609
 30
0.0
 10
4.528088916592949
 20
16.22461092253607
 30
0.0
 10
4.19874443074168
 20
16.2163645137873
 30
0.0
 10
3.884253403695257
 20
16.21040336673428
 30
0.0
 10
3.594212851599932
 20
16.20622589067681
 30
0.0
 10
3.285788632784535
 20
16.20298998570324
 30
0.0
 10
3.063930651289982
 20
16.20183874654577
 30
0.0
 10
2.952507847406977
 20
16.2012605645304
 30
0.0
  0
SPLINE
  5
14D
330
1F
100
AcDbEntity
  8
0
  6
Continuous
 62
     7
370
    25
100
AcDbSpline
210
0.0
220
0.0
230
1.0
 70
    24
 71
     3
 72
    34
 73
    30
 74
     0
 42
0.00000001
 43
0.00000001
 40
0.0
 40
0.0
 40
0.0
 40
0.0
 40
0.0466705581161174
 40
0.0914604494236177
 40
0.1349262038961714
 40
0.1533384933522307
 40
0.1717228394089882
 40
0.1901636283273249
 40
0.2110326474136218
 40
0.2335447657109471
 40
0.2563075579992079
 40
0.2792600048351542
 40
0.3196473426202852
 40
0.3599230023625525
 40
0.399905139376588
 40
0.4397753295938766
 40
0.4796716631039444
 40
0.5196477313176607
 40
0.5596116529427734
 40
0.5995041499573874
 40
0.6450030624042674
 40
0.6905983404668444
 40
0.736364732275826
 40
0.7821233030056204
 40
0.8274705241635972
 40
0.8727958059223501
 40
0.9183998004629033
 40
0.9715804299844342
 40
1.0
 40
1.0
 40
1.0
 40
1.0
 10
0.5882503255553121
 20
15.67407736734906
 30
0.0
 10
0.7827915948676992
 20
15.67407736734906
 30
0.0
 10
1.164034773457574
 20
15.67407736734906
 30
0.0
 10
1.71887066057962
 20
15.67407736734907
 30
0.0
 10
2.147713787232632
 20
15.67407736734906
 30
0.0
 10
2.460962727820167
 20
15.67407736734906
 30
0.0
 10
2.671935116739174
 20
15.67407736734907
 30
0.0
 10
2.886600369333148
 20
15.67407736734906
 30
0.0
 10
3.109021062874516
 20
15.67407736734906
 30
0.0
 10
3.33766357019453
 20
15.67407736734906
 30
0.0
 10
3.563825449052026
 20
15.67407736734906
 30
0.0
 10
3.837240973688475
 20
15.67407736734906
 30
0.0
 10
4.147105883678841
 20
15.67407736734907
 30
0.0
 10
4.480562392745375
 20
15.67407736734906
 30
0.0
 10
4.786866652614957
 20
15.67407736734907
 30
0.0
 10
5.070098851514138
 20
15.67407736734907
 30
0.0
 10
5.335170862390623
 20
15.67407736734907
 30
0.0
 10
5.587968703763917
 20
15.67407736734907
 30
0.0
 10
5.827254728840081
 20
15.67407736734906
 30
0.0
 10
6.059577377265823
 20
15.67407736734908
 30
0.0
 10
6.275990276400112
 20
15.67407736734906
 30
0.0
 10
6.476326320259158
 20
15.67407736734908
 30
0.0
 10
6.666080679875359
 20
15.67407736734907
 30
0.0
 10
6.861967021740777
 20
15.67407736734907
 30
0.0
 10
7.034018249244038
 20
15.67407736734908
 30
0.0
 10
7.14617090649492
 20
15.67407736734908
 30
0.0
 10
7.227240912067845
 20
15.67407736734907
 30
0.0
 10
7.288455955176561
 20
15.67407736734908
 30
0.0
 10
7.303978946088056
 20
15.67407736734908
 30
0.0
 10
7.309385265307408
 20
15.67407736734908
 30
0.0
  0
SPLINE
  5
14E
330
1F
100
AcDbEntity
  8
0
  6
Continuous
 62
     7
370
    25
100
AcDbSpline
210
0.0
220
0.0
230
1.0
 70
     8
 71
     3
 72
    36
 73
    32
 74
     0
 42
0.00000001
 43
0.00000001
 40
0.0
 40
0.0
 40
0.0
 40
0.0
 40
0.0341776490171429
 40
0.068288153023083
 40
0.1023974587065573
 40
0.1365356559844536
 40
0.1635400124866311
 40
0.1904112184230676
 40
0.2173571184408527
 40
0.2444804273733567
 40
0.2714929912882766
 40
0.3098582538060201
 40
0.3481799617995117
 40
0.3866071295397539
 40
0.4250792141476787
 40
0.4634034915421691
 40
0.501588294923941
 40
0.5396775343667498
 40
0.5729968157616396
 40
0.606348307543675
 40
0.6397248177841931
 40
0.6731167024780275
 40
0.706593524181108
 40
0.740334941360892
 40
0.7739058871500284
 40
0.8073152767994388
 40
0.8517144347580661
 40
0.8959660776744582
 40
0.9401643728802358
 40
0.9844623785315804
 40
1.0
 40
1.0
 40
1.0
 40
1.0
 10
0.5020959884938532
 20
16.61630435463353
 30
0.0
 10
0.6604197855910061
 20
16.61737899085777
 30
0.0
 10
0.976756338697484
 20
16.61952615208845
 30
0.0
 10
1.446245613161963
 20
16.6200215482677
 30
0.0
 10
1.907853967914974
 20
16.61953757305789
 30
0.0
 10
2.324545516825201
 20
16.61902481076534
 30
0.0
 10
2.692452011682046
 20
16.61951196730138
 30
0.0
 10
3.011663732967776
 20
16.62133317767391
 30
0.0
 10
3.312632343241717
 20
16.62443275684463
 30
0.0
 10
3.596547825185875
 20
16.62865713384569
 30
0.0
 10
3.901388313313767
 20
16.63464948720722
 30
0.0
 10
4.21823827632987
 20
16.64291987717783
 30
0.0
 10
4.539909782969071
 20
16.65385236547837
 30
0.0
 10
4.836551920137541
 20
16.66606640840164
 30
0.0
 10
5.114356279184103
 20
16.67878778097923
 30
0.0
 10
5.377909927257376
 20
16.6913464767706
 30
0.0
 10
5.622274394406886
 20
16.70410580401417
 30
0.0
 10
5.833412432673049
 20
16.71692237810415
 30
0.0
 10
6.012084666070593
 20
16.72986456660202
 30
0.0
 10
6.171072979686208
 20
16.74173740677189
 30
0.0
 10
6.326081612240125
 20
16.75220281697816
 30
0.0
 10
6.485210792953449
 20
16.76018862548417
 30
0.0
 10
6.631364619584925
 20
16.76736191651393
 30
0.0
 10
6.736695802500426
 20
16.77647190068645
 30
0.0
 10
6.810335274644175
 20
16.78636978300846
 30
0.0
 10
6.876063714945279
 20
16.79610203966463
 30
0.0
 10
6.930856211111561
 20
16.80474689314862
 30
0.0
 10
6.959067012045182
 20
16.81264723237649
 30
0.0
 10
6.947074493072974
 20
16.82044190302847
 30
0.0
 10
6.912846236875107
 20
16.82706247257152
 30
0.0
 10
6.875104137518091
 20
16.8314943862215
 30
0.0
 10
6.865303580868805
 20
16.83264522895498
 30
0.0
  0
LWPOLYLINE
  5
152
330
1F
100
AcDbEntity
  8
0
  6
Continuous
 62
     7
370
    25
100
AcDbPolyline
 90
       10
 70
   128
 43
0.0
 10
-2.4693572472
 20
15.6740773673
 10
-2.4696563445
 20
15.6650062733
 10
-2.4700571027
 20
15.6590528935
 10
-2.4702596216
 20
15.6575615251
 10
-2.470361416
 20
15.6571871712
 10
-2.4704124469
 20
15.6570928268
 10
-2.4704379958
 20
15.6570688628
 10
-2.4704507786
 20
15.6570626828
 10
-2.4704635669
 20
15.6570603709
 10
-2.4704635669
 20
15.6570603709
  0
SPLINE
  5
154
330
1F
100
AcDbEntity
  8
0
  6
Continuous
 62
     7
370
    25
100
AcDbSpline
210
0.0
220
0.0
230
1.0
 70
     8
 71
     3
 72
    10
 73
     6
 74
     0
 42
0.00000001
 43
0.00000001
 40
0.0
 40
0.0
 40
0.0
 40
0.0
 40
0.4683401574960857
 40
0.9367949751425164
 40
1.0
 40
1.0
 40
1.0
 40
1.0
 10
1.046611431923369
 20
15.60212297538612
 30
0.0
 10
1.177685048400701
 20
15.60194527104946
 30
0.0
 10
1.439864371109637
 20
15.60158981887015
 30
0.0
 10
1.718855254512744
 20
15.60204139650318
 30
0.0
 10
1.860461684433388
 20
15.60288025527884
 30
0.0
 10
1.877296203815106
 20
15.60297998086563
 30
0.0
  0
SPLINE
  5
157
330
1F
100
AcDbEntity
  8
0
  6
Continuous
 62
     7
370
    25
100
AcDbSpline
210
0.0
220
0.0
230
1.0
 70
     8
 71
     3
 72
    10
 73
     6
 74
     0
 42
0.00000001
 43
0.00000001
 40
0.0
 40
0.0
 40
0.0
 40
0.0
 40
0.4859949221392935
 40
0.9722801258784414
 40
1.0
 40
1.0
 40
1.0
 40
1.0
 10
-0.8381417808418636
 20
15.60212565493
 30
0.0
 10
-0.9691214704287423
 20
15.60195932782186
 30
0.0
 10
-1.231159082917522
 20
15.60162657425948
 30
0.0
 10
-1.500195693910826
 20
15.60202178063218
 30
0.0
 10
-1.63211341697658
 20
15.60278958273908
 30
0.0
 10
-1.639227632059833
 20
15.60283098967973
 30
0.0
  0
SPLINE
  5
161
330
1F
100
AcDbEntity
  8
0
  6
Continuous
 62
     7
370
    25
100
AcDbSpline
210
0.0
220
0.0
230
1.0
 70
    24
 71
     3
 72
    10
 73
     6
 74
     0
 42
0.00000001
 43
0.00000001
 40
0.0
 40
0.0
 40
0.0
 40
0.0
 40
0.2104078222917493
 40
0.6191466975708732
 40
1.0
 40
1.0
 40
1.0
 40
1.0
 10
-4.340445328088359
 20
15.59685514780409
 30
0.0
 10
-4.340851512140632
 20
15.59685514780409
 30
0.0
 10
-4.342046750567759
 20
15.59685514780409
 30
0.0
 10
-4.326768021534511
 20
15.59685514780409
 30
0.0
 10
-4.30576238127805
 20
15.59685514780409
 30
0.0
 10
-4.295630483208173
 20
15.59685514780409
 30
0.0
  0
SPLINE
  5
162
330
1F
100
AcDbEntity
  8
0
  6
Continuous
 62
     7
370
    25
100
AcDbSpline
210
0.0
220
0.0
230
1.0
 70
    24
 71
     3
 72
    10
 73
     6
 74
     0
 42
0.00000001
 43
0.00000001
 40
0.0
 40
0.0
 40
0.0
 40
0.0
 40
0.3821691568972991
 40
0.7923202317605381
 40
1.0
 40
1.0
 40
1.0
 40
1.0
 10
4.532706783813399
 20
15.59685514780409
 30
0.0
 10
4.542806975933231
 20
15.59685514780409
 30
0.0
 10
4.563746882822055
 20
15.59685514780409
 30
0.0
 10
4.57890330167683
 20
15.5968551478041
 30
0.0
 10
4.57766440312549
 20
15.59685514780409
 30
0.0
 10
4.577247955538117
 20
15.59685514780409
 30
0.0
  0
SPLINE
  5
165
330
1F
100
AcDbEntity
  8
0
  6
Continuous
 62
     7
370
    25
100
AcDbSpline
210
0.0
220
0.0
230
1.0
 70
    24
 71
     3
 72
     9
 73
     5
 74
     0
 42
0.00000001
 43
0.00000001
 40
0.0
 40
0.0
 40
0.0
 40
0.0
 40
0.9834551301685587
 40
1.0
 40
1.0
 40
1.0
 40
1.0
 10
-2.517555746502319
 20
15.59685514780409
 30
0.0
 10
-2.509488542420967
 20
15.59685514780405
 30
0.0
 10
-2.501285622090509
 20
15.596855147804
 30
0.0
 10
-2.501182083967728
 20
15.5968551478041
 30
0.0
 10
-2.501180370942963
 20
15.59685514780409
 30
0.0
  0
SPLINE
  5
166
330
1F
100
AcDbEntity
  8
0
  6
Continuous
 62
     7
370
    25
100
AcDbSpline
210
0.0
220
0.0
230
1.0
 70
    24
 71
     3
 72
     9
 73
     5
 74
     0
 42
0.00000001
 43
0.00000001
 40
0.0
 40
0.0
 40
0.0
 40
0.0
 40
0.0122042190940122
 40
1.0
 40
1.0
 40
1.0
 40
1.0
 10
2.734585189834307
 20
15.59685514780409
 30
0.0
 10
2.734587099072213
 20
15.59685514780409
 30
0.0
 10
2.734743539880995
 20
15.59685514780402
 30
0.0
 10
2.742960303613586
 20
15.59685514780406
 30
0.0
 10
2.751076788161343
 20
15.5968551478041
 30
0.0
  0
SPLINE
  5
16E
330
1F
100
AcDbEntity
  8
0
  6
Continuous
 62
     7
370
    25
100
AcDbSpline
210
0.0
220
0.0
230
1.0
 70
    24
 71
     3
 72
    10
 73
     6
 74
     0
 42
0.00000001
 43
0.00000001
 40
0.0
 40
0.0
 40
0.0
 40
0.0
 40
0.325001707765066
 40
0.677153448144288
 40
1.0
 40
1.0
 40
1.0
 40
1.0
 10
-6.161813233472335
 20
15.59685514780411
 30
0.0
 10
-6.161010720614795
 20
15.59685514780411
 30
0.0
 10
-6.15933865448197
 20
15.59685514780411
 30
0.0
 10
-6.13773468422443
 20
15.59685514780411
 30
0.0
 10
-6.114450530896956
 20
15.59685514780411
 30
0.0
 10
-6.103313897365981
 20
15.59685514780411
 30
0.0
  0
SPLINE
  5
16F
330
1F
100
AcDbEntity
  8
0
  6
Continuous
 62
     7
370
    25
100
AcDbSpline
210
0.0
220
0.0
230
1.0
 70
    24
 71
     3
 72
    10
 73
     6
 74
     0
 42
0.00000001
 43
0.00000001
 40
0.0
 40
0.0
 40
0.0
 40
0.0
 40
0.3235452109597008
 40
0.676459028610592
 40
1.0
 40
1.0
 40
1.0
 40
1.0
 10
6.315727601116219
 20
15.59685514780411
 30
0.0
 10
6.326837314144509
 20
15.59685514780411
 30
0.0
 10
6.350065182858645
 20
15.59685514780411
 30
0.0
 10
6.371528391709344
 20
15.59685514780411
 30
0.0
 10
6.373122520447112
 20
15.59685514780411
 30
0.0
 10
6.373884974891507
 20
15.59685514780411
 30
0.0
  0
LINE
  5
176
330
1F
100
AcDbEntity
  8
0
  6
Continuous
 62
     7
370
    25
100
AcDbLine
 10
-3.9539826899
 20
10.0054874895
 30
0.0
 11
-3.9568696363
 21
9.9102200972
 31
0.0
  0
LINE
  5
177
330
1F
100
AcDbEntity
  8
0
  6
Continuous
 62
     7
370
    25
100
AcDbLine
 10
4.6475561462
 20
1.4251001633
 30
0.0
 11
3.9569900165
 21
9.9089042144
 31
0.0
  0
LINE
  5
178
330
1F
100
AcDbEntity
  8
0
  6
Continuous
 62
     7
370
    25
100
AcDbLine
 10
-3.9570102042
 20
9.9086562037
 30
0.0
 11
-4.6475557616
 21
1.4251048886
 31
0.0
  0
LINE
  5
179
330
1F
100
AcDbEntity
  8
0
  6
Continuous
 62
     7
370
    25
100
AcDbLine
 10
-7.0947979953
 20
16.3426198129
 30
0.0
 11
-7.0947979953
 21
15.6740773673
 31
0.0
  0
LINE
  5
17A
330
1F
100
AcDbEntity
  8
0
  6
Continuous
 62
     7
370
    25
100
AcDbLine
 10
7.3141306835
 20
15.6740773673
 30
0.0
 11
7.3141306835
 21
16.3895713706
 31
0.0
  0
LINE
  5
17B
330
1F
100
AcDbEntity
  8
0
  6
Continuous
 62
     7
370
    25
100
AcDbLine
 10
1.8682841337
 20
15.6347072886
 30
0.0
 11
1.8682841337
 21
15.6053667502
 31
0.0
  0
LINE
  5
17C
330
1F
100
AcDbEntity
  8
0
  6
Continuous
 62
     7
370
    25
100
AcDbLine
 10
6.8146032465
 20
15.6550850591
 30
0.0
 11
6.8242772933
 21
15.6569793908
 31
0.0
  0
LINE
  5
17D
330
1F
100
AcDbEntity
  8
0
  6
Continuous
 62
     7
370
    25
100
AcDbLine
 10
-1.6293943932
 20
15.6366573678
 30
0.0
 11
-1.6293943932
 21
15.6740773673
 31
0.0
  0
LINE
  5
17E
330
1F
100
AcDbEntity
  8
0
  6
Continuous
 62
     7
370
    25
100
AcDbLine
 10
-6.8331182404
 20
15.6740773673
 30
0.0
 11
-6.8331193132
 21
15.6540146007
 31
0.0
  0
LINE
  5
17F
330
1F
100
AcDbEntity
  8
0
  6
Continuous
 62
     7
370
    25
100
AcDbLine
 10
-4.3426304371
 20
15.6347072886
 30
0.0
 11
-4.3426304371
 21
15.5968551478
 31
0.0
  0
LINE
  5
180
330
1F
100
AcDbEntity
  8
0
  6
Continuous
 62
     7
370
    25
100
AcDbLine
 10
4.5794328139
 20
15.5968551478
 30
0.0
 11
4.5794328139
 21
15.6347072886
 31
0.0
  0
LINE
  5
181
330
1F
100
AcDbEntity
  8
0
  6
Continuous
 62
     7
370
    25
100
AcDbLine
 10
-2.4989449508
 20
15.5968551478
 30
0.0
 11
-2.4989449508
 21
15.6347072886
 31
0.0
  0
LINE
  5
182
330
1F
100
AcDbEntity
  8
0
  6
Continuous
 62
     7
370
    25
100
AcDbLine
 10
2.732284285
 20
15.6347072886
 30
0.0
 11
2.732284285
 21
15.5968551478
 31
0.0
  0
LINE
  5
183
330
1F
100
AcDbEntity
  8
0
  6
Continuous
 62
     7
370
    25
100
AcDbLine
 10
-6.1627146583
 20
15.6347072886
 30
0.0
 11
-6.1627146583
 21
15.5968551478
 31
0.0
  0
LINE
  5
184
330
1F
100
AcDbEntity
  8
0
  6
Continuous
 62
     7
370
    25
100
AcDbLine
 10
6.3748264028
 20
15.5968551478
 30
0.0
 11
6.3748264028
 21
15.6347072886
 31
0.0
  0
LINE
  5
185
330
1F
100
AcDbEntity
  8
0
  6
Continuous
 62
     7
370
    25
100
AcDbLine
 10
1.3779527559
 20
31.9326568739
 30
0.0
 11
1.3779527559
 21
32.0310820707
 31
0.0
  0
LINE
  5
186
330
1F
100
AcDbEntity
  8
0
  6
Continuous
 62
     7
370
    25
100
AcDbLine
 10
-1.3779527559
 20
32.0310820707
 30
0.0
 11
-1.3779527559
 21
31.9326568739
 31
0.0
  0
LINE
  5
187
330
1F
100
AcDbEntity
  8
0
  6
Continuous
 62
     7
370
    25
100
AcDbLine
 10
6.8274585534
 20
30.7602125982
 30
0.0
 11
6.7941411511
 21
31.3959465048
 31
0.0
  0
LINE
  5
188
330
1F
100
AcDbEntity
  8
0
  6
Continuous
 62
     7
370
    25
100
AcDbLine
 10
-6.7941415749
 20
31.3959384198
 30
0.0
 11
-6.8274585534
 21
30.7602125982
 31
0.0
  0
LINE
  5
189
330
1F
100
AcDbEntity
  8
0
  6
Continuous
 62
     7
370
    25
100
AcDbLine
 10
-1.3193910886
 20
31.9251282038
 30
0.0
 11
-1.3193781116
 21
31.9251266658
 31
0.0
  0
LINE
  5
18A
330
1F
100
AcDbEntity
  8
0
  6
Continuous
 62
     7
370
    25
100
AcDbLine
 10
1.3193916534
 20
31.925133883
 30
0.0
 11
1.319388989
 21
31.9251346522
 31
0.0
  0
LINE
  5
18B
330
1F
100
AcDbEntity
  8
0
  6
Continuous
 62
     7
370
    25
100
AcDbLine
 10
7.1272419712
 20
15.2457876928
 30
0.0
 11
7.1273039629
 21
15.2457704856
 31
0.0
  0
LINE
  5
18C
330
1F
100
AcDbEntity
  8
0
  6
Continuous
 62
     7
370
    25
100
AcDbLine
 10
3.9558109716
 20
9.8924092715
 30
0.0
 11
4.7564668314
 21
0.0561208734
 31
0.0
  0
LINE
  5
18D
330
1F
100
AcDbEntity
  8
0
  6
Continuous
 62
     7
370
    25
100
AcDbLine
 10
4.7564668314
 20
0.0561208734
 30
0.0
 11
4.365145489
 21
0.0562067561
 31
0.0
  0
LINE
  5
18E
330
1F
100
AcDbEntity
  8
0
  6
Continuous
 62
     7
370
    25
100
AcDbLine
 10
-4.7564668314
 20
0.0561208727
 30
0.0
 11
-3.9558110151
 21
9.8924083628
 31
0.0
  0
LINE
  5
18F
330
1F
100
AcDbEntity
  8
0
  6
Continuous
 62
     7
370
    25
100
AcDbLine
 10
-4.365152795
 20
0.0561208856
 30
0.0
 11
-4.7564668314
 21
0.0561208727
 31
0.0
  0
LINE
  5
190
330
1F
100
AcDbEntity
  8
0
  6
Continuous
 62
     7
370
    25
100
AcDbLine
 10
-4.6234379226
 20
-0.0885826772
 30
0.0
 11
-4.232123868
 21
-0.0885826772
 31
0.0
  0
LINE
  5
191
330
1F
100
AcDbEntity
  8
0
  6
Continuous
 62
     7
370
    25
100
AcDbLine
 10
4.232123868
 20
-0.0885826772
 30
0.0
 11
4.6234379135
 21
-0.0885826772
 31
0.0
  0
LINE
  5
192
330
1F
100
AcDbEntity
  8
0
  6
Continuous
 62
     7
370
    25
100
AcDbLine
 10
4.6446010068
 20
1.430425136
 30
0.0
 11
4.6468142012
 21
1.422692963
 31
0.0
  0
LINE
  5
193
330
1F
100
AcDbEntity
  8
0
  6
Continuous
 62
     7
370
    25
100
AcDbLine
 10
3.9555697296
 20
9.9157948904
 30
0.0
 11
3.9566716871
 21
9.9088782933
 31
0.0
  0
LINE
  5
194
330
1F
100
AcDbEntity
  8
0
  6
Continuous
 62
     7
370
    25
100
AcDbLine
 10
4.7592568507
 20
0.0560916842
 30
0.0
 11
4.7564668224
 21
0.0561208726
 31
0.0
  0
LINE
  5
195
330
1F
100
AcDbEntity
  8
0
  6
Continuous
 62
     7
370
    25
100
AcDbLine
 10
0.5882503256
 20
16.1972551672
 30
0.0
 11
0.5882503256
 21
15.6740773673
 31
0.0
  0
LINE
  5
196
330
1F
100
AcDbEntity
  8
0
  6
Continuous
 62
     7
370
    25
100
AcDbLine
 10
-0.3437051243
 20
16.197066219
 30
0.0
 11
-0.3437051243
 21
15.6740773673
 31
0.0
  0
LINE
  5
197
330
1F
100
AcDbEntity
  8
0
  6
Continuous
 62
     7
370
    25
100
AcDbLine
 10
-6.553562774
 20
16.8051531012
 30
0.0
 11
-6.5984059309
 21
16.7989971468
 31
0.0
  0
LINE
  5
198
330
1F
100
AcDbEntity
  8
0
  6
Continuous
 62
     7
370
    25
100
AcDbLine
 10
6.8653035809
 20
16.832645229
 30
0.0
 11
6.8622549687
 21
16.8330141284
 31
0.0
  0
LINE
  5
199
330
1F
100
AcDbEntity
  8
0
  6
Continuous
 62
     7
370
    25
100
AcDbLine
 10
-5.0161480425
 20
17.0147961457
 30
0.0
 11
-5.0267861678
 21
17.0132637104
 31
0.0
  0
LINE
  5
19A
330
1F
100
AcDbEntity
  8
0
  6
Continuous
 62
     7
370
    25
100
AcDbLine
 10
1.8706024445
 20
15.6397587937
 30
0.0
 11
1.8682855994
 21
15.6054051028
 31
0.0
  0
LINE
  5
19B
330
1F
100
AcDbEntity
  8
0
  6
Continuous
 62
     7
370
    25
100
AcDbLine
 10
-1.6293948007
 20
15.6397574757
 30
0.0
 11
-1.6317114794
 21
15.6054050978
 31
0.0
  0
LINE
  5
19C
330
1F
100
AcDbEntity
  8
0
  6
Continuous
 62
     7
370
    25
100
AcDbLine
 10
4.7470919849
 20
15.5973220539
 30
0.0
 11
4.847514071
 21
15.6107766988
 31
0.0
  0
LINE
  5
19D
330
1F
100
AcDbEntity
  8
0
  6
Continuous
 62
     7
370
    25
100
AcDbLine
 10
-4.2956304832
 20
15.5968551478
 30
0.0
 11
-4.2480078033
 21
15.5968551478
 31
0.0
  0
LINE
  5
19E
330
1F
100
AcDbEntity
  8
0
  6
Continuous
 62
     7
370
    25
100
AcDbLine
 10
4.4851992707
 20
15.5968551478
 30
0.0
 11
4.5327067838
 21
15.5968551478
 31
0.0
  0
LINE
  5
19F
330
1F
100
AcDbEntity
  8
0
  6
Continuous
 62
     7
370
    25
100
AcDbLine
 10
-1.9617031818
 20
15.6347072886
 30
0.0
 11
-1.9610004358
 21
15.5964566929
 31
0.0
  0
LINE
  5
1A0
330
1F
100
AcDbEntity
  8
0
  6
Continuous
 62
     7
370
    25
100
AcDbLine
 10
2.1961836993
 20
15.6347072886
 30
0.0
 11
2.1954825843
 21
15.5964566929
 31
0.0
  0
LINE
  5
1A1
330
1F
100
AcDbEntity
  8
0
  6
Continuous
 62
     7
370
    25
100
AcDbLine
 10
-2.5011803709
 20
15.5968551478
 30
0.0
 11
-2.5009595432
 21
15.5968551478
 31
0.0
  0
LINE
  5
1A2
330
1F
100
AcDbEntity
  8
0
  6
Continuous
 62
     7
370
    25
100
AcDbLine
 10
2.7342952702
 20
15.5968551478
 30
0.0
 11
2.7345851898
 21
15.5968551478
 31
0.0
  0
LINE
  5
1A3
330
1F
100
AcDbEntity
  8
0
  6
Continuous
 62
     7
370
    25
100
AcDbLine
 10
-5.3235840821
 20
15.5968551478
 30
0.0
 11
-4.9260726546
 21
15.5968551478
 31
0.0
  0
LINE
  5
1A4
330
1F
100
AcDbEntity
  8
0
  6
Continuous
 62
     7
370
    25
100
AcDbLine
 10
5.140400897
 20
15.5968551478
 30
0.0
 11
5.5371743132
 21
15.5968551478
 31
0.0
  0
LINE
  5
1A5
330
1F
100
AcDbEntity
  8
0
  6
Continuous
 62
     7
370
    25
100
AcDbLine
 10
1.3779527559
 20
32.0310820707
 30
0.0
 11
-1.3779527559
 21
32.0310820707
 31
0.0
  0
LINE
  5
1A6
330
1F
100
AcDbEntity
  8
0
  6
Continuous
 62
     7
370
    25
100
AcDbLine
 10
1.0039370079
 20
32.1583074212
 30
0.0
 11
-1.0039370079
 21
32.1583074212
 31
0.0
  0
LINE
  5
1A7
330
1F
100
AcDbEntity
  8
0
  6
Continuous
 62
     7
370
    25
100
AcDbLine
 10
-1.3779527559
 20
31.9326568739
 30
0.0
 11
1.3779527559
 21
31.9326568739
 31
0.0
  0
LINE
  5
1A8
330
1F
100
AcDbEntity
  8
0
  6
Continuous
 62
     7
370
    25
100
AcDbLine
 10
-0.6301615857
 20
31.9326568739
 30
0.0
 11
-0.6301615857
 21
31.9232600132
 31
0.0
  0
LINE
  5
1A9
330
1F
100
AcDbEntity
  8
0
  6
Continuous
 62
     7
370
    25
100
AcDbLine
 10
-0.117703047
 20
31.9326568739
 30
0.0
 11
-0.117703047
 21
31.9211820296
 31
0.0
  0
LINE
  5
1AA
330
1F
100
AcDbEntity
  8
0
  6
Continuous
 62
     7
370
    25
100
AcDbLine
 10
0.3752461126
 20
31.921887294
 30
0.0
 11
0.3752461126
 21
31.9326568739
 31
0.0
  0
LINE
  5
1AB
330
1F
100
AcDbEntity
  8
0
  6
Continuous
 62
     7
370
    25
100
AcDbLine
 10
0.822250912
 20
31.9247102387
 30
0.0
 11
0.822250912
 21
31.9326568739
 31
0.0
  0
LINE
  5
1AC
330
1F
100
AcDbEntity
  8
0
  6
Continuous
 62
     7
370
    25
100
AcDbLine
 10
-0.128496476
 20
31.9211956823
 30
0.0
 11
-0.128496476
 21
31.9326568739
 31
0.0
  0
LINE
  5
1AD
330
1F
100
AcDbEntity
  8
0
  6
Continuous
 62
     7
370
    25
100
AcDbLine
 10
-0.1830990086
 20
31.9212647496
 30
0.0
 11
-0.1830990086
 21
31.9326568739
 31
0.0
  0
LINE
  5
1AE
330
1F
100
AcDbEntity
  8
0
  6
Continuous
 62
     7
370
    25
100
AcDbLine
 10
0.4561253358
 20
31.922221201
 30
0.0
 11
0.4561253358
 21
31.9326568739
 31
0.0
  0
LINE
  5
1AF
330
1F
100
AcDbEntity
  8
0
  6
Continuous
 62
     7
370
    25
100
AcDbLine
 10
0.4050775203
 20
31.9220002672
 30
0.0
 11
0.4050775203
 21
31.9326568739
 31
0.0
  0
LINE
  5
1B0
330
1F
100
AcDbEntity
  8
0
  6
Continuous
 62
     7
370
    25
100
AcDbLine
 10
-0.6786877608
 20
31.9236040705
 30
0.0
 11
-0.6786877608
 21
31.9326568739
 31
0.0
  0
LINE
  5
1B1
330
1F
100
AcDbEntity
  8
0
  6
Continuous
 62
     7
370
    25
100
AcDbLine
 10
-0.722214306
 20
31.9239396206
 30
0.0
 11
-0.722214306
 21
31.9326568739
 31
0.0
  0
LINE
  5
1B2
330
1F
100
AcDbEntity
  8
0
  6
Continuous
 62
     7
370
    25
100
AcDbLine
 10
0.9185287322
 20
31.9255350201
 30
0.0
 11
0.9185287322
 21
31.9326568739
 31
0.0
  0
LINE
  5
1B3
330
1F
100
AcDbEntity
  8
0
  6
Continuous
 62
     7
370
    25
100
AcDbLine
 10
0.8847138547
 20
31.9252399942
 30
0.0
 11
0.8847138547
 21
31.9326568739
 31
0.0
  0
LINE
  5
1B4
330
1F
100
AcDbEntity
  8
0
  6
Continuous
 62
     7
370
    25
100
AcDbLine
 10
-5.8909848773
 20
30.7602125982
 30
0.0
 11
5.8909848773
 21
30.7602125982
 31
0.0
  0
LINE
  5
1B5
330
1F
100
AcDbEntity
  8
0
  6
Continuous
 62
     7
370
    25
100
AcDbLine
 10
5.8804556762
 20
30.6023622047
 30
0.0
 11
-5.8804556762
 21
30.6023622047
 31
0.0
  0
LINE
  5
1B6
330
1F
100
AcDbEntity
  8
0
  6
Continuous
 62
     7
370
    25
100
AcDbLine
 10
-4.646215088
 20
1.4246430208
 30
0.0
 11
-4.6446010068
 21
1.430425136
 31
0.0
  0
LINE
  5
1B7
330
1F
100
AcDbEntity
  8
0
  6
Continuous
 62
     7
370
    25
100
AcDbLine
 10
-3.9558110151
 20
9.8924083628
 30
0.0
 11
-3.9564483685
 21
9.9096034405
 31
0.0
  0
LINE
  5
1B8
330
1F
100
AcDbEntity
  8
0
  6
Continuous
 62
     7
370
    25
100
AcDbLine
 10
5.2839470227
 20
17.0232136301
 30
0.0
 11
5.5771884756
 21
30.402076297
 31
0.0
  0
LINE
  5
1B9
330
1F
100
AcDbEntity
  8
0
  6
Continuous
 62
     7
370
    25
100
AcDbLine
 10
-5.5771884758
 20
30.402076297
 30
0.0
 11
-5.2829432341
 21
16.9774167183
 31
0.0
  0
LINE
  5
1BA
330
1F
100
AcDbEntity
  8
0
  6
Continuous
 62
     7
370
    25
100
AcDbLine
 10
-6.6929426924
 20
15.655004351
 30
0.0
 11
-6.6929426924
 21
15.6347072886
 31
0.0
  0
LINE
  5
1BB
330
1F
100
AcDbEntity
  8
0
  6
Continuous
 62
     7
370
    25
100
AcDbLine
 10
6.9058624861
 20
15.657058977
 30
0.0
 11
6.9058624861
 21
15.6347072886
 31
0.0
  0
LINE
  5
1BC
330
1F
100
AcDbEntity
  8
0
  6
Continuous
 62
     7
370
    25
100
AcDbLine
 10
1.8682855994
 20
15.6054051028
 30
0.0
 11
1.8682855994
 21
15.6347072886
 31
0.0
  0
LINE
  5
1BD
330
1F
100
AcDbEntity
  8
0
  6
Continuous
 62
     7
370
    25
100
AcDbLine
 10
-2.1867188491
 20
15.6554202949
 30
0.0
 11
-2.1867188491
 21
15.6740773673
 31
0.0
  0
LINE
  5
1BE
330
1F
100
AcDbEntity
  8
0
  6
Continuous
 62
     7
370
    25
100
AcDbLine
 10
0.1041552476
 20
15.6347072886
 30
0.0
 11
0.1042344117
 21
15.6022768385
 31
0.0
  0
LINE
  5
1BF
330
1F
100
AcDbEntity
  8
0
  6
Continuous
 62
     7
370
    25
100
AcDbLine
 10
4.7388867257
 20
15.5964566929
 30
0.0
 11
4.7470919831
 21
15.5973220536
 31
0.0
  0
LINE
  5
1C0
330
1F
100
AcDbEntity
  8
0
  6
Continuous
 62
     7
370
    25
100
AcDbLine
 10
-1.7502596495
 20
15.6347072886
 30
0.0
 11
-1.7498216255
 21
15.6038000904
 31
0.0
  0
LINE
  5
1C1
330
1F
100
AcDbEntity
  8
0
  6
Continuous
 62
     7
370
    25
100
AcDbLine
 10
-4.2480078033
 20
15.6347072886
 30
0.0
 11
-4.2480078033
 21
15.5968551478
 31
0.0
  0
LINE
  5
1C2
330
1F
100
AcDbEntity
  8
0
  6
Continuous
 62
     7
370
    25
100
AcDbLine
 10
-4.0597715918
 20
15.6347072886
 30
0.0
 11
-4.0597715918
 21
15.5968551478
 31
0.0
  0
LINE
  5
1C3
330
1F
100
AcDbEntity
  8
0
  6
Continuous
 62
     7
370
    25
100
AcDbLine
 10
4.2970312445
 20
15.6347072886
 30
0.0
 11
4.2970312445
 21
15.5968551478
 31
0.0
  0
LINE
  5
1C4
330
1F
100
AcDbEntity
  8
0
  6
Continuous
 62
     7
370
    25
100
AcDbLine
 10
4.4851992707
 20
15.6347072886
 30
0.0
 11
4.4851992707
 21
15.5968551478
 31
0.0
  0
LINE
  5
1C5
330
1F
100
AcDbEntity
  8
0
  6
Continuous
 62
     7
370
    25
100
AcDbLine
 10
-3.3086852709
 20
15.6347072886
 30
0.0
 11
-3.3086852709
 21
15.5968551478
 31
0.0
  0
LINE
  5
1C6
330
1F
100
AcDbEntity
  8
0
  6
Continuous
 62
     7
370
    25
100
AcDbLine
 10
3.5446681027
 20
15.6347072886
 30
0.0
 11
3.5446681027
 21
15.5968551478
 31
0.0
  0
LINE
  5
1C7
330
1F
100
AcDbEntity
  8
0
  6
Continuous
 62
     7
370
    25
100
AcDbLine
 10
-4.2956304832
 20
15.6347072886
 30
0.0
 11
-4.2956304832
 21
15.5968551478
 31
0.0
  0
LINE
  5
1C8
330
1F
100
AcDbEntity
  8
0
  6
Continuous
 62
     7
370
    25
100
AcDbLine
 10
4.5327067838
 20
15.6347072886
 30
0.0
 11
4.5327067838
 21
15.5968551478
 31
0.0
  0
LINE
  5
1C9
330
1F
100
AcDbEntity
  8
0
  6
Continuous
 62
     7
370
    25
100
AcDbLine
 10
-2.5175557465
 20
15.6347072886
 30
0.0
 11
-2.5175557465
 21
15.5968551478
 31
0.0
  0
LINE
  5
1CA
330
1F
100
AcDbEntity
  8
0
  6
Continuous
 62
     7
370
    25
100
AcDbLine
 10
2.7510767882
 20
15.6347072886
 30
0.0
 11
2.7510767882
 21
15.5968551478
 31
0.0
  0
LINE
  5
1CB
330
1F
100
AcDbEntity
  8
0
  6
Continuous
 62
     7
370
    25
100
AcDbLine
 10
-4.9260726546
 20
15.5968551478
 30
0.0
 11
-5.2616364075
 21
15.6537894508
 31
0.0
  0
LINE
  5
1CC
330
1F
100
AcDbEntity
  8
0
  6
Continuous
 62
     7
370
    25
100
AcDbLine
 10
5.4753252591
 20
15.6537453931
 30
0.0
 11
5.140400897
 21
15.5968551478
 31
0.0
  0
LINE
  5
1CD
330
1F
100
AcDbEntity
  8
0
  6
Continuous
 62
     7
370
    25
100
AcDbLine
 10
-5.3235840821
 20
15.6347072886
 30
0.0
 11
-5.3235840821
 21
15.5968551478
 31
0.0
  0
LINE
  5
1CE
330
1F
100
AcDbEntity
  8
0
  6
Continuous
 62
     7
370
    25
100
AcDbLine
 10
5.5371743132
 20
15.6347072886
 30
0.0
 11
5.5371743132
 21
15.5968551478
 31
0.0
  0
LINE
  5
1CF
330
1F
100
AcDbEntity
  8
0
  6
Continuous
 62
     7
370
    25
100
AcDbLine
 10
-6.1033138974
 20
15.6347072886
 30
0.0
 11
-6.1033138974
 21
15.5968551478
 31
0.0
  0
LINE
  5
1D0
330
1F
100
AcDbEntity
  8
0
  6
Continuous
 62
     7
370
    25
100
AcDbLine
 10
6.3157276011
 20
15.6347072886
 30
0.0
 11
6.3157276011
 21
15.5968551478
 31
0.0
  0
LINE
  5
1D1
330
1F
100
AcDbEntity
  8
0
  6
Continuous
 62
     7
370
    25
100
AcDbLine
 10
-0.9554247045
 20
32.1720930513
 30
0.0
 11
0.9554247045
 21
32.1720930513
 31
0.0
  0
LINE
  5
1D2
330
1F
100
AcDbEntity
  8
0
  6
Continuous
 62
     7
370
    25
100
AcDbLine
 10
-6.8274585534
 20
30.7602125982
 30
0.0
 11
-6.819134885
 21
30.7602125982
 31
0.0
  0
LINE
  5
1D3
330
1F
100
AcDbEntity
  8
0
  6
Continuous
 62
     7
370
    25
100
AcDbLine
 10
6.819134885
 20
30.7602125982
 30
0.0
 11
6.8274585534
 21
30.7602125982
 31
0.0
  0
LINE
  5
1D4
330
1F
100
AcDbEntity
  8
0
  6
Continuous
 62
     7
370
    25
100
AcDbLine
 10
6.7927915184
 20
31.3958757735
 30
0.0
 11
6.7867501607
 21
31.3922359103
 31
0.0
  0
LINE
  5
1D5
330
1F
100
AcDbEntity
  8
0
  6
Continuous
 62
     7
370
    25
100
AcDbLine
 10
-6.7867501607
 20
31.3922359103
 30
0.0
 11
-6.7915620979
 21
31.3958032352
 31
0.0
  0
ARC
  5
1D6
330
1F
100
AcDbEntity
  8
0
  6
Continuous
 62
     7
370
    25
100
AcDbCircle
 10
-0.9448818898
 20
32.1341608466
 30
0.0
 40
0.0393700787400936
100
AcDbArc
 50
105.5326522073
 51
142.169832968
  0
ARC
  5
1D7
330
1F
100
AcDbEntity
  8
0
  6
Continuous
 62
     7
370
    25
100
AcDbCircle
 10
0.9448818898
 20
32.1341608466
 30
0.0
 40
0.0393700787400872
100
AcDbArc
 50
37.830167032
 51
74.4673477927
  0
ARC
  5
1D8
330
1F
100
AcDbEntity
  8
0
  6
Continuous
 62
     7
370
    25
100
AcDbCircle
 10
0.2142186326
 20
27.9638098166
 30
0.0
 40
4.367804175951328
100
AcDbArc
 50
92.8111950462
 51
105.5326522073
  0
ARC
  5
1D9
330
1F
100
AcDbEntity
  8
0
  6
Continuous
 62
     7
370
    25
100
AcDbCircle
 10
-0.2142186326
 20
27.9638098166
 30
0.0
 40
4.367804175951728
100
AcDbArc
 50
74.4673477927
 51
87.1888049538
  0
ARC
  5
1DA
330
1F
100
AcDbEntity
  8
0
  6
Continuous
 62
     7
370
    25
100
AcDbCircle
 10
0.2142186326
 20
27.9638098166
 30
0.0
 40
4.367804175950525
100
AcDbArc
 50
106.1942235153
 51
111.3783191078
  0
ARC
  5
1DB
330
1F
100
AcDbEntity
  8
0
  6
Continuous
 62
     7
370
    25
100
AcDbCircle
 10
-0.2142186326
 20
27.9638098166
 30
0.0
 40
4.367804175946703
100
AcDbArc
 50
68.6216808922
 51
73.8057764847
  0
ARC
  5
1DC
330
1F
100
AcDbEntity
  8
0
  6
Continuous
 62
     7
370
    25
100
AcDbCircle
 10
-6.6776641232
 20
30.7523622047
 30
0.0
 40
0.1499999999999954
100
AcDbArc
 50
177.0
 51
270.0
  0
ARC
  5
1DD
330
1F
100
AcDbEntity
  8
0
  6
Continuous
 62
     7
370
    25
100
AcDbCircle
 10
6.6776641232
 20
30.7523622047
 30
0.0
 40
0.1500000000000057
100
AcDbArc
 50
270.0
 51
3.0
  0
ARC
  5
1DE
330
1F
100
AcDbEntity
  8
0
  6
Continuous
 62
     7
370
    25
100
AcDbCircle
 10
-0.2895174681
 20
15.6646460814
 30
0.0
 40
0.0550022839100734
100
AcDbArc
 50
170.1266542186
 51
212.9781445452
  0
ARC
  5
1DF
330
1F
100
AcDbEntity
  8
0
  6
Continuous
 62
     7
370
    25
100
AcDbCircle
 10
0.5345541991
 20
15.6646558678
 30
0.0
 40
0.0545164072049856
100
AcDbArc
 50
326.6775797697
 51
9.9517927801
  0
ARC
  5
1E0
330
1F
100
AcDbEntity
  8
0
  6
Continuous
 62
     7
370
    25
100
AcDbCircle
 10
-5.3121985574
 20
30.7195434071
 30
0.0
 40
0.5802133979828747
100
AcDbArc
 50
175.9806421182
 51
191.6517294848
  0
ARC
  5
1E1
330
1F
100
AcDbEntity
  8
0
  6
Continuous
 62
     7
370
    25
100
AcDbCircle
 10
5.3121985574
 20
30.7195434071
 30
0.0
 40
0.5802133979827985
100
AcDbArc
 50
348.3482705152
 51
4.0193578818
  0
ARC
  5
1E2
330
1F
100
AcDbEntity
  8
0
  6
Continuous
 62
     7
370
    25
100
AcDbCircle
 10
6.6693602791
 20
30.7523433917
 30
0.0
 40
0.1499811887649958
100
AcDbArc
 50
270.0087496242
 51
3.0075734371
  0
ARC
  5
1E3
330
1F
100
AcDbEntity
  8
0
  6
Continuous
 62
     7
370
    25
100
AcDbCircle
 10
-6.6693602791
 20
30.7523433917
 30
0.0
 40
0.1499811887650134
100
AcDbArc
 50
176.9924265629
 51
269.9912503758
  0
ARC
  5
1E4
330
1F
100
AcDbEntity
  8
0
  6
Continuous
 62
     7
370
    25
100
AcDbCircle
 10
-6.337358124
 20
31.3686672224
 30
0.0
 40
0.4500096506031497
100
AcDbArc
 50
90.8766486986
 51
176.9978322458
  0
ARC
  5
1E5
330
1F
100
AcDbEntity
  8
0
  6
Continuous
 62
     7
370
    25
100
AcDbCircle
 10
6.337358124
 20
31.3686672224
 30
0.0
 40
0.4500096506031497
100
AcDbArc
 50
3.0021677542
 51
89.1233513014
  0
ARC
  5
1E6
330
1F
100
AcDbEntity
  8
0
  6
Continuous
 62
     7
370
    25
100
AcDbCircle
 10
5.285287963
 20
15.6201461138
 30
0.0
 40
0.1467471668568257
100
AcDbArc
 50
174.2588626059
 51
189.1323139138
  0
ENDSEC
  0
SECTION
  2
OBJECTS
  0
DICTIONARY
  5
C
330
0
100
AcDbDictionary
281
     1
  3
ACAD_GROUP
350
D
  3
ACAD_LAYOUT
350
1A
  3
ACAD_MLINESTYLE
350
17
  3
ACAD_PLOTSETTINGS
350
19
  3
ACAD_PLOTSTYLENAME
350
E
  3
ACAD_SCALELIST
350
47
  3
DWGPROPS
350
1E7
  0
DICTIONARY
  5
D
102
{ACAD_REACTORS
330
C
102
}
330
C
100
AcDbDictionary
281
     1
  0
DICTIONARY
  5
1A
102
{ACAD_REACTORS
330
C
102
}
330
C
100
AcDbDictionary
281
     1
  3
Layout1
350
1E
  3
Layout2
350
26
  3
Model
350
22
  0
DICTIONARY
  5
17
102
{ACAD_REACTORS
330
C
102
}
330
C
100
AcDbDictionary
281
     1
  3
Standard
350
18
  0
DICTIONARY
  5
19
102
{ACAD_REACTORS
330
C
102
}
330
C
100
AcDbDictionary
281
     1
  0
ACDBDICTIONARYWDFLT
  5
E
102
{ACAD_REACTORS
330
C
102
}
330
C
100
AcDbDictionary
281
     1
  3
Normal
350
F
100
AcDbDictionaryWithDefault
340
F
  0
DICTIONARY
  5
47
102
{ACAD_REACTORS
330
C
102
}
330
C
100
AcDbDictionary
281
     1
  3
A0
350
48
  3
A1
350
49
  3
A2
350
4A
  3
A3
350
4B
  3
A4
350
4C
  3
A5
350
4D
  3
A6
350
4E
  3
A7
350
4F
  3
A8
350
50
  3
A9
350
51
  3
B1
350
52
  3
B2
350
53
  3
B3
350
54
  3
B4
350
55
  3
B5
350
56
  3
B6
350
57
  3
B7
350
58
  0
XRECORD
  5
1E7
102
{ACAD_REACTORS
330
C
102
}
330
C
100
AcDbXrecord
280
     1
  1
DWGPROPS COOKIE
  2

  3

  4

  6

  7

  8
Alan Ramirez
  9

300
=
301
=
302
=
303
=
304
=
305
=
306
=
307
=
308
=
309
=
 40
0.0
 41
2460424.954211771
 42
2460424.954265972
  1

 90
        0
  0
LAYOUT
  5
1E
102
{ACAD_REACTORS
330
1A
102
}
330
1A
100
AcDbPlotSettings
  1

  2
none_device
  4

  6

 40
0.0
 41
0.0
 42
0.0
 43
0.0
 44
0.0
 45
0.0
 46
0.0
 47
0.0
 48
0.0
 49
0.0
140
0.0
141
0.0
142
1.0
143
1.0
 70
   688
 72
     0
 73
     0
 74
     5
  7

 75
    16
147
1.0
148
0.0
149
0.0
100
AcDbLayout
  1
Layout1
 70
     1
 71
     1
 10
0.0
 20
0.0
 11
12.0
 21
9.0
 12
0.0
 22
0.0
 32
0.0
 14
1.0000000000E+20
 24
1.0000000000E+20
 34
1.0000000000E+20
 15
-1.0000000000E+20
 25
-1.0000000000E+20
 35
-1.0000000000E+20
146
0.0
 13
0.0
 23
0.0
 33
0.0
 16
1.0
 26
0.0
 36
0.0
 17
0.0
 27
1.0
 37
0.0
 76
     0
330
1B
  0
LAYOUT
  5
26
102
{ACAD_REACTORS
330
1A
102
}
330
1A
100
AcDbPlotSettings
  1

  2
none_device
  4

  6

 40
0.0
 41
0.0
 42
0.0
 43
0.0
 44
0.0
 45
0.0
 46
0.0
 47
0.0
 48
0.0
 49
0.0
140
0.0
141
0.0
142
1.0
143
1.0
 70
   688
 72
     0
 73
     0
 74
     5
  7

 75
    16
147
1.0
148
0.0
149
0.0
100
AcDbLayout
  1
Layout2
 70
     1
 71
     2
 10
0.0
 20
0.0
 11
0.0
 21
0.0
 12
0.0
 22
0.0
 32
0.0
 14
0.0
 24
0.0
 34
0.0
 15
0.0
 25
0.0
 35
0.0
146
0.0
 13
0.0
 23
0.0
 33
0.0
 16
1.0
 26
0.0
 36
0.0
 17
0.0
 27
1.0
 37
0.0
 76
     0
330
23
  0
LAYOUT
  5
22
102
{ACAD_REACTORS
330
1A
102
}
330
1A
100
AcDbPlotSettings
  1

  2
none_device
  4
ANSI_A_(11.00_x_8.50_Inches)
  6

 40
6.35
 41
19.05
 42
6.35000508
 43
19.05000254
 44
279.4
 45
215.9
 46
132.7064757784
 47
-17.3863956137
 48
0.0
 49
0.0
140
0.0
141
0.0
142
0.2596025139
143
1.0
 70
  1696
 72
     0
 73
     0
 74
     0
  7

 75
     0
147
0.5913241897
148
-39.4088153714
149
0.0
100
AcDbLayout
  1
Model
 70
     1
 71
     0
 10
0.0
 20
0.0
 11
12.0
 21
9.0
 12
0.0
 22
0.0
 32
0.0
 14
-7.133515324
 24
-0.0885826772
 34
0.0
 15
7.3287021802
 25
32.3263576613
 35
0.0
146
0.0
 13
0.0
 23
0.0
 33
0.0
 16
1.0
 26
0.0
 36
0.0
 17
0.0
 27
1.0
 37
0.0
 76
     0
330
1F
331
29
  0
MLINESTYLE
  5
18
102
{ACAD_REACTORS
330
17
102
}
330
17
100
AcDbMlineStyle
  2
Standard
 70
     0
  3

 62
   256
 51
90.0
 52
90.0
 71
     2
 49
0.5
 62
   256
  6
BYLAYER
 49
-0.5
 62
   256
  6
BYLAYER
  0
ACDBPLACEHOLDER
  5
F
102
{ACAD_REACTORS
330
E
102
}
330
E
  0
SCALE
  5
48
102
{ACAD_REACTORS
330
47
102
}
330
47
100
AcDbScale
 70
     0
300
1:1
140
1.0
141
1.0
290
     1
  0
SCALE
  5
49
102
{ACAD_REACTORS
330
47
102
}
330
47
100
AcDbScale
 70
     0
300
1/128" = 1'-0"
140
0.0078125
141
12.0
290
     0
  0
SCALE
  5
4A
102
{ACAD_REACTORS
330
47
102
}
330
47
100
AcDbScale
 70
     0
300
1/64" = 1'-0"
140
0.015625
141
12.0
290
     0
  0
SCALE
  5
4B
102
{ACAD_REACTORS
330
47
102
}
330
47
100
AcDbScale
 70
     0
300
1/32" = 1'-0"
140
0.03125
141
12.0
290
     0
  0
SCALE
  5
4C
102
{ACAD_REACTORS
330
47
102
}
330
47
100
AcDbScale
 70
     0
300
1/16" = 1'-0"
140
0.0625
141
12.0
290
     0
  0
SCALE
  5
4D
102
{ACAD_REACTORS
330
47
102
}
330
47
100
AcDbScale
 70
     0
300
3/32" = 1'-0"
140
0.09375
141
12.0
290
     0
  0
SCALE
  5
4E
102
{ACAD_REACTORS
330
47
102
}
330
47
100
AcDbScale
 70
     0
300
1/8" = 1'-0"
140
0.125
141
12.0
290
     0
  0
SCALE
  5
4F
102
{ACAD_REACTORS
330
47
102
}
330
47
100
AcDbScale
 70
     0
300
3/16" = 1'-0"
140
0.1875
141
12.0
290
     0
  0
SCALE
  5
50
102
{ACAD_REACTORS
330
47
102
}
330
47
100
AcDbScale
 70
     0
300
1/4" = 1'-0"
140
0.25
141
12.0
290
     0
  0
SCALE
  5
51
102
{ACAD_REACTORS
330
47
102
}
330
47
100
AcDbScale
 70
     0
300
3/8" = 1'-0"
140
0.375
141
12.0
290
     0
  0
SCALE
  5
52
102
{ACAD_REACTORS
330
47
102
}
330
47
100
AcDbScale
 70
     0
300
1/2" = 1'-0"
140
0.5
141
12.0
290
     0
  0
SCALE
  5
53
102
{ACAD_REACTORS
330
47
102
}
330
47
100
AcDbScale
 70
     0
300
3/4" = 1'-0"
140
0.75
141
12.0
290
     0
  0
SCALE
  5
54
102
{ACAD_REACTORS
330
47
102
}
330
47
100
AcDbScale
 70
     0
300
1" = 1'-0"
140
1.0
141
12.0
290
     0
  0
SCALE
  5
55
102
{ACAD_REACTORS
330
47
102
}
330
47
100
AcDbScale
 70
     0
300
1-1/2" = 1'-0"
140
1.5
141
12.0
290
     0
  0
SCALE
  5
56
102
{ACAD_REACTORS
330
47
102
}
330
47
100
AcDbScale
 70
     0
300
3" = 1'-0"
140
3.0
141
12.0
290
     0
  0
SCALE
  5
57
102
{ACAD_REACTORS
330
47
102
}
330
47
100
AcDbScale
 70
     0
300
6" = 1'-0"
140
6.0
141
12.0
290
     0
  0
SCALE
  5
58
102
{ACAD_REACTORS
330
47
102
}
330
47
100
AcDbScale
 70
     0
300
1'-0" = 1'-0"
140
12.0
141
12.0
290
     0
  0
ENDSEC
  0
EOF
