  0
SECTION
  2
HEADER
  9
$ACADVER
  1
AC1015
  9
$ACADMAINTVER
 70
     6
  9
$DWGCODEPAGE
  3
ANSI_1252
  9
$INSBASE
 10
0.0
 20
0.0
 30
0.0
  9
$EXTMIN
 10
-3.6477708715
 20
-2.1785557442
 30
0.0
  9
$EXTMAX
 10
8.794640591
 20
3.1222945736
 30
0.0
  9
$LIMMIN
 10
0.0
 20
0.0
  9
$LIMMAX
 10
12.0
 20
9.0
  9
$ORTHOMODE
 70
     0
  9
$REGENMODE
 70
     1
  9
$FILLMODE
 70
     1
  9
$QTEXTMODE
 70
     0
  9
$MIRRTEXT
 70
     1
  9
$LTSCALE
 40
1.0
  9
$ATTMODE
 70
     1
  9
$TEXTSIZE
 40
0.1377952756
  9
$TRACEWID
 40
0.05
  9
$TEXTSTYLE
  7
Standard
  9
$CLAYER
  8
0
  9
$CELTYPE
  6
ByLayer
  9
$CECOLOR
 62
   256
  9
$CELTSCALE
 40
1.0
  9
$DISPSILH
 70
     0
  9
$DIMSCALE
 40
1.0
  9
$DIMASZ
 40
0.13
  9
$DIMEXO
 40
0.0
  9
$DIMDLI
 40
0.38
  9
$DIMRND
 40
0.0
  9
$DIMDLE
 40
0.0
  9
$DIMEXE
 40
0.0393700787
  9
$DIMTP
 40
0.0
  9
$DIMTM
 40
0.0
  9
$DIMTXT
 40
0.1377952756
  9
$DIMCEN
 40
0.09
  9
$DIMTSZ
 40
0.0
  9
$DIMTOL
 70
     0
  9
$DIMLIM
 70
     0
  9
$DIMTIH
 70
     1
  9
$DIMTOH
 70
     1
  9
$DIMSE1
 70
     0
  9
$DIMSE2
 70
     0
  9
$DIMTAD
 70
     1
  9
$DIMZIN
 70
     0
  9
$DIMBLK
  1

  9
$DIMASO
 70
     1
  9
$DIMSHO
 70
     1
  9
$DIMPOST
  1

  9
$DIMAPOST
  1

  9
$DIMALT
 70
     0
  9
$DIMALTD
 70
     2
  9
$DIMALTF
 40
25.4
  9
$DIMLFAC
 40
1.0
  9
$DIMTOFL
 70
     0
  9
$DIMTVP
 40
0.0
  9
$DIMTIX
 70
     0
  9
$DIMSOXD
 70
     0
  9
$DIMSAH
 70
     0
  9
$DIMBLK1
  1

  9
$DIMBLK2
  1

  9
$DIMSTYLE
  2
Standard
  9
$DIMCLRD
 70
     0
  9
$DIMCLRE
 70
     0
  9
$DIMCLRT
 70
     0
  9
$DIMTFAC
 40
1.0
  9
$DIMGAP
 40
0.06
  9
$DIMJUST
 70
     0
  9
$DIMSD1
 70
     0
  9
$DIMSD2
 70
     0
  9
$DIMTOLJ
 70
     1
  9
$DIMTZIN
 70
     0
  9
$DIMALTZ
 70
     0
  9
$DIMALTTZ
 70
     0
  9
$DIMUPT
 70
     0
  9
$DIMDEC
 70
     2
  9
$DIMTDEC
 70
     2
  9
$DIMALTU
 70
     2
  9
$DIMALTTD
 70
     2
  9
$DIMTXSTY
  7
Standard
  9
$DIMAUNIT
 70
     0
  9
$DIMADEC
 70
     2
  9
$DIMALTRND
 40
0.0
  9
$DIMAZIN
 70
     0
  9
$DIMDSEP
 70
    46
  9
$DIMATFIT
 70
     3
  9
$DIMFRAC
 70
     0
  9
$DIMLDRBLK
  1

  9
$DIMLUNIT
 70
     2
  9
$DIMLWD
 70
    -2
  9
$DIMLWE
 70
    -2
  9
$DIMTMOVE
 70
     0
  9
$LUNITS
 70
     2
  9
$LUPREC
 70
     2
  9
$SKETCHINC
 40
0.1
  9
$FILLETRAD
 40
0.0
  9
$AUNITS
 70
     0
  9
$AUPREC
 70
     2
  9
$MENU
  1
.
  9
$ELEVATION
 40
0.0
  9
$PELEVATION
 40
0.0
  9
$THICKNESS
 40
0.0
  9
$LIMCHECK
 70
     0
  9
$CHAMFERA
 40
0.0
  9
$CHAMFERB
 40
0.0
  9
$CHAMFERC
 40
0.0
  9
$CHAMFERD
 40
0.0
  9
$SKPOLY
 70
     0
  9
$TDCREATE
 40
2460717.711309965
  9
$TDUCREATE
 40
2460717.961309965
  9
$TDUPDATE
 40
2460717.711363611
  9
$TDUUPDATE
 40
2460717.961363611
  9
$TDINDWG
 40
0.0000000116
  9
$TDUSRTIMER
 40
0.0000000116
  9
$USRTIMER
 70
     1
  9
$ANGBASE
 50
0.0
  9
$ANGDIR
 70
     0
  9
$PDMODE
 70
     0
  9
$PDSIZE
 40
-1.0
  9
$PLINEWID
 40
0.0
  9
$SPLFRAME
 70
     0
  9
$SPLINETYPE
 70
     6
  9
$SPLINESEGS
 70
     8
  9
$HANDSEED
  5
33A
  9
$SURFTAB1
 70
     6
  9
$SURFTAB2
 70
     6
  9
$SURFTYPE
 70
     6
  9
$SURFU
 70
     6
  9
$SURFV
 70
     6
  9
$UCSBASE
  2

  9
$UCSNAME
  2

  9
$UCSORG
 10
0.0
 20
0.0
 30
0.0
  9
$UCSXDIR
 10
1.0
 20
0.0
 30
0.0
  9
$UCSYDIR
 10
0.0
 20
1.0
 30
0.0
  9
$UCSORTHOREF
  2

  9
$UCSORTHOVIEW
 70
     0
  9
$UCSORGTOP
 10
0.0
 20
0.0
 30
0.0
  9
$UCSORGBOTTOM
 10
0.0
 20
0.0
 30
0.0
  9
$UCSORGLEFT
 10
0.0
 20
0.0
 30
0.0
  9
$UCSORGRIGHT
 10
0.0
 20
0.0
 30
0.0
  9
$UCSORGFRONT
 10
0.0
 20
0.0
 30
0.0
  9
$UCSORGBACK
 10
0.0
 20
0.0
 30
0.0
  9
$PUCSBASE
  2

  9
$PUCSNAME
  2

  9
$PUCSORG
 10
0.0
 20
0.0
 30
0.0
  9
$PUCSXDIR
 10
1.0
 20
0.0
 30
0.0
  9
$PUCSYDIR
 10
0.0
 20
1.0
 30
0.0
  9
$PUCSORTHOREF
  2

  9
$PUCSORTHOVIEW
 70
     0
  9
$PUCSORGTOP
 10
0.0
 20
0.0
 30
0.0
  9
$PUCSORGBOTTOM
 10
0.0
 20
0.0
 30
0.0
  9
$PUCSORGLEFT
 10
0.0
 20
0.0
 30
0.0
  9
$PUCSORGRIGHT
 10
0.0
 20
0.0
 30
0.0
  9
$PUCSORGFRONT
 10
0.0
 20
0.0
 30
0.0
  9
$PUCSORGBACK
 10
0.0
 20
0.0
 30
0.0
  9
$USERI1
 70
     0
  9
$USERI2
 70
     0
  9
$USERI3
 70
     0
  9
$USERI4
 70
     0
  9
$USERI5
 70
     0
  9
$USERR1
 40
0.0
  9
$USERR2
 40
0.0
  9
$USERR3
 40
0.0
  9
$USERR4
 40
0.0
  9
$USERR5
 40
0.0
  9
$WORLDVIEW
 70
     1
  9
$SHADEDGE
 70
     3
  9
$SHADEDIF
 70
    70
  9
$TILEMODE
 70
     1
  9
$MAXACTVP
 70
    64
  9
$PINSBASE
 10
0.0
 20
0.0
 30
0.0
  9
$PLIMCHECK
 70
     0
  9
$PEXTMIN
 10
1.0000000000E+20
 20
1.0000000000E+20
 30
1.0000000000E+20
  9
$PEXTMAX
 10
-1.0000000000E+20
 20
-1.0000000000E+20
 30
-1.0000000000E+20
  9
$PLIMMIN
 10
0.0
 20
0.0
  9
$PLIMMAX
 10
12.0
 20
9.0
  9
$UNITMODE
 70
     0
  9
$VISRETAIN
 70
     1
  9
$PLINEGEN
 70
     0
  9
$PSLTSCALE
 70
     1
  9
$TREEDEPTH
 70
  3020
  9
$CMLSTYLE
  2
Standard
  9
$CMLJUST
 70
     0
  9
$CMLSCALE
 40
1.0
  9
$PROXYGRAPHICS
 70
     1
  9
$MEASUREMENT
 70
     0
  9
$CELWEIGHT
370
    -1
  9
$ENDCAPS
280
     0
  9
$JOINSTYLE
280
     0
  9
$LWDISPLAY
290
     1
  9
$INSUNITS
 70
     1
  9
$HYPERLINKBASE
  1

  9
$STYLESHEET
  1

  9
$XEDIT
290
     1
  9
$CEPSNTYPE
380
     0
  9
$PSTYLEMODE
290
     1
  9
$FINGERPRINTGUID
  2
{41e26aee-16a6-4778-be23-b22fe76c7598}
  9
$VERSIONGUID
  2
{FAEB1C32-E019-11D5-929B-00C0DF256EC4}
  9
$EXTNAMES
290
     1
  9
$PSVPSCALE
 40
0.0
  9
$OLESTARTUP
290
     0
  0
ENDSEC
  0
SECTION
  2
CLASSES
  0
CLASS
  1
ACDBDICTIONARYWDFLT
  2
AcDbDictionaryWithDefault
  3
ObjectDBX Classes
 90
        0
280
     0
281
     0
  0
CLASS
  1
VISUALSTYLE
  2
AcDbVisualStyle
  3
ObjectDBX Classes
 90
     4095
280
     0
281
     0
  0
CLASS
  1
MATERIAL
  2
AcDbMaterial
  3
ObjectDBX Classes
 90
     1153
280
     0
281
     0
  0
CLASS
  1
SCALE
  2
AcDbScale
  3
ObjectDBX Classes
 90
     1153
280
     0
281
     0
  0
CLASS
  1
TABLESTYLE
  2
AcDbTableStyle
  3
ObjectDBX Classes
 90
     4095
280
     0
281
     0
  0
CLASS
  1
MLEADERSTYLE
  2
AcDbMLeaderStyle
  3
ACDB_MLEADERSTYLE_CLASS
 90
     4095
280
     0
281
     0
  0
CLASS
  1
SUN
  2
AcDbSun
  3
SCENEOE
 90
     1153
280
     0
281
     0
  0
CLASS
  1
ACDBPLACEHOLDER
  2
AcDbPlaceHolder
  3
ObjectDBX Classes
 90
        0
280
     0
281
     0
  0
CLASS
  1
LAYOUT
  2
AcDbLayout
  3
ObjectDBX Classes
 90
        0
280
     0
281
     0
  0
ENDSEC
  0
SECTION
  2
TABLES
  0
TABLE
  2
VPORT
  5
8
330
0
100
AcDbSymbolTable
 70
     1
  0
VPORT
  5
29
330
8
100
AcDbSymbolTableRecord
100
AcDbViewportTableRecord
  2
*Active
 70
     0
 10
0.0
 20
0.0
 11
1.0
 21
1.0
 12
2.5734348597
 22
0.4718694147
 13
0.0
 23
0.0
 14
0.5
 24
0.5
 15
0.5
 25
0.5
 16
0.0
 26
0.0
 36
1.0
 17
0.0
 27
0.0
 37
0.0
 40
5.4068673242
 41
2.347248218
 42
50.0
 43
0.0
 44
0.0
 50
0.0
 51
0.0
 71
     0
 72
   100
 73
     1
 74
     3
 75
     0
 76
     0
 77
     0
 78
     0
281
     0
 65
     1
110
0.0
120
0.0
130
0.0
111
1.0
121
0.0
131
0.0
112
0.0
122
1.0
132
0.0
 79
     0
146
0.0
  0
ENDTAB
  0
TABLE
  2
LTYPE
  5
5
330
0
100
AcDbSymbolTable
 70
     6
  0
LTYPE
  5
14
330
5
100
AcDbSymbolTableRecord
100
AcDbLinetypeTableRecord
  2
ByBlock
 70
     0
  3

 72
    65
 73
     0
 40
0.0
  0
LTYPE
  5
15
330
5
100
AcDbSymbolTableRecord
100
AcDbLinetypeTableRecord
  2
ByLayer
 70
     0
  3

 72
    65
 73
     0
 40
0.0
  0
LTYPE
  5
16
330
5
100
AcDbSymbolTableRecord
100
AcDbLinetypeTableRecord
  2
Continuous
 70
     0
  3
Solid line
 72
    65
 73
     0
 40
0.0
  0
LTYPE
  5
5E
330
5
100
AcDbSymbolTableRecord
100
AcDbLinetypeTableRecord
  2
HIDDEN
 70
     0
  3
Hidden __ __ __ __ __ __ __ __ __ __ __ __ __ __
 72
    65
 73
     2
 40
0.075
 49
0.05
 74
     0
 49
-0.025
 74
     0
  0
LTYPE
  5
5F
330
5
100
AcDbSymbolTableRecord
100
AcDbLinetypeTableRecord
  2
PHANTOM
 70
     0
  3
Phantom ______  __  __  ______  __  __  ______
 72
    65
 73
     6
 40
0.5
 49
0.25
 74
     0
 49
-0.05
 74
     0
 49
0.05
 74
     0
 49
-0.05
 74
     0
 49
0.05
 74
     0
 49
-0.05
 74
     0
  0
LTYPE
  5
60
330
5
100
AcDbSymbolTableRecord
100
AcDbLinetypeTableRecord
  2
CENTER
 70
     0
  3
Center ____ _ ____ _ ____ _ ____ _ ____ _ ____
 72
    65
 73
     4
 40
0.4
 49
0.25
 74
     0
 49
-0.05
 74
     0
 49
0.05
 74
     0
 49
-0.05
 74
     0
  0
LTYPE
  5
61
330
5
100
AcDbSymbolTableRecord
100
AcDbLinetypeTableRecord
  2
CENTERX2
 70
     0
  3
Center (2x) ________  __  ________  __  _____
 72
    65
 73
     4
 40
0.8
 49
0.5
 74
     0
 49
-0.1
 74
     0
 49
0.1
 74
     0
 49
-0.1
 74
     0
  0
LTYPE
  5
62
330
5
100
AcDbSymbolTableRecord
100
AcDbLinetypeTableRecord
  2
DOT2
 70
     0
  3
Dot (.5x) ........................................
 72
    65
 73
     2
 40
0.025
 49
0.0
 74
     0
 49
-0.025
 74
     0
  0
ENDTAB
  0
TABLE
  2
LAYER
  5
2
330
0
100
AcDbSymbolTable
 70
     1
  0
LAYER
  5
10
330
2
100
AcDbSymbolTableRecord
100
AcDbLayerTableRecord
  2
0
 70
     0
 62
     7
  6
Continuous
370
    -3
390
F
  0
ENDTAB
  0
TABLE
  2
STYLE
  5
3
330
0
100
AcDbSymbolTable
 70
     1
  0
STYLE
  5
11
330
3
100
AcDbSymbolTableRecord
100
AcDbTextStyleTableRecord
  2
Standard
 70
     0
 40
0.0
 41
1.0
 50
0.0
 71
     0
 42
0.1377952756
  3
txt
  4

  0
ENDTAB
  0
TABLE
  2
VIEW
  5
6
330
0
100
AcDbSymbolTable
 70
     0
  0
ENDTAB
  0
TABLE
  2
UCS
  5
7
330
0
100
AcDbSymbolTable
 70
     0
  0
ENDTAB
  0
TABLE
  2
APPID
  5
9
330
0
100
AcDbSymbolTable
 70
     1
  0
APPID
  5
12
330
9
100
AcDbSymbolTableRecord
100
AcDbRegAppTableRecord
  2
ACAD
 70
     0
  0
ENDTAB
  0
TABLE
  2
DIMSTYLE
  5
A
330
0
100
AcDbSymbolTable
 70
     1
100
AcDbDimStyleTable
  0
DIMSTYLE
105
27
330
A
100
AcDbSymbolTableRecord
100
AcDbDimStyleTableRecord
  2
Standard
 70
     0
178
     0
340
11
  0
ENDTAB
  0
TABLE
  2
BLOCK_RECORD
  5
1
330
0
100
AcDbSymbolTable
 70
     1
  0
BLOCK_RECORD
  5
1F
330
1
100
AcDbSymbolTableRecord
100
AcDbBlockTableRecord
  2
*Model_Space
340
22
  0
BLOCK_RECORD
  5
1B
330
1
100
AcDbSymbolTableRecord
100
AcDbBlockTableRecord
  2
*Paper_Space
340
1E
  0
BLOCK_RECORD
  5
23
330
1
100
AcDbSymbolTableRecord
100
AcDbBlockTableRecord
  2
*Paper_Space0
340
26
  0
ENDTAB
  0
ENDSEC
  0
SECTION
  2
BLOCKS
  0
BLOCK
  5
20
330
1F
100
AcDbEntity
  8
0
100
AcDbBlockBegin
  2
*Model_Space
 70
     0
 10
0.0
 20
0.0
 30
0.0
  3
*Model_Space
  1

  0
ENDBLK
  5
21
330
1F
100
AcDbEntity
  8
0
100
AcDbBlockEnd
  0
BLOCK
  5
1C
330
1B
100
AcDbEntity
 67
     1
  8
0
100
AcDbBlockBegin
  2
*Paper_Space
 70
     0
 10
0.0
 20
0.0
 30
0.0
  3
*Paper_Space
  1

  0
ENDBLK
  5
1D
330
1B
100
AcDbEntity
 67
     1
  8
0
100
AcDbBlockEnd
  0
BLOCK
  5
24
330
23
100
AcDbEntity
  8
0
100
AcDbBlockBegin
  2
*Paper_Space0
 70
     0
 10
0.0
 20
0.0
 30
0.0
  3
*Paper_Space0
  1

  0
ENDBLK
  5
25
330
23
100
AcDbEntity
  8
0
100
AcDbBlockEnd
  0
ENDSEC
  0
SECTION
  2
ENTITIES
  0
LWPOLYLINE
  5
84
330
1F
100
AcDbEntity
  8
0
  6
Continuous
 62
     7
370
    25
100
AcDbPolyline
 90
        9
 70
   128
 43
0.0
 10
1.8276999423
 20
-1.0723258373
 10
1.8238679053
 20
-1.0679140394
 10
1.8225222728
 20
-1.0608777849
 10
1.8238679053
 20
-1.0522882797
 10
1.8276999423
 20
-1.0434531983
 10
1.8334349911
 20
-1.0357176015
 10
1.8401999423
 20
-1.030259164
 10
1.8469648936
 20
-1.0279088834
 10
1.8526999423
 20
-1.0290245685
  0
LWPOLYLINE
  5
86
330
1F
100
AcDbEntity
  8
0
  6
Continuous
 62
     7
370
    25
100
AcDbPolyline
 90
        9
 70
   128
 43
0.0
 10
2.7186999423
 20
-1.5871103296
 10
2.7244349911
 20
-1.5882260147
 10
2.7311999423
 20
-1.585875734
 10
2.7379648936
 20
-1.5804172965
 10
2.7436999423
 20
-1.5726816998
 10
2.7475319794
 20
-1.5638466183
 10
2.7488776119
 20
-1.5552571132
 10
2.7475319794
 20
-1.5482208587
 10
2.7436999423
 20
-1.5438090607
  0
LWPOLYLINE
  5
8A
330
1F
100
AcDbEntity
  8
0
  6
Continuous
 62
     7
370
    25
100
AcDbPolyline
 90
        9
 70
   128
 43
0.0
 10
2.7186999423
 20
-1.3372180137
 10
2.7244349911
 20
-1.3383336988
 10
2.7311999423
 20
-1.3359834181
 10
2.7379648936
 20
-1.3305249806
 10
2.7436999423
 20
-1.3227893839
 10
2.7475319794
 20
-1.3139543025
 10
2.7488776119
 20
-1.3053647973
 10
2.7475319794
 20
-1.2983285428
 10
2.7436999423
 20
-1.2939167449
  0
LWPOLYLINE
  5
8E
330
1F
100
AcDbEntity
  8
0
  6
Continuous
 62
     7
370
    25
100
AcDbPolyline
 90
        9
 70
   128
 43
0.0
 10
2.7186999423
 20
-1.2122718557
 10
2.7244349911
 20
-1.2133875409
 10
2.7311999423
 20
-1.2110372602
 10
2.7379648936
 20
-1.2055788227
 10
2.7436999423
 20
-1.197843226
 10
2.7475319794
 20
-1.1890081445
 10
2.7488776119
 20
-1.1804186394
 10
2.7475319794
 20
-1.1733823849
 10
2.7436999423
 20
-1.1689705869
  0
LWPOLYLINE
  5
92
330
1F
100
AcDbEntity
  8
0
  6
Continuous
 62
     7
370
    25
100
AcDbPolyline
 90
        9
 70
   128
 43
0.0
 10
2.7186999423
 20
-1.0873256978
 10
2.7244349911
 20
-1.0884413829
 10
2.7311999423
 20
-1.0860911023
 10
2.7379648936
 20
-1.0806326648
 10
2.7436999423
 20
-1.072897068
 10
2.7475319794
 20
-1.0640619866
 10
2.7488776119
 20
-1.0554724814
 10
2.7475319794
 20
-1.0484362269
 10
2.7436999423
 20
-1.044024429
  0
LWPOLYLINE
  5
96
330
1F
100
AcDbEntity
  8
0
  6
Continuous
 62
     7
370
    25
100
AcDbPolyline
 90
        9
 70
   128
 43
0.0
 10
2.7186999423
 20
-0.9623795399
 10
2.7244349911
 20
-0.963495225
 10
2.7311999423
 20
-0.9611449443
 10
2.7379648936
 20
-0.9556865068
 10
2.7436999423
 20
-0.9479509101
 10
2.7475319794
 20
-0.9391158286
 10
2.7488776119
 20
-0.9305263235
 10
2.7475319794
 20
-0.923490069
 10
2.7436999423
 20
-0.919078271
  0
LWPOLYLINE
  5
9A
330
1F
100
AcDbEntity
  8
0
  6
Continuous
 62
     7
370
    25
100
AcDbPolyline
 90
        9
 70
   128
 43
0.0
 10
2.7186999423
 20
-0.8374333819
 10
2.7244349911
 20
-0.838549067
 10
2.7311999423
 20
-0.8361987864
 10
2.7379648936
 20
-0.8307403489
 10
2.7436999423
 20
-0.8230047522
 10
2.7475319794
 20
-0.8141696707
 10
2.7488776119
 20
-0.8055801656
 10
2.7475319794
 20
-0.798543911
 10
2.7436999423
 20
-0.7941321131
  0
LWPOLYLINE
  5
9E
330
1F
100
AcDbEntity
  8
0
  6
Continuous
 62
     7
370
    25
100
AcDbPolyline
 90
        9
 70
   128
 43
0.0
 10
2.7186999423
 20
-0.712487224
 10
2.7244349911
 20
-0.7136029091
 10
2.7311999423
 20
-0.7112526284
 10
2.7379648936
 20
-0.7057941909
 10
2.7436999423
 20
-0.6980585942
 10
2.7475319794
 20
-0.6892235128
 10
2.7488776119
 20
-0.6806340076
 10
2.7475319794
 20
-0.6735977531
 10
2.7436999423
 20
-0.6691859552
  0
LWPOLYLINE
  5
A2
330
1F
100
AcDbEntity
  8
0
  6
Continuous
 62
     7
370
    25
100
AcDbPolyline
 90
        9
 70
   128
 43
0.0
 10
2.7186999423
 20
-0.587541066
 10
2.7244349911
 20
-0.5886567512
 10
2.7311999423
 20
-0.5863064705
 10
2.7379648936
 20
-0.580848033
 10
2.7436999423
 20
-0.5731124363
 10
2.7475319794
 20
-0.5642773548
 10
2.7488776119
 20
-0.5556878497
 10
2.7475319794
 20
-0.5486515952
 10
2.7436999423
 20
-0.5442397972
  0
LWPOLYLINE
  5
A8
330
1F
100
AcDbEntity
  8
0
  6
Continuous
 62
     7
370
    25
100
AcDbPolyline
 90
        9
 70
   128
 43
0.0
 10
1.8276999423
 20
-1.1972719953
 10
1.8238679053
 20
-1.1928601973
 10
1.8225222728
 20
-1.1858239428
 10
1.8238679053
 20
-1.1772344377
 10
1.8276999423
 20
-1.1683993562
 10
1.8334349911
 20
-1.1606637595
 10
1.8401999423
 20
-1.155205322
 10
1.8469648936
 20
-1.1528550413
 10
1.8526999423
 20
-1.1539707264
  0
LWPOLYLINE
  5
AC
330
1F
100
AcDbEntity
  8
0
  6
Continuous
 62
     7
370
    25
100
AcDbPolyline
 90
        9
 70
   128
 43
0.0
 10
1.8276999423
 20
-1.3222181532
 10
1.8238679053
 20
-1.3178063553
 10
1.8225222728
 20
-1.3107701007
 10
1.8238679053
 20
-1.3021805956
 10
1.8276999423
 20
-1.2933455141
 10
1.8334349911
 20
-1.2856099174
 10
1.8401999423
 20
-1.2801514799
 10
1.8469648936
 20
-1.2778011993
 10
1.8526999423
 20
-1.2789168844
  0
LWPOLYLINE
  5
B0
330
1F
100
AcDbEntity
  8
0
  6
Continuous
 62
     7
370
    25
100
AcDbPolyline
 90
        9
 70
   128
 43
0.0
 10
1.8276999423
 20
-1.4471643112
 10
1.8238679053
 20
-1.4427525132
 10
1.8225222728
 20
-1.4357162587
 10
1.8238679053
 20
-1.4271267535
 10
1.8276999423
 20
-1.4182916721
 10
1.8334349911
 20
-1.4105560754
 10
1.8401999423
 20
-1.4050976379
 10
1.8469648936
 20
-1.4027473572
 10
1.8526999423
 20
-1.4038630423
  0
LWPOLYLINE
  5
B4
330
1F
100
AcDbEntity
  8
0
  6
Continuous
 62
     7
370
    25
100
AcDbPolyline
 90
        9
 70
   128
 43
0.0
 10
1.8276999423
 20
-1.5721104691
 10
1.8238679053
 20
-1.5676986711
 10
1.8225222728
 20
-1.5606624166
 10
1.8238679053
 20
-1.5520729115
 10
1.8276999423
 20
-1.54323783
 10
1.8334349911
 20
-1.5355022333
 10
1.8401999423
 20
-1.5300437958
 10
1.8469648936
 20
-1.5276935151
 10
1.8526999423
 20
-1.5288092003
  0
LWPOLYLINE
  5
B8
330
1F
100
AcDbEntity
  8
0
  6
Continuous
 62
     7
370
    25
100
AcDbPolyline
 90
        9
 70
   128
 43
0.0
 10
1.8276999423
 20
-1.697056627
 10
1.8238679053
 20
-1.6926448291
 10
1.8225222728
 20
-1.6856085746
 10
1.8238679053
 20
-1.6770190694
 10
1.8276999423
 20
-1.668183988
 10
1.8334349911
 20
-1.6604483912
 10
1.8401999423
 20
-1.6549899537
 10
1.8469648936
 20
-1.6526396731
 10
1.8526999423
 20
-1.6537553582
  0
LWPOLYLINE
  5
BC
330
1F
100
AcDbEntity
  8
0
  6
Continuous
 62
     7
370
    25
100
AcDbPolyline
 90
        9
 70
   128
 43
0.0
 10
1.8276999423
 20
-1.822002785
 10
1.8238679053
 20
-1.817590987
 10
1.8225222728
 20
-1.8105547325
 10
1.8238679053
 20
-1.8019652274
 10
1.8276999423
 20
-1.7931301459
 10
1.8334349911
 20
-1.7853945492
 10
1.8401999423
 20
-1.7799361117
 10
1.8469648936
 20
-1.777585831
 10
1.8526999423
 20
-1.7787015161
  0
LWPOLYLINE
  5
C0
330
1F
100
AcDbEntity
  8
0
  6
Continuous
 62
     7
370
    25
100
AcDbPolyline
 90
        9
 70
   128
 43
0.0
 10
1.8276999423
 20
-1.9469489429
 10
1.8238679053
 20
-1.942537145
 10
1.8225222728
 20
-1.9355008904
 10
1.8238679053
 20
-1.9269113853
 10
1.8276999423
 20
-1.9180763038
 10
1.8334349911
 20
-1.9103407071
 10
1.8401999423
 20
-1.9048822696
 10
1.8469648936
 20
-1.902531989
 10
1.8526999423
 20
-1.9036476741
  0
LWPOLYLINE
  5
C4
330
1F
100
AcDbEntity
  8
0
  6
Continuous
 62
     7
370
    25
100
AcDbPolyline
 90
        9
 70
   128
 43
0.0
 10
1.8276999423
 20
-2.0718951009
 10
1.8238679053
 20
-2.0674833029
 10
1.8225222728
 20
-2.0604470484
 10
1.8238679053
 20
-2.0518575432
 10
1.8276999423
 20
-2.0430224618
 10
1.8334349911
 20
-2.0352868651
 10
1.8401999423
 20
-2.0298284276
 10
1.8469648936
 20
-2.0274781469
 10
1.8526999423
 20
-2.028593832
  0
LWPOLYLINE
  5
CA
330
1F
100
AcDbEntity
  8
0
  6
Continuous
 62
     7
370
    25
100
AcDbPolyline
 90
        9
 70
   128
 43
0.0
 10
2.7186999423
 20
-1.4621641716
 10
2.7244349911
 20
-1.4632798567
 10
2.7311999423
 20
-1.4609295761
 10
2.7379648936
 20
-1.4554711386
 10
2.7436999423
 20
-1.4477355419
 10
2.7475319794
 20
-1.4389004604
 10
2.7488776119
 20
-1.4303109553
 10
2.7475319794
 20
-1.4232747007
 10
2.7436999423
 20
-1.4188629028
  0
LWPOLYLINE
  5
132
330
1F
100
AcDbEntity
  8
0
  6
Continuous
 62
     7
370
    25
100
AcDbPolyline
 90
       11
 70
   128
 43
0.0
 10
-0.4036853451
 20
0.4146312112
 10
-0.4318293797
 20
0.4194717287
 10
-0.4641332159
 20
0.4112745244
 10
-0.497665129
 20
0.3907835331
 10
-0.5293819404
 20
0.3598584086
 10
-0.5564052004
 20
0.3213057511
 10
-0.5762824213
 20
0.2786243953
 10
-0.5872096519
 20
0.2356878749
 10
-0.5881951947
 20
0.1963928806
 10
-0.5791496071
 20
0.1643056177
 10
-0.5608938187
 20
0.1423381562
  0
LWPOLYLINE
  5
133
330
1F
100
AcDbEntity
  8
0
  6
Continuous
 62
     7
370
    25
100
AcDbPolyline
 90
        7
 70
   128
 43
0.0
 10
-0.5327831532
 20
0.3076578683
 10
-0.5489721081
 20
0.2710206526
 10
-0.5555306487
 20
0.2350306441
 10
-0.5515730077
 20
0.2045484929
 10
-0.5376336866
 20
0.1836909824
 10
-0.5155952679
 20
0.1752750349
 10
-0.4956489491
 20
0.1778387022
  0
LWPOLYLINE
  5
134
330
1F
100
AcDbEntity
  8
0
  6
Continuous
 62
     7
370
    25
100
AcDbPolyline
 90
        7
 70
   128
 43
0.0
 10
-0.4008119587
 20
0.3352092883
 10
-0.4095672443
 20
0.3589209531
 10
-0.4278677145
 20
0.3738112172
 10
-0.4528935898
 20
0.3754662531
 10
-0.4812649872
 20
0.3636625391
 10
-0.5091501921
 20
0.3399942321
 10
-0.5327831532
 20
0.3076578683
  0
SPLINE
  5
135
330
1F
100
AcDbEntity
  8
0
  6
Continuous
 62
     7
370
    25
100
AcDbSpline
210
0.0
220
0.0
230
1.0
 70
     8
 71
     3
 72
    10
 73
     6
 74
     0
 42
0.00000001
 43
0.00000001
 40
0.0
 40
0.0
 40
0.0
 40
0.0
 40
0.3546905044599533
 40
0.6887562479908832
 40
1.0
 40
1.0
 40
1.0
 40
1.0
 10
-0.8656363725041164
 20
0.6815550472672457
 30
0.0
 10
-0.8578500079597223
 20
0.6762276994123415
 30
0.0
 10
-0.8427300451706091
 20
0.6658827815920214
 30
0.0
 10
-0.8249878134030356
 20
0.643997224905019
 30
0.0
 10
-0.817086583394353
 20
0.6250431876430579
 30
0.0
 10
-0.8132756856927295
 20
0.6159013328990851
 30
0.0
  0
SPLINE
  5
136
330
1F
100
AcDbEntity
  8
0
  6
Continuous
 62
     7
370
    25
100
AcDbSpline
210
0.0
220
0.0
230
1.0
 70
     8
 71
     3
 72
     9
 73
     5
 74
     0
 42
0.00000001
 43
0.00000001
 40
0.0
 40
0.0
 40
0.0
 40
0.0
 40
0.7465621955924427
 40
1.0
 40
1.0
 40
1.0
 40
1.0
 10
-0.8132756856927295
 20
0.6159013328990851
 30
0.0
 10
-0.7957769044574008
 20
0.6160294361414118
 30
0.0
 10
-0.7723377572053187
 20
0.616201026992225
 30
0.0
 10
-0.7504751744299408
 20
0.6095204117730517
 30
0.0
 10
-0.74493436945267
 20
0.6078272913198124
 30
0.0
  0
LWPOLYLINE
  5
13A
330
1F
100
AcDbEntity
  8
0
  6
Continuous
 62
     7
370
    25
100
AcDbPolyline
 90
        6
 70
   128
 43
0.0
 10
-1.1224071338
 20
0.625242358
 10
-1.1394653049
 20
0.5792895568
 10
-1.1457801101
 20
0.5351641977
 10
-1.1407055757
 20
0.4973800889
 10
-1.1247608017
 20
0.4698023595
 10
-1.1131612139
 20
0.460759908
  0
LWPOLYLINE
  5
13E
330
1F
100
AcDbEntity
  8
0
  6
Continuous
 62
     7
370
    25
100
AcDbPolyline
 90
        6
 70
   128
 43
0.0
 10
-0.9557228581
 20
0.7335480356
 10
-0.9693072115
 20
0.7390558674
 10
-1.0011541263
 20
0.7390902819
 10
-1.0364062311
 20
0.7246053072
 10
-1.0714574084
 20
0.6970826852
 10
-1.1027220944
 20
0.6593378453
  0
SPLINE
  5
13F
330
1F
100
AcDbEntity
  8
0
  6
Continuous
 62
     7
370
    25
100
AcDbSpline
210
0.0
220
0.0
230
1.0
 70
     8
 71
     3
 72
    12
 73
     8
 74
     0
 42
0.00000001
 43
0.00000001
 40
0.0
 40
0.0
 40
0.0
 40
0.0
 40
0.0272178865214422
 40
0.3078649869588649
 40
0.5885459247915187
 40
0.8699833930275432
 40
0.9999999999999999
 40
0.9999999999999999
 40
0.9999999999999999
 40
0.9999999999999999
 10
-0.8627834778336303
 20
0.3546953133754633
 30
0.0
 10
-0.8645827730595761
 20
0.3561666079659246
 30
0.0
 10
-0.8849348309181012
 20
0.3728086087894723
 30
0.0
 10
-0.923441162712429
 20
0.4039486949141855
 30
0.0
 10
-0.9769491780314788
 20
0.4506409020543036
 30
0.0
 10
-1.019231924379
 20
0.490879567322121
 30
0.0
 10
-1.04268190778078
 20
0.5164801288442589
 30
0.0
 10
-1.050091938350815
 20
0.5245697270430651
 30
0.0
  0
SPLINE
  5
148
330
1F
100
AcDbEntity
  8
0
  6
Continuous
 62
     7
370
    25
100
AcDbSpline
210
0.0
220
0.0
230
1.0
 70
     8
 71
     3
 72
     9
 73
     5
 74
     0
 42
0.00000001
 43
0.00000001
 40
0.0
 40
0.0
 40
0.0
 40
0.0
 40
0.2034079163083717
 40
0.9999999999999999
 40
0.9999999999999999
 40
0.9999999999999999
 40
0.9999999999999999
 10
-0.9013201786071514
 20
0.5430730763750116
 30
0.0
 10
-0.9026010448601524
 20
0.543812171288757
 30
0.0
 10
-0.9088980773269657
 20
0.5474457315117768
 30
0.0
 10
-0.9151288090906842
 20
0.5510409958677647
 30
0.0
 10
-0.9200921606892682
 20
0.5539049549925231
 30
0.0
  0
SPLINE
  5
14D
330
1F
100
AcDbEntity
  8
0
  6
Continuous
 62
     7
370
    25
100
AcDbSpline
210
0.0
220
0.0
230
1.0
 70
     8
 71
     3
 72
    10
 73
     6
 74
     0
 42
0.00000001
 43
0.00000001
 40
0.0
 40
0.0
 40
0.0
 40
0.0
 40
0.3144637803141456
 40
0.6567443579280743
 40
1.0
 40
1.0
 40
1.0
 40
1.0
 10
-0.6835271025163788
 20
0.6446364776510326
 30
0.0
 10
-0.701959574503864
 20
0.6504341084782875
 30
0.0
 10
-0.74045501575422
 20
0.6625422162271221
 30
0.0
 10
-0.8012893189011042
 20
0.6750154538732875
 30
0.0
 10
-0.8441092465633989
 20
0.6792633196391431
 30
0.0
 10
-0.865549662607251
 20
0.6813902734732704
 30
0.0
  0
SPLINE
  5
14F
330
1F
100
AcDbEntity
  8
0
  6
Continuous
 62
     7
370
    25
100
AcDbSpline
210
0.0
220
0.0
230
1.0
 70
     8
 71
     3
 72
     9
 73
     5
 74
     0
 42
0.00000001
 43
0.00000001
 40
0.0
 40
0.0
 40
0.0
 40
0.0
 40
0.5599180739623915
 40
1.0
 40
1.0
 40
1.0
 40
1.0
 10
-1.0076923096416
 20
0.4355069543880544
 30
0.0
 10
-0.9869265409696204
 20
0.4071003973779054
 30
0.0
 10
-0.9498393854773427
 20
0.3563669805958338
 30
0.0
 10
-0.9046047952254536
 20
0.3145857318182222
 30
0.0
 10
-0.8846978696238801
 20
0.2961985593839144
 30
0.0
  0
SPLINE
  5
152
330
1F
100
AcDbEntity
  8
0
  6
Continuous
 62
     7
370
    25
100
AcDbSpline
210
0.0
220
0.0
230
1.0
 70
     8
 71
     3
 72
    10
 73
     6
 74
     0
 42
0.00000001
 43
0.00000001
 40
0.0
 40
0.0
 40
0.0
 40
0.0
 40
0.3127021209605939
 40
0.6553916829709111
 40
1.0
 40
1.0
 40
1.0
 40
1.0
 10
-1.02280104606369
 20
0.4086089782493797
 30
0.0
 10
-1.011394514851241
 20
0.3926642289638371
 30
0.0
 10
-0.9874875913381453
 20
0.359245664239366
 30
0.0
 10
-0.9466567613483301
 20
0.3124934976954374
 30
0.0
 10
-0.9156228238899968
 20
0.2839151722280804
 30
0.0
 10
-0.9000625358628466
 20
0.2695861179080234
 30
0.0
  0
SPLINE
  5
155
330
1F
100
AcDbEntity
  8
0
  6
Continuous
 62
     7
370
    25
100
AcDbSpline
210
0.0
220
0.0
230
1.0
 70
     8
 71
     3
 72
    10
 73
     6
 74
     0
 42
0.00000001
 43
0.00000001
 40
0.0
 40
0.0
 40
0.0
 40
0.0
 40
0.2488486778322619
 40
0.5374673296789912
 40
1.0
 40
1.0
 40
1.0
 40
1.0
 10
-0.977162503676318
 20
0.4515607013460846
 30
0.0
 10
-0.9796945820030286
 20
0.4502383141693129
 30
0.0
 10
-0.9851634050188866
 20
0.4473822013263897
 30
0.0
 10
-0.9953397736900831
 20
0.442037982195186
 30
0.0
 10
-1.002984781591258
 20
0.4379959167129005
 30
0.0
 10
-1.0076923096416
 20
0.4355069543880544
 30
0.0
  0
SPLINE
  5
157
330
1F
100
AcDbEntity
  8
0
  6
Continuous
 62
     7
370
    25
100
AcDbSpline
210
0.0
220
0.0
230
1.0
 70
     8
 71
     3
 72
     9
 73
     5
 74
     0
 42
0.00000001
 43
0.00000001
 40
0.0
 40
0.0
 40
0.0
 40
0.0
 40
0.4799710071843141
 40
1.0
 40
1.0
 40
1.0
 40
1.0
 10
-1.122407133772881
 20
0.625242358015909
 30
0.0
 10
-1.13141584027715
 20
0.6304403810475065
 30
0.0
 10
-1.150185112523651
 20
0.6412702498391474
 30
0.0
 10
-1.168939450276263
 20
0.652091492614096
 30
0.0
 10
-1.178692249648678
 20
0.6577188525953667
 30
0.0
  0
LWPOLYLINE
  5
15A
330
1F
100
AcDbEntity
  8
0
  6
Continuous
 62
     7
370
    25
100
AcDbPolyline
 90
        7
 70
   128
 43
0.0
 10
-1.2295041904
 20
0.7143272417
 10
-1.2509445628
 20
0.6694361728
 10
-1.2624678855
 20
0.6241413813
 10
-1.262910289
 20
0.583017697
 10
-1.25222709
 20
0.5502186622
 10
-1.2314973045
 20
0.52905702
 10
-1.2314763249
 20
0.5290449053
  0
LWPOLYLINE
  5
15D
330
1F
100
AcDbEntity
  8
0
  6
Continuous
 62
     7
370
    25
100
AcDbPolyline
 90
        7
 70
   128
 43
0.0
 10
-1.1920042579
 20
0.6654100034
 10
-1.209062429
 20
0.6194572022
 10
-1.2153772342
 20
0.5753318431
 10
-1.2103026998
 20
0.5375477343
 10
-1.1943579259
 20
0.5099700049
 10
-1.1691739846
 20
0.4954197216
 10
-1.1462381833
 20
0.4939538333
  0
LWPOLYLINE
  5
161
330
1F
100
AcDbEntity
  8
0
  6
Continuous
 62
     7
370
    25
100
AcDbPolyline
 90
        7
 70
   128
 43
0.0
 10
-1.00101183
 20
0.7455826364
 10
-1.0043751537
 20
0.7522063984
 10
-1.0252990027
 20
0.7737035663
 10
-1.0543691429
 20
0.7810909443
 10
-1.0885780387
 20
0.7736042498
 10
-1.1243865097
 20
0.7520180406
 10
-1.1580898866
 20
0.7185655804
  0
SPLINE
  5
165
330
1F
100
AcDbEntity
  8
0
  6
Continuous
 62
     7
370
    25
100
AcDbSpline
210
0.0
220
0.0
230
1.0
 70
     8
 71
     3
 72
     9
 73
     5
 74
     0
 42
0.00000001
 43
0.00000001
 40
0.0
 40
0.0
 40
0.0
 40
0.0
 40
0.149607063976851
 40
1.0
 40
1.0
 40
1.0
 40
1.0
 10
-1.262574867988622
 20
0.778860076738167
 30
0.0
 10
-1.259801948767319
 20
0.7772601276096215
 30
0.0
 10
-1.241267267666087
 20
0.766565785470849
 30
0.0
 10
-1.222644523547211
 20
0.7558205794555718
 30
0.0
 10
-1.206807873499152
 20
0.7466829321640666
 30
0.0
  0
SPLINE
  5
168
330
1F
100
AcDbEntity
  8
0
  6
Continuous
 62
     7
370
    25
100
AcDbSpline
210
0.0
220
0.0
230
1.0
 70
     8
 71
     3
 72
     9
 73
     5
 74
     0
 42
0.00000001
 43
0.00000001
 40
0.0
 40
0.0
 40
0.0
 40
0.0
 40
0.7361904861461331
 40
1.0
 40
1.0
 40
1.0
 40
1.0
 10
-1.288422848174026
 20
0.6755924617227498
 30
0.0
 10
-1.293828975697013
 20
0.6787117033374487
 30
0.0
 10
-1.301172357097236
 20
0.6829487067671288
 30
0.0
 10
-1.308480785908095
 20
0.6871655223503838
 30
0.0
 10
-1.310408818959724
 20
0.6882779584194137
 30
0.0
  0
LWPOLYLINE
  5
16C
330
1F
100
AcDbEntity
  8
0
  6
Continuous
 62
     7
370
    25
100
AcDbPolyline
 90
        8
 70
   128
 43
0.0
 10
-1.119326941
 20
0.8138676336
 10
-1.1324551684
 20
0.833383563
 10
-1.1566414405
 20
0.8473574325
 10
-1.1870277668
 20
0.8479570075
 10
-1.2207471749
 20
0.8351257176
 10
-1.2546182138
 20
0.8100742045
 10
-1.2854451258
 20
0.7751660969
 10
-1.3103193689
 20
0.7336950007
  0
LWPOLYLINE
  5
16E
330
1F
100
AcDbEntity
  8
0
  6
Continuous
 62
     7
370
    25
100
AcDbPolyline
 90
        7
 70
   128
 43
0.0
 10
-1.1923530802
 20
0.8701180301
 10
-1.2053594274
 20
0.8754747843
 10
-1.2357457537
 20
0.8760743594
 10
-1.2694651618
 20
0.8632430694
 10
-1.3033362007
 20
0.8381915563
 10
-1.3341631126
 20
0.8032834487
 10
-1.3590373558
 20
0.7618123525
  0
LWPOLYLINE
  5
172
330
1F
100
AcDbEntity
  8
0
  6
Continuous
 62
     7
370
    25
100
AcDbPolyline
 90
        7
 70
   128
 43
0.0
 10
-1.3248759098
 20
0.6966364702
 10
-1.3331033521
 20
0.6550904894
 10
-1.3316592469
 20
0.6179560043
 10
-1.3206697058
 20
0.5884759126
 10
-1.3010944286
 20
0.5692246654
 10
-1.2746428942
 20
0.5618834447
 10
-1.2645532944
 20
0.5622388305
  0
LWPOLYLINE
  5
173
330
1F
100
AcDbEntity
  8
0
  6
Continuous
 62
     7
370
    25
100
AcDbPolyline
 90
        6
 70
   128
 43
0.0
 10
-1.3735938967
 20
0.724753822
 10
-1.381821339
 20
0.6832078412
 10
-1.3803772338
 20
0.6460733561
 10
-1.3693876927
 20
0.6165932644
 10
-1.3498124155
 20
0.5973420172
 10
-1.3497914359
 20
0.5973299025
  0
SPLINE
  5
17A
330
1F
100
AcDbEntity
  8
0
  6
Continuous
 62
     7
370
    25
100
AcDbSpline
210
0.0
220
0.0
230
1.0
 70
     8
 71
     3
 72
     9
 73
     5
 74
     0
 42
0.00000001
 43
0.00000001
 40
0.0
 40
0.0
 40
0.0
 40
0.0
 40
0.4671595557994867
 40
1.0
 40
1.0
 40
1.0
 40
1.0
 10
-1.373593896708358
 20
0.7247538220300999
 30
0.0
 10
-1.38222029453029
 20
0.7297311382094726
 30
0.0
 10
-1.40068592948272
 20
0.7403855626295294
 30
0.0
 10
-1.418977461786942
 20
0.7509394288770372
 30
0.0
 10
-1.428723929985032
 20
0.756562955656392
 30
0.0
  0
SPLINE
  5
17D
330
1F
100
AcDbEntity
  8
0
  6
Continuous
 62
     7
370
    25
100
AcDbSpline
210
0.0
220
0.0
230
1.0
 70
     8
 71
     3
 72
     9
 73
     5
 74
     0
 42
0.00000001
 43
0.00000001
 40
0.0
 40
0.0
 40
0.0
 40
0.0
 40
0.1496070639787731
 40
1.0
 40
1.0
 40
1.0
 40
1.0
 10
-1.499205090039237
 20
0.915430071212123
 30
0.0
 10
-1.496432170817899
 20
0.9138301220835571
 30
0.0
 10
-1.477897489716668
 20
0.9031357799447848
 30
0.0
 10
-1.459274745597791
 20
0.8923905739295075
 30
0.0
 10
-1.443438095549768
 20
0.8832529266380229
 30
0.0
  0
LWPOLYLINE
  5
180
330
1F
100
AcDbEntity
  8
0
  6
Continuous
 62
     7
370
    25
100
AcDbPolyline
 90
        8
 70
   128
 43
0.0
 10
-1.4174164256
 20
0.8227798844
 10
-1.4388567979
 20
0.7778888155
 10
-1.4503801207
 20
0.732594024
 10
-1.4508225242
 20
0.6914703396
 10
-1.4401393251
 20
0.6586713049
 10
-1.4194095397
 20
0.6375096627
 10
-1.3907269016
 20
0.6301227647
 10
-1.3828684054
 20
0.6305238278
  0
LWPOLYLINE
  5
183
330
1F
100
AcDbEntity
  8
0
  6
Continuous
 62
     7
370
    25
100
AcDbPolyline
 90
        7
 70
   128
 43
0.0
 10
-1.4661344125
 20
0.8508972362
 10
-1.4875747848
 20
0.8060061673
 10
-1.4990981076
 20
0.7607113758
 10
-1.4995405111
 20
0.7195876914
 10
-1.488857312
 20
0.6867886567
 10
-1.4681275266
 20
0.6656270145
 10
-1.4681065469
 20
0.6656148997
  0
LWPOLYLINE
  5
184
330
1F
100
AcDbEntity
  8
0
  6
Continuous
 62
     7
370
    25
100
AcDbPolyline
 90
        7
 70
   128
 43
0.0
 10
-1.237642052
 20
0.8821526309
 10
-1.2410053757
 20
0.8887763929
 10
-1.2619292247
 20
0.9102735608
 10
-1.2909993649
 20
0.9176609388
 10
-1.3252082608
 20
0.9101742443
 10
-1.3610167317
 20
0.888588035
 10
-1.3947201087
 20
0.8551355748
  0
LWPOLYLINE
  5
18B
330
1F
100
AcDbEntity
  8
0
  6
Continuous
 62
     7
370
    25
100
AcDbPolyline
 90
        7
 70
   128
 43
0.0
 10
-1.546949591
 20
0.8702649952
 10
-1.5640077621
 20
0.8243121939
 10
-1.5703225673
 20
0.7801868349
 10
-1.5652480329
 20
0.742402726
 10
-1.5493032589
 20
0.7148249966
 10
-1.5241193177
 20
0.7002747133
 10
-1.5011835164
 20
0.698808825
  0
LWPOLYLINE
  5
18C
330
1F
100
AcDbEntity
  8
0
  6
Continuous
 62
     7
370
    25
100
AcDbPolyline
 90
        6
 70
   128
 43
0.0
 10
-1.5956675779
 20
0.898382347
 10
-1.612725749
 20
0.8524295457
 10
-1.6190405542
 20
0.8083041867
 10
-1.6139660198
 20
0.7705200778
 10
-1.5980212458
 20
0.7429423484
 10
-1.586421658
 20
0.733899897
  0
SPLINE
  5
191
330
1F
100
AcDbEntity
  8
0
  6
Continuous
 62
     7
370
    25
100
AcDbSpline
210
0.0
220
0.0
230
1.0
 70
     8
 71
     3
 72
     9
 73
     5
 74
     0
 42
0.00000001
 43
0.00000001
 40
0.0
 40
0.0
 40
0.0
 40
0.0
 40
0.7743545513062848
 40
1.0
 40
1.0
 40
1.0
 40
1.0
 10
-1.62573205850895
 20
0.961168901002851
 30
0.0
 10
-1.612943889660618
 20
0.9537938716838584
 30
0.0
 10
-1.596429272646023
 20
0.9442697727984688
 30
0.0
 10
-1.579746851017662
 20
0.9346487697714261
 30
0.0
 10
-1.575982538504033
 20
0.9324778342265053
 30
0.0
  0
LWPOLYLINE
  5
197
330
1F
100
AcDbEntity
  8
0
  6
Continuous
 62
     7
370
    25
100
AcDbPolyline
 90
        7
 70
   128
 43
0.0
 10
-1.355957163
 20
0.9504376281
 10
-1.3686657275
 20
0.9695282213
 10
-1.3938496687
 20
0.9840785046
 10
-1.4256965835
 20
0.9841129191
 10
-1.4609486883
 20
0.9696279443
 10
-1.4959998656
 20
0.9421053223
 10
-1.5272645516
 20
0.9043604824
  0
LWPOLYLINE
  5
199
330
1F
100
AcDbEntity
  8
0
  6
Continuous
 62
     7
370
    25
100
AcDbPolyline
 90
        9
 70
   128
 43
0.0
 10
-1.4614352767
 20
0.866326936
 10
-1.4564588398
 20
0.8691893412
 10
-1.4516085071
 20
0.8707030189
 10
-1.4471264524
 20
0.8707923922
 10
-1.4432364617
 20
0.8694529988
 10
-1.4401327596
 20
0.8667517136
 10
-1.4379703118
 20
0.8628234101
 10
-1.4368570879
 20
0.8578642257
 10
-1.4368486704
 20
0.8521217692
  0
LWPOLYLINE
  5
19B
330
1F
100
AcDbEntity
  8
0
  6
Continuous
 62
     7
370
    25
100
AcDbPolyline
 90
        6
 70
   128
 43
0.0
 10
-1.4289833022
 20
1.0066880245
 10
-1.4425676556
 20
1.0121958564
 10
-1.4744145704
 20
1.0122302709
 10
-1.5096666752
 20
0.9977452961
 10
-1.5447178525
 20
0.9702226741
 10
-1.5759825385
 20
0.9324778342
  0
SPLINE
  5
1A6
330
1F
100
AcDbEntity
  8
0
  6
Continuous
 62
     7
370
    25
100
AcDbSpline
210
0.0
220
0.0
230
1.0
 70
     8
 71
     3
 72
     9
 73
     5
 74
     0
 42
0.00000001
 43
0.00000001
 40
0.0
 40
0.0
 40
0.0
 40
0.0
 40
0.669283584273456
 40
1.0
 40
1.0
 40
1.0
 40
1.0
 10
-0.3721196172147212
 20
0.3692780980641374
 30
0.0
 10
-0.3601186984075602
 20
0.3692755752486621
 30
0.0
 10
-0.3421877060910683
 20
0.3692718058218681
 30
0.0
 10
-0.3254648819225203
 20
0.3640169875231563
 30
0.0
 10
-0.3199343694526722
 20
0.3622791328501119
 30
0.0
  0
SPLINE
  5
1A9
330
1F
100
AcDbEntity
  8
0
  6
Continuous
 62
     7
370
    25
100
AcDbSpline
210
0.0
220
0.0
230
1.0
 70
     8
 71
     3
 72
     9
 73
     5
 74
     0
 42
0.00000001
 43
0.00000001
 40
0.0
 40
0.0
 40
0.0
 40
0.0
 40
0.1177017422731023
 40
0.9999999999999999
 40
0.9999999999999999
 40
0.9999999999999999
 40
0.9999999999999999
 10
-0.4377834778336325
 20
0.1091471549057628
 30
0.0
 10
-0.4395834706214914
 20
0.1106180884540004
 30
0.0
 10
-0.4548763010681499
 20
0.1231152148331888
 30
0.0
 10
-0.4698998122799236
 20
0.1354914790145866
 30
0.0
 10
-0.4831550300470116
 20
0.1464110353390015
 30
0.0
  0
SPLINE
  5
1AC
330
1F
100
AcDbEntity
  8
0
  6
Continuous
 62
     7
370
    25
100
AcDbSpline
210
0.0
220
0.0
230
1.0
 70
     8
 71
     3
 72
    10
 73
     6
 74
     0
 42
0.00000001
 43
0.00000001
 40
0.0
 40
0.0
 40
0.0
 40
0.0
 40
0.3144637803141456
 40
0.6567443579280743
 40
1.0
 40
1.0
 40
1.0
 40
1.0
 10
-0.2585271025163816
 20
0.3990883191813321
 30
0.0
 10
-0.2769595745038663
 20
0.404885950008587
 30
0.0
 10
-0.3154550157542222
 20
0.4169940577574216
 30
0.0
 10
-0.3762893189011065
 20
0.4294672954035872
 30
0.0
 10
-0.4191092465634011
 20
0.4337151611694426
 30
0.0
 10
-0.4405496626072531
 20
0.43584211500357
 30
0.0
  0
SPLINE
  5
1B0
330
1F
100
AcDbEntity
  8
0
  6
Continuous
 62
     7
370
    25
100
AcDbSpline
210
0.0
220
0.0
230
1.0
 70
     8
 71
     3
 72
    10
 73
     6
 74
     0
 42
0.00000001
 43
0.00000001
 40
0.0
 40
0.0
 40
0.0
 40
0.0
 40
0.3127021209605939
 40
0.6553916829709111
 40
1.0
 40
1.0
 40
1.0
 40
1.0
 10
-0.5978010460636927
 20
0.1630608197796791
 30
0.0
 10
-0.5863945148512432
 20
0.1471160704941367
 30
0.0
 10
-0.5624875913381475
 20
0.1136975057696656
 30
0.0
 10
-0.5216567613483323
 20
0.066945339225737
 30
0.0
 10
-0.4906228238899985
 20
0.0383670137583797
 30
0.0
 10
-0.4750625358628494
 20
0.0240379594383229
 30
0.0
  0
SPLINE
  5
1B2
330
1F
100
AcDbEntity
  8
0
  6
Continuous
 62
     7
370
    25
100
AcDbSpline
210
0.0
220
0.0
230
1.0
 70
     8
 71
     3
 72
     9
 73
     5
 74
     0
 42
0.00000001
 43
0.00000001
 40
0.0
 40
0.0
 40
0.0
 40
0.0
 40
0.3045952753080657
 40
1.0
 40
1.0
 40
1.0
 40
1.0
 10
-0.5401669370038072
 20
0.1359177577317448
 30
0.0
 10
-0.5328843195720708
 20
0.126285200203864
 30
0.0
 10
-0.5089751587212634
 20
0.0946610802363482
 30
0.0
 10
-0.4799099518242285
 20
0.0687022760162341
 30
0.0
 10
-0.4596978696238823
 20
0.050650400914214
 30
0.0
  0
LWPOLYLINE
  5
1B6
330
1F
100
AcDbEntity
  8
0
  6
Continuous
 62
     7
370
    25
100
AcDbPolyline
 90
        3
 70
   128
 43
0.0
 10
-0.8105853326
 20
0.2861296935
 10
-0.8064973045
 20
0.2835088615
 10
-0.8064763249
 20
0.2834967468
  0
LWPOLYLINE
  5
1B9
330
1F
100
AcDbEntity
  8
0
  6
Continuous
 62
     7
370
    25
100
AcDbPolyline
 90
        3
 70
   128
 43
0.0
 10
-1.0472155547
 20
0.422699688
 10
-1.0431275266
 20
0.420078856
 10
-1.0431065469
 20
0.4200667413
  0
LWPOLYLINE
  5
1BB
330
1F
100
AcDbEntity
  8
0
  6
Continuous
 62
     7
370
    25
100
AcDbPolyline
 90
        3
 70
   128
 43
0.0
 10
-1.1267481497
 20
0.4719447122
 10
-1.1243032589
 20
0.4692768382
 10
-1.1083682789
 20
0.4579936887
  0
SPLINE
  5
1BE
330
1F
100
AcDbEntity
  8
0
  6
Continuous
 62
     7
370
    25
100
AcDbSpline
210
0.0
220
0.0
230
1.0
 70
     8
 71
     3
 72
     9
 73
     5
 74
     0
 42
0.00000001
 43
0.00000001
 40
0.0
 40
0.0
 40
0.0
 40
0.0
 40
0.2261360386118727
 40
0.9999999999999999
 40
0.9999999999999999
 40
0.9999999999999999
 40
0.9999999999999999
 10
-1.382144281533903
 20
0.7491666225891846
 30
0.0
 10
-1.382041373824222
 20
0.7469014632442146
 30
0.0
 10
-1.381586303901209
 20
0.736884663804043
 30
0.0
 10
-1.378142228856263
 20
0.7287680053902101
 30
0.0
 10
-1.375476983298663
 20
0.7224868159568469
 30
0.0
  0
SPLINE
  5
1BF
330
1F
100
AcDbEntity
  8
0
  6
Continuous
 62
     7
370
    25
100
AcDbSpline
210
0.0
220
0.0
230
1.0
 70
     8
 71
     3
 72
    11
 73
     7
 74
     0
 42
0.00000001
 43
0.00000001
 40
0.0
 40
0.0
 40
0.0
 40
0.0
 40
0.0495332102558254
 40
0.4775543384656512
 40
0.617910501072813
 40
1.0
 40
1.0
 40
1.0
 40
1.0
 10
-1.335112038223141
 20
0.7480301714164744
 30
0.0
 10
-1.335389403361848
 20
0.7471854631647391
 30
0.0
 10
-1.338063506749138
 20
0.739041551468515
 30
0.0
 10
-1.338201680802958
 20
0.728225450334121
 30
0.0
 10
-1.337482700030395
 20
0.7129743913065788
 30
0.0
 10
-1.334634743239161
 20
0.7060966500111229
 30
0.0
 10
-1.332551896230473
 20
0.7010666288647824
 30
0.0
  0
SPLINE
  5
1C0
330
1F
100
AcDbEntity
  8
0
  6
Continuous
 62
     7
370
    25
100
AcDbSpline
210
0.0
220
0.0
230
1.0
 70
     8
 71
     3
 72
    11
 73
     7
 74
     0
 42
0.00000001
 43
0.00000001
 40
0.0
 40
0.0
 40
0.0
 40
0.0
 40
0.0496811397843039
 40
0.4789805409618786
 40
0.6197558732704731
 40
1.0
 40
1.0
 40
1.0
 40
1.0
 10
-1.290917864398982
 20
0.7225237165661913
 30
0.0
 10
-1.291195232399163
 20
0.7216790065582579
 30
0.0
 10
-1.293869363374195
 20
0.7135350779303622
 30
0.0
 10
-1.294006540679909
 20
0.7027195885390605
 30
0.0
 10
-1.293292488430912
 20
0.6875146648896391
 30
0.0
 10
-1.290461945614845
 20
0.6806753961649352
 30
0.0
 10
-1.288396193054944
 20
0.6756840436951168
 30
0.0
  0
SPLINE
  5
1C1
330
1F
100
AcDbEntity
  8
0
  6
Continuous
 62
     7
370
    25
100
AcDbSpline
210
0.0
220
0.0
230
1.0
 70
     8
 71
     3
 72
     9
 73
     5
 74
     0
 42
0.00000001
 43
0.00000001
 40
0.0
 40
0.0
 40
0.0
 40
0.0
 40
0.4761991701513357
 40
1.0
 40
1.0
 40
1.0
 40
1.0
 10
-1.215988642613536
 20
0.7512354094532367
 30
0.0
 10
-1.220136395203918
 20
0.7474205236531366
 30
0.0
 10
-1.228846516620264
 20
0.7394094097343787
 30
0.0
 10
-1.235309183519489
 20
0.7264290761517634
 30
0.0
 10
-1.238694333804338
 20
0.719629966649477
 30
0.0
  0
SPLINE
  5
1C2
330
1F
100
AcDbEntity
  8
0
  6
Continuous
 62
     7
370
    25
100
AcDbSpline
210
0.0
220
0.0
230
1.0
 70
     8
 71
     3
 72
     9
 73
     5
 74
     0
 42
0.00000001
 43
0.00000001
 40
0.0
 40
0.0
 40
0.0
 40
0.0
 40
0.4761264254348096
 40
1.0
 40
1.0
 40
1.0
 40
1.0
 10
-1.171794468789377
 20
0.7257289546029537
 30
0.0
 10
-1.175942195428422
 20
0.7219140114233178
 30
0.0
 10
-1.184653593110784
 20
0.7139015530176492
 30
0.0
 10
-1.191117192899908
 20
0.7009191157286037
 30
0.0
 10
-1.194503302025996
 20
0.6941179598994232
 30
0.0
  0
SPLINE
  5
1C3
330
1F
100
AcDbEntity
  8
0
  6
Continuous
 62
     7
370
    25
100
AcDbSpline
210
0.0
220
0.0
230
1.0
 70
     8
 71
     3
 72
     9
 73
     5
 74
     0
 42
0.00000001
 43
0.00000001
 40
0.0
 40
0.0
 40
0.0
 40
0.0
 40
0.501710882033245
 40
1.0
 40
1.0
 40
1.0
 40
1.0
 10
-1.142556667550037
 20
0.6823098681572841
 30
0.0
 10
-1.146088478193598
 20
0.6767795785678178
 30
0.0
 10
-1.153128011857385
 20
0.6657567170204371
 30
0.0
 10
-1.156609153254318
 20
0.6525557074720862
 30
0.0
 10
-1.158343768130514
 20
0.6459777880679676
 30
0.0
  0
SPLINE
  5
1C4
330
1F
100
AcDbEntity
  8
0
  6
Continuous
 62
     7
370
    25
100
AcDbSpline
210
0.0
220
0.0
230
1.0
 70
     8
 71
     3
 72
     9
 73
     5
 74
     0
 42
0.00000001
 43
0.00000001
 40
0.0
 40
0.0
 40
0.0
 40
0.0
 40
0.4998454154141969
 40
1.0
 40
1.0
 40
1.0
 40
1.0
 10
-1.098436818448736
 20
0.6566720837734066
 30
0.0
 10
-1.101940464788329
 20
0.6511834959922029
 30
0.0
 10
-1.108949924576391
 20
0.6402029255759362
 30
0.0
 10
-1.112415079992363
 20
0.627052830581164
 30
0.0
 10
-1.114148193359964
 20
0.6204757502817899
 30
0.0
  0
SPLINE
  5
1C5
330
1F
100
AcDbEntity
  8
0
  6
Continuous
 62
     7
370
    25
100
AcDbSpline
210
0.0
220
0.0
230
1.0
 70
     8
 71
     3
 72
     9
 73
     5
 74
     0
 42
0.00000001
 43
0.00000001
 40
0.0
 40
0.0
 40
0.0
 40
0.0
 40
0.4998454154141972
 40
1.0
 40
1.0
 40
1.0
 40
1.0
 10
-1.054242644624577
 20
0.6311656289231234
 30
0.0
 10
-1.05774629096417
 20
0.6256770411419198
 30
0.0
 10
-1.064755750752232
 20
0.614696470725653
 30
0.0
 10
-1.068220906168204
 20
0.601546375730881
 30
0.0
 10
-1.069954019535805
 20
0.5949692954315069
 30
0.0
  0
SPLINE
  5
1C6
330
1F
100
AcDbEntity
  8
0
  6
Continuous
 62
     7
370
    25
100
AcDbSpline
210
0.0
220
0.0
230
1.0
 70
     8
 71
     3
 72
     9
 73
     5
 74
     0
 42
0.00000001
 43
0.00000001
 40
0.0
 40
0.0
 40
0.0
 40
0.0
 40
0.4998454154141974
 40
1.0
 40
1.0
 40
1.0
 40
1.0
 10
-1.010048470800418
 20
0.6056591740728405
 30
0.0
 10
-1.013552117140011
 20
0.600170586291637
 30
0.0
 10
-1.020561576928073
 20
0.5891900158753701
 30
0.0
 10
-1.024026732344045
 20
0.576039920880598
 30
0.0
 10
-1.025759845711646
 20
0.5694628405812239
 30
0.0
  0
SPLINE
  5
1C7
330
1F
100
AcDbEntity
  8
0
  6
Continuous
 62
     7
370
    25
100
AcDbSpline
210
0.0
220
0.0
230
1.0
 70
     8
 71
     3
 72
     9
 73
     5
 74
     0
 42
0.00000001
 43
0.00000001
 40
0.0
 40
0.0
 40
0.0
 40
0.0
 40
0.5015894671005752
 40
1.0
 40
1.0
 40
1.0
 40
1.0
 10
-0.9657869131454143
 20
0.5802717844102432
 30
0.0
 10
-0.9693161243105044
 20
0.5747454079641355
 30
0.0
 10
-0.9763521794842528
 20
0.5637276797051021
 30
0.0
 10
-0.9798315279596975
 20
0.550532835208178
 30
0.0
 10
-0.9815656718874867
 20
0.543956385730941
 30
0.0
  0
SPLINE
  5
1C8
330
1F
100
AcDbEntity
  8
0
  6
Continuous
 62
     7
370
    25
100
AcDbSpline
210
0.0
220
0.0
230
1.0
 70
     8
 71
     3
 72
     9
 73
     5
 74
     0
 42
0.00000001
 43
0.00000001
 40
0.0
 40
0.0
 40
0.0
 40
0.0
 40
0.5016499086262087
 40
1.0
 40
1.0
 40
1.0
 40
1.0
 10
-0.9215903956241913
 20
0.5547694708016679
 30
0.0
 10
-0.925120496096403
 20
0.5492417800959262
 30
0.0
 10
-0.9321574762921713
 20
0.5382227594389111
 30
0.0
 10
-0.9356373184206396
 20
0.5250263584962422
 30
0.0
 10
-0.9373714980633276
 20
0.518449930880658
 30
0.0
  0
SPLINE
  5
1C9
330
1F
100
AcDbEntity
  8
0
  6
Continuous
 62
     7
370
    25
100
AcDbSpline
210
0.0
220
0.0
230
1.0
 70
     8
 71
     3
 72
     9
 73
     5
 74
     0
 42
0.00000001
 43
0.00000001
 40
0.0
 40
0.0
 40
0.0
 40
0.0
 40
0.5017081175339002
 40
1.0
 40
1.0
 40
1.0
 40
1.0
 10
-0.8773939641381168
 20
0.5292670051715933
 30
0.0
 10
-0.8809249212799232
 20
0.5237380484565961
 30
0.0
 10
-0.8879627925409319
 20
0.5127177828444424
 30
0.0
 10
-0.8914431102008353
 20
0.4995198825918429
 30
0.0
 10
-0.8931773242391686
 20
0.4929434760303751
 30
0.0
  0
SPLINE
  5
1CA
330
1F
100
AcDbEntity
  8
0
  6
Continuous
 62
     7
370
    25
100
AcDbSpline
210
0.0
220
0.0
230
1.0
 70
     8
 71
     3
 72
     9
 73
     5
 74
     0
 42
0.00000001
 43
0.00000001
 40
0.0
 40
0.0
 40
0.0
 40
0.0
 40
0.5017655693226165
 40
1.0
 40
1.0
 40
1.0
 40
1.0
 10
-0.8331975615000056
 20
0.5037644885680419
 30
0.0
 10
-0.8367293643729306
 20
0.4982342820254322
 30
0.0
 10
-0.843768115313321
 20
0.4872127873659333
 30
0.0
 10
-0.8472489024284127
 20
0.4740134069612925
 30
0.0
 10
-0.84898315041501
 20
0.4674370211800922
 30
0.0
  0
SPLINE
  5
1CB
330
1F
100
AcDbEntity
  8
0
  6
Continuous
 62
     7
370
    25
100
AcDbSpline
210
0.0
220
0.0
230
1.0
 70
     8
 71
     3
 72
     9
 73
     5
 74
     0
 42
0.00000001
 43
0.00000001
 40
0.0
 40
0.0
 40
0.0
 40
0.0
 40
0.5018081388082137
 40
1.0
 40
1.0
 40
1.0
 40
1.0
 10
-0.7890017358819792
 20
0.4782609523874808
 30
0.0
 10
-0.7925341655388171
 20
0.4727298195895894
 30
0.0
 10
-0.7995735684174314
 20
0.4617074140721585
 30
0.0
 10
-0.8030547034499437
 20
0.4485069367136598
 30
0.0
 10
-0.8047889765908505
 20
0.4419305663298093
 30
0.0
  0
SPLINE
  5
1CC
330
1F
100
AcDbEntity
  8
0
  6
Continuous
 62
     7
370
    25
100
AcDbSpline
210
0.0
220
0.0
230
1.0
 70
     8
 71
     3
 72
     9
 73
     5
 74
     0
 42
0.00000001
 43
0.00000001
 40
0.0
 40
0.0
 40
0.0
 40
0.0
 40
0.6549780816780397
 40
1.0
 40
1.0
 40
1.0
 40
1.0
 10
-0.4770950328451992
 20
0.3534152253233694
 30
0.0
 10
-0.4810296744680574
 20
0.3549085159928071
 30
0.0
 10
-0.4870369619375516
 20
0.3571884253687235
 30
0.0
 10
-0.4951655986947613
 20
0.3523292861508712
 30
0.0
 10
-0.4979701565420764
 20
0.3506527766165344
 30
0.0
  0
SPLINE
  5
1CD
330
1F
100
AcDbEntity
  8
0
  6
Continuous
 62
     7
370
    25
100
AcDbSpline
210
0.0
220
0.0
230
1.0
 70
     8
 71
     3
 72
    14
 73
    10
 74
     0
 42
0.00000001
 43
0.00000001
 40
0.0
 40
0.0
 40
0.0
 40
0.0
 40
0.041915111626982
 40
0.2467361910836024
 40
0.4535845587032282
 40
0.521414021332966
 40
0.7606269133959045
 40
0.9998398054588415
 40
1.0
 40
1.0
 40
1.0
 40
1.0
 10
-0.531308721601886
 20
0.3120193750027724
 30
0.0
 10
-0.5320713509831617
 20
0.3107217840845084
 30
0.0
 10
-0.5365606213546467
 20
0.3030834257853259
 30
0.0
 10
-0.5410779431992696
 20
0.2860959372355552
 30
0.0
 10
-0.5428590480880486
 20
0.2691056989398246
 30
0.0
 10
-0.541731260002214
 20
0.2520983055057867
 30
0.0
 10
-0.5363775300888373
 20
0.2367674378158689
 30
0.0
 10
-0.5285680955227481
 20
0.2252811554878025
 30
0.0
 10
-0.5224812800886525
 20
0.2237455651486302
 30
0.0
 10
-0.5224772066373742
 20
0.2237445374926257
 30
0.0
  0
SPLINE
  5
1CE
330
1F
100
AcDbEntity
  8
0
  6
Continuous
 62
     7
370
    25
100
AcDbSpline
210
0.0
220
0.0
230
1.0
 70
     8
 71
     3
 72
    17
 73
    13
 74
     0
 42
0.00000001
 43
0.00000001
 40
0.0
 40
0.0
 40
0.0
 40
0.0
 40
0.1248462821769304
 40
0.2497762266304059
 40
0.3747061710838803
 40
0.4996361155373548
 40
0.6066047904225025
 40
0.7146322251236928
 40
0.7500564488165056
 40
0.874986393269981
 40
0.9999163377234556
 40
1.0
 40
1.0
 40
1.0
 40
1.0
 10
-0.4329008590210402
 20
0.3279087704730865
 30
0.0
 10
-0.4369021710097805
 20
0.3290500102363987
 30
0.0
 10
-0.4449074763556151
 20
0.331333254533227
 30
0.0
 10
-0.461180345618434
 20
0.322710253740408
 30
0.0
 10
-0.4770831787314276
 20
0.3061404409088239
 30
0.0
 10
-0.4895854274633353
 20
0.284159442529418
 30
0.0
 10
-0.4970966089655979
 20
0.2607998588440478
 30
0.0
 10
-0.498649330012106
 20
0.2435838797269371
 30
0.0
 10
-0.4975465036335143
 20
0.2266011591254483
 30
0.0
 10
-0.4921794737126173
 20
0.2112571453451311
 30
0.0
 10
-0.4843739221320137
 20
0.199774701066049
 30
0.0
 10
-0.4782871062647835
 20
0.1982391102986341
 30
0.0
 10
-0.4782830328132152
 20
0.1982380826423429
 30
0.0
  0
SPLINE
  5
1CF
330
1F
100
AcDbEntity
  8
0
  6
Continuous
 62
     7
370
    25
100
AcDbSpline
210
0.0
220
0.0
230
1.0
 70
     8
 71
     3
 72
    16
 73
    12
 74
     0
 42
0.00000001
 43
0.00000001
 40
0.0
 40
0.0
 40
0.0
 40
0.0
 40
0.134940933932362
 40
0.2699722947924227
 40
0.4050036556524826
 40
0.5400350165125422
 40
0.6556528197728164
 40
0.7724149906177369
 40
0.8107034982575771
 40
0.9457348591176379
 40
0.9999999999999999
 40
0.9999999999999999
 40
0.9999999999999999
 40
0.9999999999999999
 10
-0.3887066851968811
 20
0.3024023156228037
 30
0.0
 10
-0.392707969442002
 20
0.3035435981327174
 30
0.0
 10
-0.4007132192820064
 20
0.3058269279513943
 30
0.0
 10
-0.4169865050524318
 20
0.2972032854151722
 30
0.0
 10
-0.4328877552170857
 20
0.280635911546616
 30
0.0
 10
-0.4453956356645536
 20
0.2586462359756136
 30
0.0
 10
-0.4528886181726935
 20
0.2353146927971179
 30
0.0
 10
-0.4544926784053361
 20
0.2180196116817288
 30
0.0
 10
-0.4532719804848681
 20
0.2012185042923796
 30
0.0
 10
-0.4503224659527938
 20
0.1883346869458446
 30
0.0
 10
-0.4438089508496381
 20
0.1824888603963104
 30
0.0
 10
-0.4419417382415938
 20
0.1808130523472216
 30
0.0
  0
SPLINE
  5
1D0
330
1F
100
AcDbEntity
  8
0
  6
Continuous
 62
     7
370
    25
100
AcDbSpline
210
0.0
220
0.0
230
1.0
 70
     8
 71
     3
 72
     9
 73
     5
 74
     0
 42
0.00000001
 43
0.00000001
 40
0.0
 40
0.0
 40
0.0
 40
0.0
 40
0.9222031365884864
 40
1.0
 40
1.0
 40
1.0
 40
1.0
 10
-1.382144281533904
 20
0.7491666225885575
 30
0.0
 10
-1.382283164346521
 20
0.741954804636382
 30
0.0
 10
-1.382433763284117
 20
0.7341345992325551
 30
0.0
 10
-1.379672192575402
 20
0.7285698701199265
 30
0.0
 10
-1.379457351036175
 20
0.7281369516492293
 30
0.0
  0
SPLINE
  5
1D1
330
1F
100
AcDbEntity
  8
0
  6
Continuous
 62
     7
370
    25
100
AcDbSpline
210
0.0
220
0.0
230
1.0
 70
     8
 71
     3
 72
     9
 73
     5
 74
     0
 42
0.00000001
 43
0.00000001
 40
0.0
 40
0.0
 40
0.0
 40
0.0
 40
0.3409008925772259
 40
1.0
 40
1.0
 40
1.0
 40
1.0
 10
-1.35306193851201
 20
0.7586102637099464
 30
0.0
 10
-1.354871013146397
 20
0.7538961142954809
 30
0.0
 10
-1.360177759692909
 20
0.7400676101257608
 30
0.0
 10
-1.360797137873041
 20
0.7265278722659864
 30
0.0
 10
-1.361205369478723
 20
0.7176038431278707
 30
0.0
  0
SPLINE
  5
1D2
330
1F
100
AcDbEntity
  8
0
  6
Continuous
 62
     7
370
    25
100
AcDbSpline
210
0.0
220
0.0
230
1.0
 70
     8
 71
     3
 72
     9
 73
     5
 74
     0
 42
0.00000001
 43
0.00000001
 40
0.0
 40
0.0
 40
0.0
 40
0.0
 40
0.4031915867100189
 40
1.0
 40
1.0
 40
1.0
 40
1.0
 10
-1.315175894964622
 20
0.7384971078469856
 30
0.0
 10
-1.317463791239715
 20
0.7325868972195104
 30
0.0
 10
-1.323138255565131
 20
0.7179283308647373
 30
0.0
 10
-1.322938144720876
 20
0.7038499824508723
 30
0.0
 10
-1.322818716885435
 20
0.6954479056722499
 30
0.0
  0
SPLINE
  5
1D3
330
1F
100
AcDbEntity
  8
0
  6
Continuous
 62
     7
370
    25
100
AcDbSpline
210
0.0
220
0.0
230
1.0
 70
     8
 71
     3
 72
     9
 73
     5
 74
     0
 42
0.00000001
 43
0.00000001
 40
0.0
 40
0.0
 40
0.0
 40
0.0
 40
0.2722150798916909
 40
1.0
 40
1.0
 40
1.0
 40
1.0
 10
-1.238633062393008
 20
0.768603365687658
 30
0.0
 10
-1.24123140035213
 20
0.7662592779494825
 30
0.0
 10
-1.250776565741774
 20
0.7576481174689221
 30
0.0
 10
-1.257933503494918
 20
0.7437564818362972
 30
0.0
 10
-1.26314221486581
 20
0.7336463589072328
 30
0.0
  0
SPLINE
  5
1D4
330
1F
100
AcDbEntity
  8
0
  6
Continuous
 62
     7
370
    25
100
AcDbSpline
210
0.0
220
0.0
230
1.0
 70
     8
 71
     3
 72
     9
 73
     5
 74
     0
 42
0.00000001
 43
0.00000001
 40
0.0
 40
0.0
 40
0.0
 40
0.0
 40
0.2068069641825954
 40
1.0
 40
1.0
 40
1.0
 40
1.0
 10
-1.196760131585505
 20
0.7408349300935689
 30
0.0
 10
-1.198556892138929
 20
0.7391833031858144
 30
0.0
 10
-1.207244996819184
 20
0.7311969816695988
 30
0.0
 10
-1.21374738962485
 20
0.7183779561569361
 30
0.0
 10
-1.218905042314454
 20
0.7082099943943266
 30
0.0
  0
SPLINE
  5
1D5
330
1F
100
AcDbEntity
  8
0
  6
Continuous
 62
     7
370
    25
100
AcDbSpline
210
0.0
220
0.0
230
1.0
 70
     8
 71
     3
 72
    10
 73
     6
 74
     0
 42
0.00000001
 43
0.00000001
 40
0.0
 40
0.0
 40
0.0
 40
0.0
 40
0.129905801174266
 40
0.6911693907442124
 40
1.0
 40
1.0
 40
1.0
 40
1.0
 10
-1.152583472883197
 20
0.7153114072895776
 30
0.0
 10
-1.154356357532885
 20
0.7136572018076403
 30
0.0
 10
-1.163789066404297
 20
0.70485593054199
 30
0.0
 10
-1.175824121446005
 20
0.6846725198967181
 30
0.0
 10
-1.181289642157063
 20
0.6665213747801995
 30
0.0
 10
-1.18322957014805
 20
0.6600788203848362
 30
0.0
  0
SPLINE
  5
1D6
330
1F
100
AcDbEntity
  8
0
  6
Continuous
 62
     7
370
    25
100
AcDbSpline
210
0.0
220
0.0
230
1.0
 70
     8
 71
     3
 72
     9
 73
     5
 74
     0
 42
0.00000001
 43
0.00000001
 40
0.0
 40
0.0
 40
0.0
 40
0.0
 40
0.4933109287852304
 40
1.0
 40
1.0
 40
1.0
 40
1.0
 10
-1.122429064419654
 20
0.6703803756768001
 30
0.0
 10
-1.126131882308707
 20
0.6650456191329696
 30
0.0
 10
-1.133637935130545
 20
0.6542314323137813
 30
0.0
 10
-1.137229614188072
 20
0.6411556754489721
 30
0.0
 10
-1.139049478713832
 20
0.6345303323477118
 30
0.0
  0
SPLINE
  5
1D8
330
1F
100
AcDbEntity
  8
0
  6
Continuous
 62
     7
370
    25
100
AcDbSpline
210
0.0
220
0.0
230
1.0
 70
     8
 71
     3
 72
     9
 73
     5
 74
     0
 42
0.00000001
 43
0.00000001
 40
0.0
 40
0.0
 40
0.0
 40
0.0
 40
0.4934689695535077
 40
1.0
 40
1.0
 40
1.0
 40
1.0
 10
-1.078228467277644
 20
0.6448843911949349
 30
0.0
 10
-1.081933728891009
 20
0.639546319369196
 30
0.0
 10
-1.089442329921621
 20
0.6287288776350808
 30
0.0
 10
-1.093035335879452
 20
0.6156491602317082
 30
0.0
 10
-1.094855304889673
 20
0.6090238774974289
 30
0.0
  0
SPLINE
  5
1D9
330
1F
100
AcDbEntity
  8
0
  6
Continuous
 62
     7
370
    25
100
AcDbSpline
210
0.0
220
0.0
230
1.0
 70
     8
 71
     3
 72
     9
 73
     5
 74
     0
 42
0.00000001
 43
0.00000001
 40
0.0
 40
0.0
 40
0.0
 40
0.0
 40
0.4934689695535074
 40
1.0
 40
1.0
 40
1.0
 40
1.0
 10
-1.034034293453485
 20
0.6193779363446517
 30
0.0
 10
-1.03773955506685
 20
0.6140398645189128
 30
0.0
 10
-1.045248156097462
 20
0.6032224227847978
 30
0.0
 10
-1.048841162055293
 20
0.5901427053814251
 30
0.0
 10
-1.050661131065514
 20
0.583517422647146
 30
0.0
  0
SPLINE
  5
1DA
330
1F
100
AcDbEntity
  8
0
  6
Continuous
 62
     7
370
    25
100
AcDbSpline
210
0.0
220
0.0
230
1.0
 70
     8
 71
     3
 72
     9
 73
     5
 74
     0
 42
0.00000001
 43
0.00000001
 40
0.0
 40
0.0
 40
0.0
 40
0.0
 40
0.560474387395721
 40
1.0
 40
1.0
 40
1.0
 40
1.0
 10
-0.9898462520605258
 20
0.5938614852875105
 30
0.0
 10
-0.9935924081994315
 20
0.5885515537922951
 30
0.0
 10
-1.000276310663401
 20
0.5790775588790065
 30
0.0
 10
-1.003514812750581
 20
0.5676129481593383
 30
0.0
 10
-1.004938217364369
 20
0.5625739581095065
 30
0.0
  0
SPLINE
  5
1DB
330
1F
100
AcDbEntity
  8
0
  6
Continuous
 62
     7
370
    25
100
AcDbSpline
210
0.0
220
0.0
230
1.0
 70
     8
 71
     3
 72
     9
 73
     5
 74
     0
 42
0.00000001
 43
0.00000001
 40
0.0
 40
0.0
 40
0.0
 40
0.0
 40
0.5188495042620721
 40
0.9999999999999999
 40
0.9999999999999999
 40
0.9999999999999999
 40
0.9999999999999999
 10
-0.9475737048437929
 20
0.5652226712721349
 30
0.0
 10
-0.9505893344336231
 20
0.5609048701089727
 30
0.0
 10
-0.9564014814339745
 20
0.5525829942515351
 30
0.0
 10
-0.959196015604176
 20
0.5425176612801728
 30
0.0
 10
-0.9605406071055246
 20
0.5376747213312344
 30
0.0
  0
SPLINE
  5
1DC
330
1F
100
AcDbEntity
  8
0
  6
Continuous
 62
     7
370
    25
100
AcDbSpline
210
0.0
220
0.0
230
1.0
 70
     8
 71
     3
 72
     9
 73
     5
 74
     0
 42
0.00000001
 43
0.00000001
 40
0.0
 40
0.0
 40
0.0
 40
0.0
 40
0.4284886488540114
 40
1.0
 40
1.0
 40
1.0
 40
1.0
 10
-0.9013367951599608
 20
0.5430459904618145
 30
0.0
 10
-0.9050416526290873
 20
0.5376230692312128
 30
0.0
 10
-0.9136879901202548
 20
0.52496714183359
 30
0.0
 10
-0.9177739128035246
 20
0.5096763874761151
 30
0.0
 10
-0.9201090639969178
 20
0.500937547793233
 30
0.0
  0
SPLINE
  5
1DD
330
1F
100
AcDbEntity
  8
0
  6
Continuous
 62
     7
370
    25
100
AcDbSpline
210
0.0
220
0.0
230
1.0
 70
     8
 71
     3
 72
     9
 73
     5
 74
     0
 42
0.00000001
 43
0.00000001
 40
0.0
 40
0.0
 40
0.0
 40
0.0
 40
0.4962391361234618
 40
1.0
 40
1.0
 40
1.0
 40
1.0
 10
-0.8571443546585898
 20
0.5175367101981564
 30
0.0
 10
-0.8608927099309809
 20
0.5121401958941197
 30
0.0
 10
-0.8684462360427525
 20
0.5012653698048413
 30
0.0
 10
-0.8720626353365246
 20
0.4881158278571594
 30
0.0
 10
-0.8738844357688774
 20
0.4814916032460143
 30
0.0
  0
SPLINE
  5
1DE
330
1F
100
AcDbEntity
  8
0
  6
Continuous
 62
     7
370
    25
100
AcDbSpline
210
0.0
220
0.0
230
1.0
 70
     8
 71
     3
 72
     9
 73
     5
 74
     0
 42
0.00000001
 43
0.00000001
 40
0.0
 40
0.0
 40
0.0
 40
0.0
 40
0.4961969638728838
 40
1.0
 40
1.0
 40
1.0
 40
1.0
 10
-0.8129519141572179
 20
0.4920274299344982
 30
0.0
 10
-0.8166996096803195
 20
0.4866318100729976
 30
0.0
 10
-0.8242524481617355
 20
0.4757578623176802
 30
0.0
 10
-0.8278684893934297
 20
0.4626093891154506
 30
0.0
 10
-0.8296902619447184
 20
0.4559851483957312
 30
0.0
  0
SPLINE
  5
1DF
330
1F
100
AcDbEntity
  8
0
  6
Continuous
 62
     7
370
    25
100
AcDbSpline
210
0.0
220
0.0
230
1.0
 70
     8
 71
     3
 72
     9
 73
     5
 74
     0
 42
0.00000001
 43
0.00000001
 40
0.0
 40
0.0
 40
0.0
 40
0.0
 40
0.4957237720852136
 40
1.0
 40
1.0
 40
1.0
 40
1.0
 10
-0.7687594736558464
 20
0.4665181496708398
 30
0.0
 10
-0.7725062288312288
 20
0.461123262133222
 30
0.0
 10
-0.7800643799354651
 20
0.4502404119626026
 30
0.0
 10
-0.7836826407532179
 20
0.4370812493109977
 30
0.0
 10
-0.7855072436700056
 20
0.4304453964065292
 30
0.0
  0
SPLINE
  5
1E0
330
1F
100
AcDbEntity
  8
0
  6
Continuous
 62
     7
370
    25
100
AcDbSpline
210
0.0
220
0.0
230
1.0
 70
     8
 71
     3
 72
     9
 73
     5
 74
     0
 42
0.00000001
 43
0.00000001
 40
0.0
 40
0.0
 40
0.0
 40
0.0
 40
0.7699420009475276
 40
1.0
 40
1.0
 40
1.0
 40
1.0
 10
-0.4616355962726829
 20
0.3546230147621456
 30
0.0
 10
-0.4614035396843851
 20
0.3597923890431308
 30
0.0
 10
-0.4611021447896889
 20
0.3665063678553318
 30
0.0
 10
-0.4640848101941248
 20
0.3697539463506307
 30
0.0
 10
-0.4647709962289123
 20
0.3705010777610251
 30
0.0
  0
SPLINE
  5
1E1
330
1F
100
AcDbEntity
  8
0
  6
Continuous
 62
     7
370
    25
100
AcDbSpline
210
0.0
220
0.0
230
1.0
 70
     8
 71
     3
 72
    19
 73
    15
 74
     0
 42
0.00000001
 43
0.00000001
 40
0.0
 40
0.0
 40
0.0
 40
0.0
 40
0.047890279261481
 40
0.1368947534598268
 40
0.2258992276581726
 40
0.3149037018565188
 40
0.4039081760548645
 40
0.49291265025321
 40
0.5819171244515562
 40
0.6709215986499021
 40
0.7599260728482481
 40
0.8489305470465941
 40
0.9379350212449398
 40
1.0
 40
1.0
 40
1.0
 40
1.0
 10
-0.4174414224485233
 20
0.3291165599118627
 30
0.0
 10
-0.4175923918112698
 20
0.3338530421708217
 30
0.0
 10
-0.4180239389647183
 20
0.3473923152990233
 30
0.0
 10
-0.4294926048362474
 20
0.3595374777892331
 30
0.0
 10
-0.4485832237355833
 20
0.3625814603868617
 30
0.0
 10
-0.4721628483156546
 20
0.3517887370797866
 30
0.0
 10
-0.4956100103034179
 20
0.3290463619522458
 30
0.0
 10
-0.5150980169796742
 20
0.297446302710408
 30
0.0
 10
-0.527196918711376
 20
0.2615806606586119
 30
0.0
 10
-0.5296510904667039
 20
0.2266987200127779
 30
0.0
 10
-0.5216816309199503
 20
0.1977172274946918
 30
0.0
 10
-0.504013537777259
 20
0.1793779649794245
 30
0.0
 10
-0.4816782691015583
 20
0.1728271035850291
 30
0.0
 10
-0.4653343048763932
 20
0.1782600935532667
 30
0.0
 10
-0.4586195933806066
 20
0.1804921689355686
 30
0.0
  0
SPLINE
  5
1E2
330
1F
100
AcDbEntity
  8
0
  6
Continuous
 62
     7
370
    25
100
AcDbSpline
210
0.0
220
0.0
230
1.0
 70
     8
 71
     3
 72
    19
 73
    15
 74
     0
 42
0.00000001
 43
0.00000001
 40
0.0
 40
0.0
 40
0.0
 40
0.0
 40
0.0478902792614812
 40
0.1368947534598268
 40
0.2258992276581726
 40
0.3149037018565188
 40
0.4039081760548643
 40
0.49291265025321
 40
0.5819171244515562
 40
0.670921598649902
 40
0.7599260728482482
 40
0.848930547046594
 40
0.9379350212449395
 40
1.0
 40
1.0
 40
1.0
 40
1.0
 10
-0.3732472486243648
 20
0.3036101050615797
 30
0.0
 10
-0.3733982179871107
 20
0.3083465873205388
 30
0.0
 10
-0.3738297651405593
 20
0.3218858604487405
 30
0.0
 10
-0.3852984310120889
 20
0.3340310229389504
 30
0.0
 10
-0.4043890499114243
 20
0.3370750055365785
 30
0.0
 10
-0.4279686744914949
 20
0.3262822822295034
 30
0.0
 10
-0.4514158364792594
 20
0.303539907101963
 30
0.0
 10
-0.4709038431555151
 20
0.2719398478601249
 30
0.0
 10
-0.483002744887217
 20
0.2360742058083291
 30
0.0
 10
-0.4854569166425448
 20
0.201192265162495
 30
0.0
 10
-0.4774874570957919
 20
0.1722107726444089
 30
0.0
 10
-0.4598193639530999
 20
0.1538715101291416
 30
0.0
 10
-0.4374840952773992
 20
0.1473206487347462
 30
0.0
 10
-0.4211401310522341
 20
0.1527536387029838
 30
0.0
 10
-0.4144254195564475
 20
0.1549857140852857
 30
0.0
  0
SPLINE
  5
1E4
330
1F
100
AcDbEntity
  8
0
  6
Continuous
 62
     7
370
    25
100
AcDbSpline
210
0.0
220
0.0
230
1.0
 70
     8
 71
     3
 72
     9
 73
     5
 74
     0
 42
0.00000001
 43
0.00000001
 40
0.0
 40
0.0
 40
0.0
 40
0.0
 40
0.6211062554961998
 40
1.0
 40
1.0
 40
1.0
 40
1.0
 10
-1.364710874337322
 20
0.7196270283956632
 30
0.0
 10
-1.364820191130321
 20
0.7285076076558908
 30
0.0
 10
-1.364996194498556
 20
0.7428056109067721
 30
0.0
 10
-1.360170827314684
 20
0.7575007931361203
 30
0.0
 10
-1.358342525873781
 20
0.7630687057571639
 30
0.0
  0
LINE
  5
200
330
1F
100
AcDbEntity
  8
0
  6
Continuous
 62
     7
370
    25
100
AcDbLine
 10
-0.8656573521
 20
0.681567162
 30
0.0
 11
-0.9557228581
 21
0.7335480356
 31
0.0
  0
LINE
  5
201
330
1F
100
AcDbEntity
  8
0
  6
Continuous
 62
     7
370
    25
100
AcDbLine
 10
-0.4383798179
 20
0.4349659883
 30
0.0
 11
-0.7130925764
 21
0.5935151356
 31
0.0
  0
LINE
  5
202
330
1F
100
AcDbEntity
  8
0
  6
Continuous
 62
     7
370
    25
100
AcDbLine
 10
-0.8705309322
 20
0.320727008
 30
0.0
 11
-0.5958181737
 21
0.1621778608
 31
0.0
  0
LINE
  5
203
330
1F
100
AcDbEntity
  8
0
  6
Continuous
 62
     7
370
    25
100
AcDbLine
 10
-1.1131612139
 20
0.460759908
 30
0.0
 11
-1.0228010461
 21
0.4086089782
 31
0.0
  0
LINE
  5
204
330
1F
100
AcDbEntity
  8
0
  6
Continuous
 62
     7
370
    25
100
AcDbLine
 10
-1.180814652
 20
0.5329993116
 30
0.0
 11
-1.1266613315
 21
0.4718466727
 31
0.0
  0
LINE
  5
205
330
1F
100
AcDbEntity
  8
0
  6
Continuous
 62
     7
370
    25
100
AcDbLine
 10
-0.9720762275
 20
0.7396910673
 30
0.0
 11
-1.0521176441
 21
0.7559882755
 31
0.0
  0
LINE
  5
206
330
1F
100
AcDbEntity
  8
0
  6
Continuous
 62
     7
370
    25
100
AcDbLine
 10
-1.2314763249
 20
0.5290449053
 30
0.0
 11
-1.182758338
 21
0.5009275535
 31
0.0
  0
LINE
  5
207
330
1F
100
AcDbEntity
  8
0
  6
Continuous
 62
     7
370
    25
100
AcDbLine
 10
-1.0253199823
 20
0.773715681
 30
0.0
 11
-1.0740379692
 21
0.8018330328
 31
0.0
  0
LINE
  5
208
330
1F
100
AcDbEntity
  8
0
  6
Continuous
 62
     7
370
    25
100
AcDbLine
 10
-1.299129763
 20
0.6012843089
 30
0.0
 11
-1.2449764425
 21
0.5401316699
 31
0.0
  0
LINE
  5
209
330
1F
100
AcDbEntity
  8
0
  6
Continuous
 62
     7
370
    25
100
AcDbLine
 10
-1.0903913385
 20
0.8079760645
 30
0.0
 11
-1.1704327551
 21
0.8242732727
 31
0.0
  0
LINE
  5
20A
330
1F
100
AcDbEntity
  8
0
  6
Continuous
 62
     7
370
    25
100
AcDbLine
 10
-1.1436350933
 20
0.8420006783
 30
0.0
 11
-1.1923530802
 21
0.8701180301
 31
0.0
  0
LINE
  5
20B
330
1F
100
AcDbEntity
  8
0
  6
Continuous
 62
     7
370
    25
100
AcDbLine
 10
-1.3497914359
 20
0.5973299025
 30
0.0
 11
-1.301073449
 21
0.5692125507
 31
0.0
  0
LINE
  5
20C
330
1F
100
AcDbEntity
  8
0
  6
Continuous
 62
     7
370
    25
100
AcDbLine
 10
-1.2087064495
 20
0.8762610618
 30
0.0
 11
-1.2887478662
 21
0.8925582699
 31
0.0
  0
LINE
  5
20D
330
1F
100
AcDbEntity
  8
0
  6
Continuous
 62
     7
370
    25
100
AcDbLine
 10
-1.4174448741
 20
0.6695693061
 30
0.0
 11
-1.3632915535
 21
0.6084166672
 31
0.0
  0
LINE
  5
20E
330
1F
100
AcDbEntity
  8
0
  6
Continuous
 62
     7
370
    25
100
AcDbLine
 10
-1.4681065469
 20
0.6656148997
 30
0.0
 11
-1.4193885601
 21
0.6374975479
 31
0.0
  0
LINE
  5
20F
330
1F
100
AcDbEntity
  8
0
  6
Continuous
 62
     7
370
    25
100
AcDbLine
 10
-1.2619502043
 20
0.9102856755
 30
0.0
 11
-1.3106681912
 21
0.9384030273
 31
0.0
  0
LINE
  5
210
330
1F
100
AcDbEntity
  8
0
  6
Continuous
 62
     7
370
    25
100
AcDbLine
 10
-1.5357599851
 20
0.7378543034
 30
0.0
 11
-1.4816066646
 21
0.6767016644
 31
0.0
  0
LINE
  5
211
330
1F
100
AcDbEntity
  8
0
  6
Continuous
 62
     7
370
    25
100
AcDbLine
 10
-1.3270215605
 20
0.944546059
 30
0.0
 11
-1.4070629772
 21
0.9608432672
 31
0.0
  0
LINE
  5
212
330
1F
100
AcDbEntity
  8
0
  6
Continuous
 62
     7
370
    25
100
AcDbLine
 10
-1.586421658
 20
0.733899897
 30
0.0
 11
-1.5377036711
 21
0.7057825452
 31
0.0
  0
LINE
  5
213
330
1F
100
AcDbEntity
  8
0
  6
Continuous
 62
     7
370
    25
100
AcDbLine
 10
-1.3802653153
 20
0.9785706727
 30
0.0
 11
-1.4289833022
 21
1.0066880245
 31
0.0
  0
LINE
  5
214
330
1F
100
AcDbEntity
  8
0
  6
Continuous
 62
     7
370
    25
100
AcDbLine
 10
-1.6508378889
 20
0.8599958413
 30
0.0
 11
-1.6117217624
 21
0.764352945
 31
0.0
  0
LINE
  5
215
330
1F
100
AcDbEntity
  8
0
  6
Continuous
 62
     7
370
    25
100
AcDbLine
 10
-1.4680085222
 20
1.0133600281
 30
0.0
 11
-1.570391468
 21
0.9993826407
 31
0.0
  0
LINE
  5
216
330
1F
100
AcDbEntity
  8
0
  6
Continuous
 62
     7
370
    25
100
AcDbLine
 10
-0.2847682397
 20
0.3460483521
 30
0.0
 11
-0.2880925764
 21
0.3479669771
 31
0.0
  0
LINE
  5
217
330
1F
100
AcDbEntity
  8
0
  6
Continuous
 62
     7
370
    25
100
AcDbLine
 10
-0.4455309322
 20
0.0751788495
 30
0.0
 11
-0.4419417382
 21
0.0731073635
 31
0.0
  0
LINE
  5
218
330
1F
100
AcDbEntity
  8
0
  6
Continuous
 62
     7
370
    25
100
AcDbLine
 10
-0.6881612139
 20
0.2152117495
 30
0.0
 11
-0.5978010461
 21
0.1630608198
 31
0.0
  0
LINE
  5
219
330
1F
100
AcDbEntity
  8
0
  6
Continuous
 62
     7
370
    25
100
AcDbLine
 10
-0.8064763249
 20
0.2834967468
 30
0.0
 11
-0.757758338
 21
0.255379395
 31
0.0
  0
LINE
  5
21A
330
1F
100
AcDbEntity
  8
0
  6
Continuous
 62
     7
370
    25
100
AcDbLine
 10
-0.7186350933
 20
0.5964525198
 30
0.0
 11
-0.7401712159
 21
0.6088819893
 31
0.0
  0
LINE
  5
21B
330
1F
100
AcDbEntity
  8
0
  6
Continuous
 62
     7
370
    25
100
AcDbLine
 10
-1.0431065469
 20
0.4200667413
 30
0.0
 11
-1.0232298825
 21
0.40859502
 31
0.0
  0
LINE
  5
21C
330
1F
100
AcDbEntity
  8
0
  6
Continuous
 62
     7
370
    25
100
AcDbLine
 10
-1.161421658
 20
0.4883517385
 30
0.0
 11
-1.1127036711
 21
0.4602343867
 31
0.0
  0
LINE
  5
21D
330
1F
100
AcDbEntity
  8
0
  6
Continuous
 62
     7
370
    25
100
AcDbLine
 10
-0.9600582503
 20
0.7357887336
 30
0.0
 11
-1.0039833022
 21
0.7611398661
 31
0.0
  0
LINE
  5
21E
330
1F
100
AcDbEntity
  8
0
  6
Continuous
 62
     7
370
    25
100
AcDbLine
 10
-1.3591007504
 20
0.833720492
 30
0.0
 11
-1.4414534794
 21
0.8366527544
 31
0.0
  0
LINE
  5
21F
330
1F
100
AcDbEntity
  8
0
  6
Continuous
 62
     7
370
    25
100
AcDbLine
 10
-0.4357245382
 20
-0.7547062446
 30
0.0
 11
1.5909902577
 21
-1.9244149407
 31
0.0
  0
LINE
  5
220
330
1F
100
AcDbEntity
  8
0
  6
Continuous
 62
     7
370
    25
100
AcDbLine
 10
2.4977710919
 20
-0.4353940055
 30
0.0
 11
0.4357245382
 21
0.7547062446
 31
0.0
  0
LINE
  5
221
330
1F
100
AcDbEntity
  8
0
  6
Continuous
 62
     7
370
    25
100
AcDbLine
 10
1.8276999423
 20
-1.0723258373
 30
0.0
 11
2.7186999423
 21
-1.5871103296
 31
0.0
  0
LINE
  5
222
330
1F
100
AcDbEntity
  8
0
  6
Continuous
 62
     7
370
    25
100
AcDbLine
 10
1.8526999423
 20
-1.0290245685
 30
0.0
 11
2.7436999423
 21
-1.5438090607
 31
0.0
  0
LINE
  5
223
330
1F
100
AcDbEntity
  8
0
  6
Continuous
 62
     7
370
    25
100
AcDbLine
 10
1.901755066
 20
-0.9324205171
 30
0.0
 11
1.9599424036
 21
-0.8988379752
 31
0.0
  0
LINE
  5
224
330
1F
100
AcDbEntity
  8
0
  6
Continuous
 62
     7
370
    25
100
AcDbLine
 10
1.9599424036
 20
-0.8988379752
 30
0.0
 11
2.7186999423
 21
-1.3372180137
 31
0.0
  0
LINE
  5
225
330
1F
100
AcDbEntity
  8
0
  6
Continuous
 62
     7
370
    25
100
AcDbLine
 10
2.0099424036
 20
-0.8699807157
 30
0.0
 11
2.7436999423
 21
-1.2939167449
 31
0.0
  0
LINE
  5
226
330
1F
100
AcDbEntity
  8
0
  6
Continuous
 62
     7
370
    25
100
AcDbLine
 10
2.0099424036
 20
-0.8699807157
 30
0.0
 11
2.0681297411
 21
-0.8363981737
 31
0.0
  0
LINE
  5
227
330
1F
100
AcDbEntity
  8
0
  6
Continuous
 62
     7
370
    25
100
AcDbLine
 10
2.0681297411
 20
-0.8363981737
 30
0.0
 11
2.7186999423
 21
-1.2122718557
 31
0.0
  0
LINE
  5
228
330
1F
100
AcDbEntity
  8
0
  6
Continuous
 62
     7
370
    25
100
AcDbLine
 10
2.1181297411
 20
-0.8075409142
 30
0.0
 11
2.7436999423
 21
-1.1689705869
 31
0.0
  0
LINE
  5
229
330
1F
100
AcDbEntity
  8
0
  6
Continuous
 62
     7
370
    25
100
AcDbLine
 10
2.1181297411
 20
-0.8075409142
 30
0.0
 11
2.1763170786
 21
-0.7739583722
 31
0.0
  0
LINE
  5
22A
330
1F
100
AcDbEntity
  8
0
  6
Continuous
 62
     7
370
    25
100
AcDbLine
 10
2.1763170786
 20
-0.7739583722
 30
0.0
 11
2.7186999423
 21
-1.0873256978
 31
0.0
  0
LINE
  5
22B
330
1F
100
AcDbEntity
  8
0
  6
Continuous
 62
     7
370
    25
100
AcDbLine
 10
2.2263170786
 20
-0.7451011127
 30
0.0
 11
2.7436999423
 21
-1.044024429
 31
0.0
  0
LINE
  5
22C
330
1F
100
AcDbEntity
  8
0
  6
Continuous
 62
     7
370
    25
100
AcDbLine
 10
2.2263170786
 20
-0.7451011127
 30
0.0
 11
2.2845044161
 21
-0.7115185707
 31
0.0
  0
LINE
  5
22D
330
1F
100
AcDbEntity
  8
0
  6
Continuous
 62
     7
370
    25
100
AcDbLine
 10
2.2845044161
 20
-0.7115185707
 30
0.0
 11
2.7186999423
 21
-0.9623795399
 31
0.0
  0
LINE
  5
22E
330
1F
100
AcDbEntity
  8
0
  6
Continuous
 62
     7
370
    25
100
AcDbLine
 10
2.3345044161
 20
-0.6826613112
 30
0.0
 11
2.7436999423
 21
-0.919078271
 31
0.0
  0
LINE
  5
22F
330
1F
100
AcDbEntity
  8
0
  6
Continuous
 62
     7
370
    25
100
AcDbLine
 10
2.3345044161
 20
-0.6826613112
 30
0.0
 11
2.3926917536
 21
-0.6490787693
 31
0.0
  0
LINE
  5
230
330
1F
100
AcDbEntity
  8
0
  6
Continuous
 62
     7
370
    25
100
AcDbLine
 10
2.3926917536
 20
-0.6490787693
 30
0.0
 11
2.7186999423
 21
-0.8374333819
 31
0.0
  0
LINE
  5
231
330
1F
100
AcDbEntity
  8
0
  6
Continuous
 62
     7
370
    25
100
AcDbLine
 10
2.4426917536
 20
-0.6202215098
 30
0.0
 11
2.7436999423
 21
-0.7941321131
 31
0.0
  0
LINE
  5
232
330
1F
100
AcDbEntity
  8
0
  6
Continuous
 62
     7
370
    25
100
AcDbLine
 10
2.4426917536
 20
-0.6202215098
 30
0.0
 11
2.5008790912
 21
-0.5866389678
 31
0.0
  0
LINE
  5
233
330
1F
100
AcDbEntity
  8
0
  6
Continuous
 62
     7
370
    25
100
AcDbLine
 10
2.5008790912
 20
-0.5866389678
 30
0.0
 11
2.7186999423
 21
-0.712487224
 31
0.0
  0
LINE
  5
234
330
1F
100
AcDbEntity
  8
0
  6
Continuous
 62
     7
370
    25
100
AcDbLine
 10
2.5508790912
 20
-0.5577817083
 30
0.0
 11
2.7436999423
 21
-0.6691859552
 31
0.0
  0
LINE
  5
235
330
1F
100
AcDbEntity
  8
0
  6
Continuous
 62
     7
370
    25
100
AcDbLine
 10
2.5508790912
 20
-0.5577817083
 30
0.0
 11
2.6090664287
 21
-0.5241991663
 31
0.0
  0
LINE
  5
236
330
1F
100
AcDbEntity
  8
0
  6
Continuous
 62
     7
370
    25
100
AcDbLine
 10
2.6090664287
 20
-0.5241991663
 30
0.0
 11
2.7186999423
 21
-0.587541066
 31
0.0
  0
LINE
  5
237
330
1F
100
AcDbEntity
  8
0
  6
Continuous
 62
     7
370
    25
100
AcDbLine
 10
2.6590664287
 20
-0.4953419068
 30
0.0
 11
2.7436999423
 21
-0.5442397972
 31
0.0
  0
LINE
  5
238
330
1F
100
AcDbEntity
  8
0
  6
Continuous
 62
     7
370
    25
100
AcDbLine
 10
2.6590664287
 20
-0.4953419068
 30
0.0
 11
8.794640591
 21
3.0457752091
 31
0.0
  0
LINE
  5
239
330
1F
100
AcDbEntity
  8
0
  6
Continuous
 62
     7
370
    25
100
AcDbLine
 10
8.794640591
 20
3.0457752091
 30
0.0
 11
8.794640591
 21
1.9024770319
 31
0.0
  0
LINE
  5
23A
330
1F
100
AcDbEntity
  8
0
  6
Continuous
 62
     7
370
    25
100
AcDbLine
 10
8.794640591
 20
1.9024770319
 30
0.0
 11
2.6753298846
 21
-1.6292537087
 31
0.0
  0
LINE
  5
23B
330
1F
100
AcDbEntity
  8
0
  6
Continuous
 62
     7
370
    25
100
AcDbLine
 10
1.8526999423
 20
-1.1539707264
 30
0.0
 11
2.6753298846
 21
-1.6292537087
 31
0.0
  0
LINE
  5
23C
330
1F
100
AcDbEntity
  8
0
  6
Continuous
 62
     7
370
    25
100
AcDbLine
 10
1.8276999423
 20
-1.1972719953
 30
0.0
 11
2.6253298846
 21
-1.6581109682
 31
0.0
  0
LINE
  5
23D
330
1F
100
AcDbEntity
  8
0
  6
Continuous
 62
     7
370
    25
100
AcDbLine
 10
2.6253298846
 20
-1.6581109682
 30
0.0
 11
2.5671425471
 21
-1.6916935101
 31
0.0
  0
LINE
  5
23E
330
1F
100
AcDbEntity
  8
0
  6
Continuous
 62
     7
370
    25
100
AcDbLine
 10
1.8526999423
 20
-1.2789168844
 30
0.0
 11
2.5671425471
 21
-1.6916935101
 31
0.0
  0
LINE
  5
23F
330
1F
100
AcDbEntity
  8
0
  6
Continuous
 62
     7
370
    25
100
AcDbLine
 10
1.8276999423
 20
-1.3222181532
 30
0.0
 11
2.5171425471
 21
-1.7205507696
 31
0.0
  0
LINE
  5
240
330
1F
100
AcDbEntity
  8
0
  6
Continuous
 62
     7
370
    25
100
AcDbLine
 10
2.5171425471
 20
-1.7205507696
 30
0.0
 11
2.4589552096
 21
-1.7541333116
 31
0.0
  0
LINE
  5
241
330
1F
100
AcDbEntity
  8
0
  6
Continuous
 62
     7
370
    25
100
AcDbLine
 10
1.8526999423
 20
-1.4038630423
 30
0.0
 11
2.4589552096
 21
-1.7541333116
 31
0.0
  0
LINE
  5
242
330
1F
100
AcDbEntity
  8
0
  6
Continuous
 62
     7
370
    25
100
AcDbLine
 10
1.8276999423
 20
-1.4471643112
 30
0.0
 11
2.4089552096
 21
-1.7829905711
 31
0.0
  0
LINE
  5
243
330
1F
100
AcDbEntity
  8
0
  6
Continuous
 62
     7
370
    25
100
AcDbLine
 10
2.4089552096
 20
-1.7829905711
 30
0.0
 11
2.3507678721
 21
-1.8165731131
 31
0.0
  0
LINE
  5
244
330
1F
100
AcDbEntity
  8
0
  6
Continuous
 62
     7
370
    25
100
AcDbLine
 10
1.8526999423
 20
-1.5288092003
 30
0.0
 11
2.3507678721
 21
-1.8165731131
 31
0.0
  0
LINE
  5
245
330
1F
100
AcDbEntity
  8
0
  6
Continuous
 62
     7
370
    25
100
AcDbLine
 10
1.8276999423
 20
-1.5721104691
 30
0.0
 11
2.3007678721
 21
-1.8454303726
 31
0.0
  0
LINE
  5
246
330
1F
100
AcDbEntity
  8
0
  6
Continuous
 62
     7
370
    25
100
AcDbLine
 10
2.3007678721
 20
-1.8454303726
 30
0.0
 11
2.2425805346
 21
-1.8790129145
 31
0.0
  0
LINE
  5
247
330
1F
100
AcDbEntity
  8
0
  6
Continuous
 62
     7
370
    25
100
AcDbLine
 10
1.8526999423
 20
-1.6537553582
 30
0.0
 11
2.2425805346
 21
-1.8790129145
 31
0.0
  0
LINE
  5
248
330
1F
100
AcDbEntity
  8
0
  6
Continuous
 62
     7
370
    25
100
AcDbLine
 10
1.8276999423
 20
-1.697056627
 30
0.0
 11
2.1925805346
 21
-1.9078701741
 31
0.0
  0
LINE
  5
249
330
1F
100
AcDbEntity
  8
0
  6
Continuous
 62
     7
370
    25
100
AcDbLine
 10
2.1925805346
 20
-1.9078701741
 30
0.0
 11
2.134393197
 21
-1.941452716
 31
0.0
  0
LINE
  5
24A
330
1F
100
AcDbEntity
  8
0
  6
Continuous
 62
     7
370
    25
100
AcDbLine
 10
1.8526999423
 20
-1.7787015161
 30
0.0
 11
2.134393197
 21
-1.941452716
 31
0.0
  0
LINE
  5
24B
330
1F
100
AcDbEntity
  8
0
  6
Continuous
 62
     7
370
    25
100
AcDbLine
 10
1.8276999423
 20
-1.822002785
 30
0.0
 11
2.084393197
 21
-1.9703099755
 31
0.0
  0
LINE
  5
24C
330
1F
100
AcDbEntity
  8
0
  6
Continuous
 62
     7
370
    25
100
AcDbLine
 10
2.084393197
 20
-1.9703099755
 30
0.0
 11
2.0262058595
 21
-2.0038925175
 31
0.0
  0
LINE
  5
24D
330
1F
100
AcDbEntity
  8
0
  6
Continuous
 62
     7
370
    25
100
AcDbLine
 10
1.8526999423
 20
-1.9036476741
 30
0.0
 11
2.0262058595
 21
-2.0038925175
 31
0.0
  0
LINE
  5
24E
330
1F
100
AcDbEntity
  8
0
  6
Continuous
 62
     7
370
    25
100
AcDbLine
 10
1.8276999423
 20
-1.9469489429
 30
0.0
 11
1.9762058595
 21
-2.032749777
 31
0.0
  0
LINE
  5
24F
330
1F
100
AcDbEntity
  8
0
  6
Continuous
 62
     7
370
    25
100
AcDbLine
 10
1.9762058595
 20
-2.032749777
 30
0.0
 11
1.918018522
 21
-2.066332319
 31
0.0
  0
LINE
  5
250
330
1F
100
AcDbEntity
  8
0
  6
Continuous
 62
     7
370
    25
100
AcDbLine
 10
1.8526999423
 20
-2.028593832
 30
0.0
 11
1.918018522
 21
-2.066332319
 31
0.0
  0
LINE
  5
251
330
1F
100
AcDbEntity
  8
0
  6
Continuous
 62
     7
370
    25
100
AcDbLine
 10
1.8276999423
 20
-2.0718951009
 30
0.0
 11
1.868018522
 21
-2.0951895785
 31
0.0
  0
LINE
  5
252
330
1F
100
AcDbEntity
  8
0
  6
Continuous
 62
     7
370
    25
100
AcDbLine
 10
1.868018522
 20
-2.0951895785
 30
0.0
 11
1.7235727791
 21
-2.1785557442
 31
0.0
  0
LINE
  5
253
330
1F
100
AcDbEntity
  8
0
  6
Continuous
 62
     7
370
    25
100
AcDbLine
 10
1.7235727791
 20
-2.1785557442
 30
0.0
 11
1.7235727791
 21
-1.035257567
 31
0.0
  0
LINE
  5
254
330
1F
100
AcDbEntity
  8
0
  6
Continuous
 62
     7
370
    25
100
AcDbLine
 10
1.7235727791
 20
-1.035257567
 30
0.0
 11
1.851755066
 21
-0.9612777766
 31
0.0
  0
LINE
  5
255
330
1F
100
AcDbEntity
  8
0
  6
Continuous
 62
     7
370
    25
100
AcDbLine
 10
1.851755066
 20
-0.9612777766
 30
0.0
 11
2.7186999423
 21
-1.4621641716
 31
0.0
  0
LINE
  5
256
330
1F
100
AcDbEntity
  8
0
  6
Continuous
 62
     7
370
    25
100
AcDbLine
 10
1.901755066
 20
-0.9324205171
 30
0.0
 11
2.7436999423
 21
-1.4188629028
 31
0.0
  0
LINE
  5
257
330
1F
100
AcDbEntity
  8
0
  6
Continuous
 62
     7
370
    25
100
AcDbLine
 10
1.5909902577
 20
-0.9587382024
 30
0.0
 11
1.7235727791
 21
-1.035257567
 31
0.0
  0
LINE
  5
258
330
1F
100
AcDbEntity
  8
0
  6
Continuous
 62
     7
370
    25
100
AcDbLine
 10
1.5909902577
 20
-0.9587382024
 30
0.0
 11
8.6620580695
 21
3.1222945736
 31
0.0
  0
LINE
  5
259
330
1F
100
AcDbEntity
  8
0
  6
Continuous
 62
     7
370
    25
100
AcDbLine
 10
8.6620580695
 20
3.1222945736
 30
0.0
 11
8.794640591
 21
3.0457752091
 31
0.0
  0
LINE
  5
25A
330
1F
100
AcDbEntity
  8
0
  6
Continuous
 62
     7
370
    25
100
AcDbLine
 10
2.6163887592
 20
-0.4995679546
 30
0.0
 11
2.6590664287
 21
-0.4953419068
 31
0.0
  0
LINE
  5
25B
330
1F
100
AcDbEntity
  8
0
  6
Continuous
 62
     7
370
    25
100
AcDbLine
 10
2.6090664287
 20
-0.5241991663
 30
0.0
 11
2.6163887592
 21
-0.4995679546
 31
0.0
  0
LINE
  5
25C
330
1F
100
AcDbEntity
  8
0
  6
Continuous
 62
     7
370
    25
100
AcDbLine
 10
2.5082014216
 20
-0.5620077561
 30
0.0
 11
2.5508790912
 21
-0.5577817083
 31
0.0
  0
LINE
  5
25D
330
1F
100
AcDbEntity
  8
0
  6
Continuous
 62
     7
370
    25
100
AcDbLine
 10
2.5008790912
 20
-0.5866389678
 30
0.0
 11
2.5082014216
 21
-0.5620077561
 31
0.0
  0
LINE
  5
25E
330
1F
100
AcDbEntity
  8
0
  6
Continuous
 62
     7
370
    25
100
AcDbLine
 10
2.4000140841
 20
-0.6244475576
 30
0.0
 11
2.4426917536
 21
-0.6202215098
 31
0.0
  0
LINE
  5
25F
330
1F
100
AcDbEntity
  8
0
  6
Continuous
 62
     7
370
    25
100
AcDbLine
 10
2.3926917536
 20
-0.6490787693
 30
0.0
 11
2.4000140841
 21
-0.6244475576
 31
0.0
  0
LINE
  5
260
330
1F
100
AcDbEntity
  8
0
  6
Continuous
 62
     7
370
    25
100
AcDbLine
 10
2.2918267466
 20
-0.686887359
 30
0.0
 11
2.3345044161
 21
-0.6826613112
 31
0.0
  0
LINE
  5
261
330
1F
100
AcDbEntity
  8
0
  6
Continuous
 62
     7
370
    25
100
AcDbLine
 10
2.2845044161
 20
-0.7115185707
 30
0.0
 11
2.2918267466
 21
-0.686887359
 31
0.0
  0
LINE
  5
262
330
1F
100
AcDbEntity
  8
0
  6
Continuous
 62
     7
370
    25
100
AcDbLine
 10
2.1836394091
 20
-0.7493271605
 30
0.0
 11
2.2263170786
 21
-0.7451011127
 31
0.0
  0
LINE
  5
263
330
1F
100
AcDbEntity
  8
0
  6
Continuous
 62
     7
370
    25
100
AcDbLine
 10
2.1763170786
 20
-0.7739583722
 30
0.0
 11
2.1836394091
 21
-0.7493271605
 31
0.0
  0
LINE
  5
264
330
1F
100
AcDbEntity
  8
0
  6
Continuous
 62
     7
370
    25
100
AcDbLine
 10
2.0754520715
 20
-0.811766962
 30
0.0
 11
2.1181297411
 21
-0.8075409142
 31
0.0
  0
LINE
  5
265
330
1F
100
AcDbEntity
  8
0
  6
Continuous
 62
     7
370
    25
100
AcDbLine
 10
2.0681297411
 20
-0.8363981737
 30
0.0
 11
2.0754520715
 21
-0.811766962
 31
0.0
  0
LINE
  5
266
330
1F
100
AcDbEntity
  8
0
  6
Continuous
 62
     7
370
    25
100
AcDbLine
 10
1.967264734
 20
-0.8742067635
 30
0.0
 11
2.0099424036
 21
-0.8699807157
 31
0.0
  0
LINE
  5
267
330
1F
100
AcDbEntity
  8
0
  6
Continuous
 62
     7
370
    25
100
AcDbLine
 10
1.9599424036
 20
-0.8988379752
 30
0.0
 11
1.967264734
 21
-0.8742067635
 31
0.0
  0
LINE
  5
268
330
1F
100
AcDbEntity
  8
0
  6
Continuous
 62
     7
370
    25
100
AcDbLine
 10
1.8590773965
 20
-0.9366465649
 30
0.0
 11
1.901755066
 21
-0.9324205171
 31
0.0
  0
LINE
  5
269
330
1F
100
AcDbEntity
  8
0
  6
Continuous
 62
     7
370
    25
100
AcDbLine
 10
1.851755066
 20
-0.9612777766
 30
0.0
 11
1.8590773965
 21
-0.9366465649
 31
0.0
  0
LINE
  5
26A
330
1F
100
AcDbEntity
  8
0
  6
Continuous
 62
     7
370
    25
100
AcDbLine
 10
1.5909902577
 20
-2.1020363796
 30
0.0
 11
1.7235727791
 21
-2.1785557442
 31
0.0
  0
LINE
  5
26B
330
1F
100
AcDbEntity
  8
0
  6
Continuous
 62
     7
370
    25
100
AcDbLine
 10
1.5909902577
 20
-2.1020363796
 30
0.0
 11
1.5909902577
 21
-0.9587382024
 31
0.0
  0
LINE
  5
26C
330
1F
100
AcDbEntity
  8
0
  6
Continuous
 62
     7
370
    25
100
AcDbLine
 10
1.8590773965
 20
-0.9366465649
 30
0.0
 11
2.7135222728
 21
-1.4303109553
 31
0.0
  0
LINE
  5
26D
330
1F
100
AcDbEntity
  8
0
  6
Continuous
 62
     7
370
    25
100
AcDbLine
 10
2.7186999423
 20
-1.4621641716
 30
0.0
 11
2.7135222728
 21
-1.4303109553
 31
0.0
  0
LINE
  5
26E
330
1F
100
AcDbEntity
  8
0
  6
Continuous
 62
     7
370
    25
100
AcDbLine
 10
2.7135222728
 20
-1.4303109553
 30
0.0
 11
2.7436999423
 21
-1.4188629028
 31
0.0
  0
LINE
  5
26F
330
1F
100
AcDbEntity
  8
0
  6
Continuous
 62
     7
370
    25
100
AcDbLine
 10
1.827695235
 20
-1.0434613536
 30
0.0
 11
2.7135222728
 21
-1.5552571132
 31
0.0
  0
LINE
  5
270
330
1F
100
AcDbEntity
  8
0
  6
Continuous
 62
     7
370
    25
100
AcDbLine
 10
2.7186999423
 20
-1.5871103296
 30
0.0
 11
2.7135222728
 21
-1.5552571132
 31
0.0
  0
LINE
  5
271
330
1F
100
AcDbEntity
  8
0
  6
Continuous
 62
     7
370
    25
100
AcDbLine
 10
2.7135222728
 20
-1.5552571132
 30
0.0
 11
2.7436999423
 21
-1.5438090607
 31
0.0
  0
LINE
  5
272
330
1F
100
AcDbEntity
  8
0
  6
Continuous
 62
     7
370
    25
100
AcDbLine
 10
1.967264734
 20
-0.8742067635
 30
0.0
 11
2.7135222728
 21
-1.3053647973
 31
0.0
  0
LINE
  5
273
330
1F
100
AcDbEntity
  8
0
  6
Continuous
 62
     7
370
    25
100
AcDbLine
 10
2.7186999423
 20
-1.3372180137
 30
0.0
 11
2.7135222728
 21
-1.3053647973
 31
0.0
  0
LINE
  5
274
330
1F
100
AcDbEntity
  8
0
  6
Continuous
 62
     7
370
    25
100
AcDbLine
 10
2.7135222728
 20
-1.3053647973
 30
0.0
 11
2.7436999423
 21
-1.2939167449
 31
0.0
  0
LINE
  5
275
330
1F
100
AcDbEntity
  8
0
  6
Continuous
 62
     7
370
    25
100
AcDbLine
 10
2.6326522151
 20
-1.6334797565
 30
0.0
 11
2.6253298846
 21
-1.6581109682
 31
0.0
  0
LINE
  5
276
330
1F
100
AcDbEntity
  8
0
  6
Continuous
 62
     7
370
    25
100
AcDbLine
 10
1.827695235
 20
-1.1684075115
 30
0.0
 11
2.6326522151
 21
-1.6334797565
 31
0.0
  0
LINE
  5
277
330
1F
100
AcDbEntity
  8
0
  6
Continuous
 62
     7
370
    25
100
AcDbLine
 10
2.6753298846
 20
-1.6292537087
 30
0.0
 11
2.6326522151
 21
-1.6334797565
 31
0.0
  0
LINE
  5
278
330
1F
100
AcDbEntity
  8
0
  6
Continuous
 62
     7
370
    25
100
AcDbLine
 10
2.0754520715
 20
-0.811766962
 30
0.0
 11
2.7135222728
 21
-1.1804186394
 31
0.0
  0
LINE
  5
279
330
1F
100
AcDbEntity
  8
0
  6
Continuous
 62
     7
370
    25
100
AcDbLine
 10
2.7186999423
 20
-1.2122718557
 30
0.0
 11
2.7135222728
 21
-1.1804186394
 31
0.0
  0
LINE
  5
27A
330
1F
100
AcDbEntity
  8
0
  6
Continuous
 62
     7
370
    25
100
AcDbLine
 10
2.7135222728
 20
-1.1804186394
 30
0.0
 11
2.7436999423
 21
-1.1689705869
 31
0.0
  0
LINE
  5
27B
330
1F
100
AcDbEntity
  8
0
  6
Continuous
 62
     7
370
    25
100
AcDbLine
 10
2.5244648776
 20
-1.6959195579
 30
0.0
 11
2.5171425471
 21
-1.7205507696
 31
0.0
  0
LINE
  5
27C
330
1F
100
AcDbEntity
  8
0
  6
Continuous
 62
     7
370
    25
100
AcDbLine
 10
1.827695235
 20
-1.2933536695
 30
0.0
 11
2.5244648776
 21
-1.6959195579
 31
0.0
  0
LINE
  5
27D
330
1F
100
AcDbEntity
  8
0
  6
Continuous
 62
     7
370
    25
100
AcDbLine
 10
2.5671425471
 20
-1.6916935101
 30
0.0
 11
2.5244648776
 21
-1.6959195579
 31
0.0
  0
LINE
  5
27E
330
1F
100
AcDbEntity
  8
0
  6
Continuous
 62
     7
370
    25
100
AcDbLine
 10
2.1836394091
 20
-0.7493271605
 30
0.0
 11
2.7135222728
 21
-1.0554724814
 31
0.0
  0
LINE
  5
27F
330
1F
100
AcDbEntity
  8
0
  6
Continuous
 62
     7
370
    25
100
AcDbLine
 10
2.7186999423
 20
-1.0873256978
 30
0.0
 11
2.7135222728
 21
-1.0554724814
 31
0.0
  0
LINE
  5
280
330
1F
100
AcDbEntity
  8
0
  6
Continuous
 62
     7
370
    25
100
AcDbLine
 10
2.7135222728
 20
-1.0554724814
 30
0.0
 11
2.7436999423
 21
-1.044024429
 31
0.0
  0
LINE
  5
281
330
1F
100
AcDbEntity
  8
0
  6
Continuous
 62
     7
370
    25
100
AcDbLine
 10
2.4162775401
 20
-1.7583593594
 30
0.0
 11
2.4089552096
 21
-1.7829905711
 31
0.0
  0
LINE
  5
282
330
1F
100
AcDbEntity
  8
0
  6
Continuous
 62
     7
370
    25
100
AcDbLine
 10
1.827695235
 20
-1.4182998274
 30
0.0
 11
2.4162775401
 21
-1.7583593594
 31
0.0
  0
LINE
  5
283
330
1F
100
AcDbEntity
  8
0
  6
Continuous
 62
     7
370
    25
100
AcDbLine
 10
2.4589552096
 20
-1.7541333116
 30
0.0
 11
2.4162775401
 21
-1.7583593594
 31
0.0
  0
LINE
  5
284
330
1F
100
AcDbEntity
  8
0
  6
Continuous
 62
     7
370
    25
100
AcDbLine
 10
2.2918267466
 20
-0.686887359
 30
0.0
 11
2.7135222728
 21
-0.9305263235
 31
0.0
  0
LINE
  5
285
330
1F
100
AcDbEntity
  8
0
  6
Continuous
 62
     7
370
    25
100
AcDbLine
 10
2.7186999423
 20
-0.9623795399
 30
0.0
 11
2.7135222728
 21
-0.9305263235
 31
0.0
  0
LINE
  5
286
330
1F
100
AcDbEntity
  8
0
  6
Continuous
 62
     7
370
    25
100
AcDbLine
 10
2.7135222728
 20
-0.9305263235
 30
0.0
 11
2.7436999423
 21
-0.919078271
 31
0.0
  0
LINE
  5
287
330
1F
100
AcDbEntity
  8
0
  6
Continuous
 62
     7
370
    25
100
AcDbLine
 10
2.3080902026
 20
-1.8207991609
 30
0.0
 11
2.3007678721
 21
-1.8454303726
 31
0.0
  0
LINE
  5
288
330
1F
100
AcDbEntity
  8
0
  6
Continuous
 62
     7
370
    25
100
AcDbLine
 10
1.827695235
 20
-1.5432459853
 30
0.0
 11
2.3080902026
 21
-1.8207991609
 31
0.0
  0
LINE
  5
289
330
1F
100
AcDbEntity
  8
0
  6
Continuous
 62
     7
370
    25
100
AcDbLine
 10
2.3507678721
 20
-1.8165731131
 30
0.0
 11
2.3080902026
 21
-1.8207991609
 31
0.0
  0
LINE
  5
28A
330
1F
100
AcDbEntity
  8
0
  6
Continuous
 62
     7
370
    25
100
AcDbLine
 10
2.4000140841
 20
-0.6244475576
 30
0.0
 11
2.7135222728
 21
-0.8055801656
 31
0.0
  0
LINE
  5
28B
330
1F
100
AcDbEntity
  8
0
  6
Continuous
 62
     7
370
    25
100
AcDbLine
 10
2.7186999423
 20
-0.8374333819
 30
0.0
 11
2.7135222728
 21
-0.8055801656
 31
0.0
  0
LINE
  5
28C
330
1F
100
AcDbEntity
  8
0
  6
Continuous
 62
     7
370
    25
100
AcDbLine
 10
2.7135222728
 20
-0.8055801656
 30
0.0
 11
2.7436999423
 21
-0.7941321131
 31
0.0
  0
LINE
  5
28D
330
1F
100
AcDbEntity
  8
0
  6
Continuous
 62
     7
370
    25
100
AcDbLine
 10
2.199902865
 20
-1.8832389624
 30
0.0
 11
2.1925805346
 21
-1.9078701741
 31
0.0
  0
LINE
  5
28E
330
1F
100
AcDbEntity
  8
0
  6
Continuous
 62
     7
370
    25
100
AcDbLine
 10
1.827695235
 20
-1.6681921433
 30
0.0
 11
2.199902865
 21
-1.8832389624
 31
0.0
  0
LINE
  5
28F
330
1F
100
AcDbEntity
  8
0
  6
Continuous
 62
     7
370
    25
100
AcDbLine
 10
2.2425805346
 20
-1.8790129145
 30
0.0
 11
2.199902865
 21
-1.8832389624
 31
0.0
  0
LINE
  5
290
330
1F
100
AcDbEntity
  8
0
  6
Continuous
 62
     7
370
    25
100
AcDbLine
 10
2.5082014216
 20
-0.5620077561
 30
0.0
 11
2.7135222728
 21
-0.6806340076
 31
0.0
  0
LINE
  5
291
330
1F
100
AcDbEntity
  8
0
  6
Continuous
 62
     7
370
    25
100
AcDbLine
 10
2.7186999423
 20
-0.712487224
 30
0.0
 11
2.7135222728
 21
-0.6806340076
 31
0.0
  0
LINE
  5
292
330
1F
100
AcDbEntity
  8
0
  6
Continuous
 62
     7
370
    25
100
AcDbLine
 10
2.7135222728
 20
-0.6806340076
 30
0.0
 11
2.7436999423
 21
-0.6691859552
 31
0.0
  0
LINE
  5
293
330
1F
100
AcDbEntity
  8
0
  6
Continuous
 62
     7
370
    25
100
AcDbLine
 10
2.0917155275
 20
-1.9456787638
 30
0.0
 11
2.084393197
 21
-1.9703099755
 31
0.0
  0
LINE
  5
294
330
1F
100
AcDbEntity
  8
0
  6
Continuous
 62
     7
370
    25
100
AcDbLine
 10
1.827695235
 20
-1.7931383012
 30
0.0
 11
2.0917155275
 21
-1.9456787638
 31
0.0
  0
LINE
  5
295
330
1F
100
AcDbEntity
  8
0
  6
Continuous
 62
     7
370
    25
100
AcDbLine
 10
2.134393197
 20
-1.941452716
 30
0.0
 11
2.0917155275
 21
-1.9456787638
 31
0.0
  0
LINE
  5
296
330
1F
100
AcDbEntity
  8
0
  6
Continuous
 62
     7
370
    25
100
AcDbLine
 10
2.6163887592
 20
-0.4995679546
 30
0.0
 11
2.7135222728
 21
-0.5556878497
 31
0.0
  0
LINE
  5
297
330
1F
100
AcDbEntity
  8
0
  6
Continuous
 62
     7
370
    25
100
AcDbLine
 10
2.7186999423
 20
-0.587541066
 30
0.0
 11
2.7135222728
 21
-0.5556878497
 31
0.0
  0
LINE
  5
298
330
1F
100
AcDbEntity
  8
0
  6
Continuous
 62
     7
370
    25
100
AcDbLine
 10
2.7135222728
 20
-0.5556878497
 30
0.0
 11
2.7436999423
 21
-0.5442397972
 31
0.0
  0
LINE
  5
299
330
1F
100
AcDbEntity
  8
0
  6
Continuous
 62
     7
370
    25
100
AcDbLine
 10
1.98352819
 20
-2.0081185653
 30
0.0
 11
1.9762058595
 21
-2.032749777
 31
0.0
  0
LINE
  5
29A
330
1F
100
AcDbEntity
  8
0
  6
Continuous
 62
     7
370
    25
100
AcDbLine
 10
1.827695235
 20
-1.9180844592
 30
0.0
 11
1.98352819
 21
-2.0081185653
 31
0.0
  0
LINE
  5
29B
330
1F
100
AcDbEntity
  8
0
  6
Continuous
 62
     7
370
    25
100
AcDbLine
 10
2.0262058595
 20
-2.0038925175
 30
0.0
 11
1.98352819
 21
-2.0081185653
 31
0.0
  0
LINE
  5
29C
330
1F
100
AcDbEntity
  8
0
  6
Continuous
 62
     7
370
    25
100
AcDbLine
 10
1.827695235
 20
-2.0430306171
 30
0.0
 11
1.8753408525
 21
-2.0705583668
 31
0.0
  0
LINE
  5
29D
330
1F
100
AcDbEntity
  8
0
  6
Continuous
 62
     7
370
    25
100
AcDbLine
 10
1.8753408525
 20
-2.0705583668
 30
0.0
 11
1.868018522
 21
-2.0951895785
 31
0.0
  0
LINE
  5
29E
330
1F
100
AcDbEntity
  8
0
  6
Continuous
 62
     7
370
    25
100
AcDbLine
 10
1.918018522
 20
-2.066332319
 30
0.0
 11
1.8753408525
 21
-2.0705583668
 31
0.0
  0
LINE
  5
29F
330
1F
100
AcDbEntity
  8
0
  6
Continuous
 62
     7
370
    25
100
AcDbLine
 10
-2.14446857
 20
-0.8154861959
 30
0.0
 11
-2.1123507326
 21
-0.7754328347
 31
0.0
  0
LINE
  5
2A0
330
1F
100
AcDbEntity
  8
0
  6
Continuous
 62
     7
370
    25
100
AcDbLine
 10
-1.8835467505
 20
-0.8150355092
 30
0.0
 11
-1.9157754865
 21
-0.775093293
 31
0.0
  0
LINE
  5
2A1
330
1F
100
AcDbEntity
  8
0
  6
Continuous
 62
     7
370
    25
100
AcDbLine
 10
-2.1443575277
 20
-0.8584555199
 30
0.0
 11
-2.14446857
 21
-0.8154861959
 31
0.0
  0
LINE
  5
2A2
330
1F
100
AcDbEntity
  8
0
  6
Continuous
 62
     7
370
    25
100
AcDbLine
 10
-1.8834357083
 20
-0.8580048332
 30
0.0
 11
-1.8835467505
 21
-0.8150355092
 31
0.0
  0
LINE
  5
2A3
330
1F
100
AcDbEntity
  8
0
  6
Continuous
 62
     7
370
    25
100
AcDbLine
 10
-2.1123507326
 20
-0.7754328347
 30
0.0
 11
-2.0801218529
 21
-0.7783487976
 31
0.0
  0
LINE
  5
2A4
330
1F
100
AcDbEntity
  8
0
  6
Continuous
 62
     7
370
    25
100
AcDbLine
 10
-1.9157754865
 20
-0.775093293
 30
0.0
 11
-1.9478931802
 21
-0.7781204009
 31
0.0
  0
LINE
  5
2A5
330
1F
100
AcDbEntity
  8
0
  6
Continuous
 62
     7
370
    25
100
AcDbLine
 10
-1.8835467505
 20
-0.8150355092
 30
0.0
 11
-1.4196847021
 21
-0.5473197591
 31
0.0
  0
LINE
  5
2A6
330
1F
100
AcDbEntity
  8
0
  6
Continuous
 62
     7
370
    25
100
AcDbLine
 10
-1.9157754865
 20
-0.775093293
 30
0.0
 11
-1.4519134381
 21
-0.5073775429
 31
0.0
  0
LINE
  5
2A7
330
1F
100
AcDbEntity
  8
0
  6
Continuous
 62
     7
370
    25
100
AcDbLine
 10
-1.4196847021
 20
-0.5473197591
 30
0.0
 11
-1.4519134381
 21
-0.5073775429
 31
0.0
  0
LINE
  5
2A8
330
1F
100
AcDbEntity
  8
0
  6
Continuous
 62
     7
370
    25
100
AcDbLine
 10
-2.14446857
 20
-0.8154861959
 30
0.0
 11
-3.6477708715
 21
0.0469480936
 31
0.0
  0
LINE
  5
2A9
330
1F
100
AcDbEntity
  8
0
  6
Continuous
 62
     7
370
    25
100
AcDbLine
 10
-3.6477708715
 20
0.0469480936
 30
0.0
 11
-3.6156530342
 21
0.0870014548
 31
0.0
  0
LINE
  5
2AA
330
1F
100
AcDbEntity
  8
0
  6
Continuous
 62
     7
370
    25
100
AcDbLine
 10
-2.1123507326
 20
-0.7754328347
 30
0.0
 11
-3.6156530342
 21
0.0870014548
 31
0.0
  0
LINE
  5
2AB
330
1F
100
AcDbEntity
  8
0
  6
Continuous
 62
     7
370
    25
100
AcDbLine
 10
-1.8834357083
 20
-0.8580048332
 30
0.0
 11
-1.4195736598
 21
-0.5902890831
 31
0.0
  0
LINE
  5
2AC
330
1F
100
AcDbEntity
  8
0
  6
Continuous
 62
     7
370
    25
100
AcDbLine
 10
-1.4195736598
 20
-0.5902890831
 30
0.0
 11
-1.4196847021
 21
-0.5473197591
 31
0.0
  0
LINE
  5
2AD
330
1F
100
AcDbEntity
  8
0
  6
Continuous
 62
     7
370
    25
100
AcDbLine
 10
-2.1443575277
 20
-0.8584555199
 30
0.0
 11
-3.6476598293
 21
0.0039787696
 31
0.0
  0
LINE
  5
2AE
330
1F
100
AcDbEntity
  8
0
  6
Continuous
 62
     7
370
    25
100
AcDbLine
 10
-3.6476598293
 20
0.0039787696
 30
0.0
 11
-3.6477708715
 21
0.0469480936
 31
0.0
  0
LINE
  5
2AF
330
1F
100
AcDbEntity
  8
0
  6
Continuous
 62
     7
370
    25
100
AcDbLine
 10
-1.9478931802
 20
-0.7781204009
 30
0.0
 11
-1.4840311317
 21
-0.5104046507
 31
0.0
  0
LINE
  5
2B0
330
1F
100
AcDbEntity
  8
0
  6
Continuous
 62
     7
370
    25
100
AcDbLine
 10
-1.4519134381
 20
-0.5073775429
 30
0.0
 11
-1.4840311317
 21
-0.5104046507
 31
0.0
  0
LINE
  5
2B1
330
1F
100
AcDbEntity
  8
0
  6
Continuous
 62
     7
370
    25
100
AcDbLine
 10
-3.6156530342
 20
0.0870014548
 30
0.0
 11
-3.5834241545
 21
0.0840854919
 31
0.0
  0
LINE
  5
2B2
330
1F
100
AcDbEntity
  8
0
  6
Continuous
 62
     7
370
    25
100
AcDbLine
 10
-2.0801218529
 20
-0.7783487976
 30
0.0
 11
-3.5834241545
 21
0.0840854919
 31
0.0
  0
LINE
  5
2B3
330
1F
100
AcDbEntity
  8
0
  6
Continuous
 62
     7
370
    25
100
AcDbLine
 10
-0.3910508697
 20
0.4258329523
 30
0.0
 11
-0.4036853451
 21
0.4146312112
 31
0.0
  0
LINE
  5
2B4
330
1F
100
AcDbEntity
  8
0
  6
Continuous
 62
     7
370
    25
100
AcDbLine
 10
-0.3910508697
 20
0.4258329523
 30
0.0
 11
-0.3944362672
 21
0.4092874605
 31
0.0
  0
LINE
  5
2B5
330
1F
100
AcDbEntity
  8
0
  6
Continuous
 62
     7
370
    25
100
AcDbLine
 10
-0.5642792162
 20
0.1257926644
 30
0.0
 11
-0.5516447408
 21
0.1369944055
 31
0.0
  0
LINE
  5
2B6
330
1F
100
AcDbEntity
  8
0
  6
Continuous
 62
     7
370
    25
100
AcDbLine
 10
-0.5642792162
 20
0.1257926644
 30
0.0
 11
-0.5608938187
 21
0.1423381562
 31
0.0
  0
LINE
  5
2B7
330
1F
100
AcDbEntity
  8
0
  6
Continuous
 62
     7
370
    25
100
AcDbLine
 10
-0.7130546617
 20
0.5934932468
 30
0.0
 11
-0.7449343
 21
0.6078266733
 31
0.0
  0
LINE
  5
2B8
330
1F
100
AcDbEntity
  8
0
  6
Continuous
 62
     7
370
    25
100
AcDbLine
 10
-0.7744215131
 20
0.4244041308
 30
0.0
 11
-1.1224071338
 21
0.625242358
 31
0.0
  0
LINE
  5
2B9
330
1F
100
AcDbEntity
  8
0
  6
Continuous
 62
     7
370
    25
100
AcDbLine
 10
-1.1027220944
 20
0.6593378453
 30
0.0
 11
-0.7547364737
 21
0.4584996181
 31
0.0
  0
LINE
  5
2BA
330
1F
100
AcDbEntity
  8
0
  6
Continuous
 62
     7
370
    25
100
AcDbLine
 10
-0.8004432139
 20
0.4848643464
 30
0.0
 11
-0.7547436401
 21
0.4584890572
 31
0.0
  0
LINE
  5
2BB
330
1F
100
AcDbEntity
  8
0
  6
Continuous
 62
     7
370
    25
100
AcDbLine
 10
-0.596021942
 20
0.1622954711
 30
0.0
 11
-0.5642792162
 21
0.1257926644
 31
0.0
  0
LINE
  5
2BC
330
1F
100
AcDbEntity
  8
0
  6
Continuous
 62
     7
370
    25
100
AcDbLine
 10
-0.4385416271
 20
0.4350593692
 30
0.0
 11
-0.3910508697
 21
0.4258329523
 31
0.0
  0
LINE
  5
2BD
330
1F
100
AcDbEntity
  8
0
  6
Continuous
 62
     7
370
    25
100
AcDbLine
 10
-1.1590072103
 20
0.6918143399
 30
0.0
 11
-1.1027220944
 21
0.6593378453
 31
0.0
  0
LINE
  5
2BE
330
1F
100
AcDbEntity
  8
0
  6
Continuous
 62
     7
370
    25
100
AcDbLine
 10
-0.8004432139
 20
0.4848643464
 30
0.0
 11
-0.8540025556
 21
0.5157695314
 31
0.0
  0
LINE
  5
2BF
330
1F
100
AcDbEntity
  8
0
  6
Continuous
 62
     7
370
    25
100
AcDbLine
 10
-0.8571236377
 20
0.51757048
 30
0.0
 11
-0.8870523483
 21
0.5348401534
 31
0.0
  0
LINE
  5
2C0
330
1F
100
AcDbEntity
  8
0
  6
Continuous
 62
     7
370
    25
100
AcDbLine
 10
-1.1222929295
 20
0.6706022833
 30
0.0
 11
-1.1590072103
 21
0.6918143399
 31
0.0
  0
LINE
  5
2C1
330
1F
100
AcDbEntity
  8
0
  6
Continuous
 62
     7
370
    25
100
AcDbLine
 10
-0.7449348597
 20
0.6078269952
 30
0.0
 11
-0.6988917918
 21
0.6180240563
 31
0.0
  0
LINE
  5
2C2
330
1F
100
AcDbEntity
  8
0
  6
Continuous
 62
     7
370
    25
100
AcDbLine
 10
-0.6835271027
 20
0.6446364778
 30
0.0
 11
-0.8132756857
 21
0.615901333
 31
0.0
  0
LINE
  5
2C3
330
1F
100
AcDbEntity
  8
0
  6
Continuous
 62
     7
370
    25
100
AcDbLine
 10
-0.6988917918
 20
0.6180240563
 30
0.0
 11
-0.6835271027
 21
0.6446364777
 31
0.0
  0
LINE
  5
2C4
330
1F
100
AcDbEntity
  8
0
  6
Continuous
 62
     7
370
    25
100
AcDbLine
 10
-1.0076923096
 20
0.4355069544
 30
0.0
 11
-1.0230729327
 21
0.4088669347
 31
0.0
  0
LINE
  5
2C5
330
1F
100
AcDbEntity
  8
0
  6
Continuous
 62
     7
370
    25
100
AcDbLine
 10
-0.8846978466
 20
0.2961985393
 30
0.0
 11
-0.9000625358
 21
0.2695861177
 31
0.0
  0
LINE
  5
2C6
330
1F
100
AcDbEntity
  8
0
  6
Continuous
 62
     7
370
    25
100
AcDbLine
 10
-0.8678251919
 20
0.319165403
 30
0.0
 11
-0.8846978466
 21
0.2961985392
 31
0.0
  0
LINE
  5
2C7
330
1F
100
AcDbEntity
  8
0
  6
Continuous
 62
     7
370
    25
100
AcDbLine
 10
-0.8648854593
 20
0.3174687504
 30
0.0
 11
-0.9000625358
 21
0.2695861178
 31
0.0
  0
LINE
  5
2C8
330
1F
100
AcDbEntity
  8
0
  6
Continuous
 62
     7
370
    25
100
AcDbLine
 10
-1.2086250532
 20
0.7022769481
 30
0.0
 11
-1.2295041904
 21
0.7143272417
 31
0.0
  0
LINE
  5
2C9
330
1F
100
AcDbEntity
  8
0
  6
Continuous
 62
     7
370
    25
100
AcDbLine
 10
-1.1920042579
 20
0.6654100034
 30
0.0
 11
-1.2198431076
 21
0.6814770616
 31
0.0
  0
LINE
  5
2CA
330
1F
100
AcDbEntity
  8
0
  6
Continuous
 62
     7
370
    25
100
AcDbLine
 10
-1.1786922496
 20
0.6577188526
 30
0.0
 11
-1.1920042579
 21
0.6654100034
 31
0.0
  0
LINE
  5
2CB
330
1F
100
AcDbEntity
  8
0
  6
Continuous
 62
     7
370
    25
100
AcDbLine
 10
-1.144259757
 20
0.7105750795
 30
0.0
 11
-1.1580898866
 21
0.7185655804
 31
0.0
  0
LINE
  5
2CC
330
1F
100
AcDbEntity
  8
0
  6
Continuous
 62
     7
370
    25
100
AcDbLine
 10
-1.2068078735
 20
0.7466829322
 30
0.0
 11
-1.1580898866
 21
0.7185655804
 31
0.0
  0
LINE
  5
2CD
330
1F
100
AcDbEntity
  8
0
  6
Continuous
 62
     7
370
    25
100
AcDbLine
 10
-1.2409367903
 20
0.7663584529
 30
0.0
 11
-1.262574868
 21
0.7788600767
 31
0.0
  0
LINE
  5
2CE
330
1F
100
AcDbEntity
  8
0
  6
Continuous
 62
     7
370
    25
100
AcDbLine
 10
-1.1747203183
 20
0.6826881358
 30
0.0
 11
-1.2086250532
 21
0.7022769481
 31
0.0
  0
LINE
  5
2CF
330
1F
100
AcDbEntity
  8
0
  6
Continuous
 62
     7
370
    25
100
AcDbLine
 10
-1.2295041904
 20
0.7143272417
 30
0.0
 11
-1.2633478292
 21
0.7338550661
 31
0.0
  0
LINE
  5
2D0
330
1F
100
AcDbEntity
  8
0
  6
Continuous
 62
     7
370
    25
100
AcDbLine
 10
-1.3590373558
 20
0.7618123525
 30
0.0
 11
-1.3103193689
 21
0.7336950007
 31
0.0
  0
LINE
  5
2D1
330
1F
100
AcDbEntity
  8
0
  6
Continuous
 62
     7
370
    25
100
AcDbLine
 10
-1.2745053791
 20
0.7130030966
 30
0.0
 11
-1.3103193689
 21
0.7336950007
 31
0.0
  0
LINE
  5
2D2
330
1F
100
AcDbEntity
  8
0
  6
Continuous
 62
     7
370
    25
100
AcDbLine
 10
-1.3928141165
 20
0.7813015374
 30
0.0
 11
-1.3590373558
 21
0.7618123525
 31
0.0
  0
LINE
  5
2D3
330
1F
100
AcDbEntity
  8
0
  6
Continuous
 62
     7
370
    25
100
AcDbLine
 10
-1.3616056975
 20
0.7632705496
 30
0.0
 11
-1.3928141165
 21
0.7813015374
 31
0.0
  0
LINE
  5
2D4
330
1F
100
AcDbEntity
  8
0
  6
Continuous
 62
     7
370
    25
100
AcDbLine
 10
-1.3248759098
 20
0.6966364702
 30
0.0
 11
-1.3735938967
 21
0.724753822
 31
0.0
  0
LINE
  5
2D5
330
1F
100
AcDbEntity
  8
0
  6
Continuous
 62
     7
370
    25
100
AcDbLine
 10
-1.310408819
 20
0.6882779584
 30
0.0
 11
-1.3248759098
 21
0.6966364702
 31
0.0
  0
LINE
  5
2D6
330
1F
100
AcDbEntity
  8
0
  6
Continuous
 62
     7
370
    25
100
AcDbLine
 10
-1.380889979
 20
0.847145074
 30
0.0
 11
-1.3586141315
 21
0.834292098
 31
0.0
  0
LINE
  5
2D7
330
1F
100
AcDbEntity
  8
0
  6
Continuous
 62
     7
370
    25
100
AcDbLine
 10
-1.3576768717
 20
0.8336697932
 30
0.0
 11
-1.3754568098
 21
0.8439332187
 31
0.0
  0
LINE
  5
2D8
330
1F
100
AcDbEntity
  8
0
  6
Continuous
 62
     7
370
    25
100
AcDbLine
 10
-1.3754568098
 20
0.8439332187
 30
0.0
 11
-1.49920509
 21
0.9154300712
 31
0.0
  0
LINE
  5
2D9
330
1F
100
AcDbEntity
  8
0
  6
Continuous
 62
     7
370
    25
100
AcDbLine
 10
-1.4434380955
 20
0.8832529266
 30
0.0
 11
-1.3947201087
 21
0.8551355748
 31
0.0
  0
LINE
  5
2DA
330
1F
100
AcDbEntity
  8
0
  6
Continuous
 62
     7
370
    25
100
AcDbLine
 10
-1.3947201087
 20
0.8551355748
 30
0.0
 11
-1.380889979
 21
0.847145074
 31
0.0
  0
LINE
  5
2DB
330
1F
100
AcDbEntity
  8
0
  6
Continuous
 62
     7
370
    25
100
AcDbLine
 10
-1.3816705604
 20
0.80212734
 30
0.0
 11
-1.4174164256
 21
0.8227798844
 31
0.0
  0
LINE
  5
2DC
330
1F
100
AcDbEntity
  8
0
  6
Continuous
 62
     7
370
    25
100
AcDbLine
 10
-1.4174164256
 20
0.8227798844
 30
0.0
 11
-1.4661344125
 21
0.8508972362
 31
0.0
  0
LINE
  5
2DD
330
1F
100
AcDbEntity
  8
0
  6
Continuous
 62
     7
370
    25
100
AcDbLine
 10
-1.5111292276
 20
0.8495865346
 30
0.0
 11
-1.5336375827
 21
0.8625738443
 31
0.0
  0
LINE
  5
2DE
330
1F
100
AcDbEntity
  8
0
  6
Continuous
 62
     7
370
    25
100
AcDbLine
 10
-1.4661344125
 20
0.8508972362
 30
0.0
 11
-1.4999780513
 21
0.8704250606
 31
0.0
  0
LINE
  5
2DF
330
1F
100
AcDbEntity
  8
0
  6
Continuous
 62
     7
370
    25
100
AcDbLine
 10
-1.546949591
 20
0.8702649952
 30
0.0
 11
-1.5956675779
 21
0.898382347
 31
0.0
  0
LINE
  5
2E0
330
1F
100
AcDbEntity
  8
0
  6
Continuous
 62
     7
370
    25
100
AcDbLine
 10
-1.5336375827
 20
0.8625738443
 30
0.0
 11
-1.546949591
 21
0.8702649952
 31
0.0
  0
LINE
  5
2E1
330
1F
100
AcDbEntity
  8
0
  6
Continuous
 62
     7
370
    25
100
AcDbLine
 10
-1.6024534912
 20
0.9477194675
 30
0.0
 11
-1.5885340664
 21
0.9396859384
 31
0.0
  0
LINE
  5
2E2
330
1F
100
AcDbEntity
  8
0
  6
Continuous
 62
     7
370
    25
100
AcDbLine
 10
-1.6024534912
 20
0.9477194675
 30
0.0
 11
-1.6257318644
 21
0.961168789
 31
0.0
  0
LINE
  5
2E3
330
1F
100
AcDbEntity
  8
0
  6
Continuous
 62
     7
370
    25
100
AcDbLine
 10
-1.5759825385
 20
0.9324778342
 30
0.0
 11
-1.5272645516
 21
0.9043604824
 31
0.0
  0
LINE
  5
2E4
330
1F
100
AcDbEntity
  8
0
  6
Continuous
 62
     7
370
    25
100
AcDbLine
 10
-1.4614352767
 20
0.866326936
 30
0.0
 11
-1.5272645516
 21
0.9043604824
 31
0.0
  0
LINE
  5
2E5
330
1F
100
AcDbEntity
  8
0
  6
Continuous
 62
     7
370
    25
100
AcDbLine
 10
-1.5811423302
 20
0.9354152861
 30
0.0
 11
-1.4614352767
 21
0.866326936
 31
0.0
  0
LINE
  5
2E6
330
1F
100
AcDbEntity
  8
0
  6
Continuous
 62
     7
370
    25
100
AcDbLine
 10
-1.5811423302
 20
0.9354152861
 30
0.0
 11
-1.5885340664
 21
0.9396859384
 31
0.0
  0
LINE
  5
2E7
330
1F
100
AcDbEntity
  8
0
  6
Continuous
 62
     7
370
    25
100
AcDbLine
 10
-1.3624290281
 20
0.8338389991
 30
0.0
 11
-1.3612955549
 21
0.8368276764
 31
0.0
  0
LINE
  5
2E8
330
1F
100
AcDbEntity
  8
0
  6
Continuous
 62
     7
370
    25
100
AcDbLine
 10
-1.4080137501
 20
0.8354620949
 30
0.0
 11
-1.4368486704
 21
0.8521217692
 31
0.0
  0
LINE
  5
2E9
330
1F
100
AcDbEntity
  8
0
  6
Continuous
 62
     7
370
    25
100
AcDbLine
 10
-1.4080557753
 20
0.8354635912
 30
0.0
 11
-1.4197373823
 21
0.8422055745
 31
0.0
  0
LINE
  5
2EA
330
1F
100
AcDbEntity
  8
0
  6
Continuous
 62
     7
370
    25
100
AcDbLine
 10
-1.5956675779
 20
0.898382347
 30
0.0
 11
-1.6454170979
 21
0.9270734137
 31
0.0
  0
LINE
  5
2EB
330
1F
100
AcDbEntity
  8
0
  6
Continuous
 62
     7
370
    25
100
AcDbLine
 10
-1.4197373823
 20
0.8422055745
 30
0.0
 11
-1.5398055133
 21
0.9115239482
 31
0.0
  0
LINE
  5
2EC
330
1F
100
AcDbEntity
  8
0
  6
Continuous
 62
     7
370
    25
100
AcDbLine
 10
-1.4368486704
 20
0.8521217692
 30
0.0
 11
-1.5565557239
 21
0.9212101193
 31
0.0
  0
LINE
  5
2ED
330
1F
100
AcDbEntity
  8
0
  6
Continuous
 62
     7
370
    25
100
AcDbLine
 10
-1.5491676949
 20
0.9169330459
 30
0.0
 11
-1.5398050394
 21
0.9115236746
 31
0.0
  0
LINE
  5
2EE
330
1F
100
AcDbEntity
  8
0
  6
Continuous
 62
     7
370
    25
100
AcDbLine
 10
-1.5491639877
 20
0.916939467
 30
0.0
 11
-1.5565557239
 21
0.9212101193
 31
0.0
  0
LINE
  5
2EF
330
1F
100
AcDbEntity
  8
0
  6
Continuous
 62
     7
370
    25
100
AcDbLine
 10
-1.5688229705
 20
0.882889111
 30
0.0
 11
-1.5491639877
 21
0.916939467
 31
0.0
  0
LINE
  5
2F0
330
1F
100
AcDbEntity
  8
0
  6
Continuous
 62
     7
370
    25
100
AcDbLine
 10
-1.6082191058
 20
0.9055904511
 30
0.0
 11
-1.5885340664
 21
0.9396859384
 31
0.0
  0
LINE
  5
2F1
330
1F
100
AcDbEntity
  8
0
  6
Continuous
 62
     7
370
    25
100
AcDbLine
 10
-1.6221385306
 20
0.9136239802
 30
0.0
 11
-1.6024534912
 21
0.9477194675
 31
0.0
  0
LINE
  5
2F2
330
1F
100
AcDbEntity
  8
0
  6
Continuous
 62
     7
370
    25
100
AcDbLine
 10
-0.2880546617
 20
0.3479450883
 30
0.0
 11
-0.3199343
 21
0.3622785148
 31
0.0
  0
LINE
  5
2F3
330
1F
100
AcDbEntity
  8
0
  6
Continuous
 62
     7
370
    25
100
AcDbLine
 10
-0.6922702216
 20
0.2178446963
 30
0.0
 11
-0.6881612139
 21
0.2152117495
 31
0.0
  0
LINE
  5
2F4
330
1F
100
AcDbEntity
  8
0
  6
Continuous
 62
     7
370
    25
100
AcDbLine
 10
-0.6022047156
 20
0.1658638227
 30
0.0
 11
-0.5981166875
 21
0.1632429907
 31
0.0
  0
LINE
  5
2F5
330
1F
100
AcDbEntity
  8
0
  6
Continuous
 62
     7
370
    25
100
AcDbLine
 10
-0.2585271027
 20
0.3990883193
 30
0.0
 11
-0.3709639245
 21
0.3741871737
 31
0.0
  0
LINE
  5
2F6
330
1F
100
AcDbEntity
  8
0
  6
Continuous
 62
     7
370
    25
100
AcDbLine
 10
-0.3199348597
 20
0.3622788367
 30
0.0
 11
-0.2738917918
 21
0.3724758979
 31
0.0
  0
LINE
  5
2F7
330
1F
100
AcDbEntity
  8
0
  6
Continuous
 62
     7
370
    25
100
AcDbLine
 10
-0.2738917918
 20
0.3724758979
 30
0.0
 11
-0.2585271027
 21
0.3990883192
 31
0.0
  0
LINE
  5
2F8
330
1F
100
AcDbEntity
  8
0
  6
Continuous
 62
     7
370
    25
100
AcDbLine
 10
-0.4596978466
 20
0.0506503808
 30
0.0
 11
-0.4750625358
 21
0.0240379593
 31
0.0
  0
LINE
  5
2F9
330
1F
100
AcDbEntity
  8
0
  6
Continuous
 62
     7
370
    25
100
AcDbLine
 10
-0.4428251919
 20
0.0736172445
 30
0.0
 11
-0.4596978466
 21
0.0506503807
 31
0.0
  0
LINE
  5
2FA
330
1F
100
AcDbEntity
  8
0
  6
Continuous
 62
     7
370
    25
100
AcDbLine
 10
-0.4419417382
 20
0.0691216086
 30
0.0
 11
-0.4750625358
 21
0.0240379593
 31
0.0
  0
LINE
  5
2FB
330
1F
100
AcDbEntity
  8
0
  6
Continuous
 62
     7
370
    25
100
AcDbLine
 10
-0.9924164256
 20
0.5772317259
 30
0.0
 11
-1.0035354422
 21
0.556636133
 31
0.0
  0
LINE
  5
2FC
330
1F
100
AcDbEntity
  8
0
  6
Continuous
 62
     7
370
    25
100
AcDbLine
 10
-0.8369502043
 20
0.664737517
 30
0.0
 11
-0.8523288807
 21
0.6706733647
 31
0.0
  0
LINE
  5
2FD
330
1F
100
AcDbEntity
  8
0
  6
Continuous
 62
     7
370
    25
100
AcDbLine
 10
-1.1717676243
 20
0.4961497833
 30
0.0
 11
-1.161421658
 21
0.4883517385
 31
0.0
  0
LINE
  5
2FE
330
1F
100
AcDbEntity
  8
0
  6
Continuous
 62
     7
370
    25
100
AcDbLine
 10
-1.0039833022
 20
0.7611398661
 30
0.0
 11
-1.0149740159
 21
0.7659176362
 31
0.0
  0
LINE
  5
2FF
330
1F
100
AcDbEntity
  8
0
  6
Continuous
 62
     7
370
    25
100
AcDbLine
 10
-1.028979619
 20
0.5710040423
 30
0.0
 11
-1.019344663
 21
0.5824769861
 31
0.0
  0
LINE
  5
300
330
1F
100
AcDbEntity
  8
0
  6
Continuous
 62
     7
370
    25
100
AcDbLine
 10
-1.3768285543
 20
0.772065713
 30
0.0
 11
-1.3821442815
 21
0.7491666226
 31
0.0
  0
LINE
  5
301
330
1F
100
AcDbEntity
  8
0
  6
Continuous
 62
     7
370
    25
100
AcDbLine
 10
-0.4419417382
 20
0.2308371768
 30
0.0
 11
-0.4419417382
 21
-0.7409662738
 31
0.0
  0
LINE
  5
302
330
1F
100
AcDbEntity
  8
0
  6
Continuous
 62
     7
370
    25
100
AcDbLine
 10
0.4207285348
 20
0.7532224222
 30
0.0
 11
-0.4207285348
 21
0.2675795218
 31
0.0
  0
LINE
  5
303
330
1F
100
AcDbEntity
  8
0
  6
Continuous
 62
     7
370
    25
100
AcDbLine
 10
1.8276999423
 20
-1.0723258373
 30
0.0
 11
1.8242473701
 21
-1.051085484
 31
0.0
  0
LINE
  5
304
330
1F
100
AcDbEntity
  8
0
  6
Continuous
 62
     7
370
    25
100
AcDbLine
 10
1.8325718267
 20
-1.0366602716
 30
0.0
 11
1.8526999423
 21
-1.0290245685
 31
0.0
  0
LINE
  5
305
330
1F
100
AcDbEntity
  8
0
  6
Continuous
 62
     7
370
    25
100
AcDbLine
 10
1.8276999423
 20
-1.1972719953
 30
0.0
 11
1.8242473701
 21
-1.1760316419
 31
0.0
  0
LINE
  5
306
330
1F
100
AcDbEntity
  8
0
  6
Continuous
 62
     7
370
    25
100
AcDbLine
 10
1.8325718267
 20
-1.1616064295
 30
0.0
 11
1.8526999423
 21
-1.1539707264
 31
0.0
  0
LINE
  5
307
330
1F
100
AcDbEntity
  8
0
  6
Continuous
 62
     7
370
    25
100
AcDbLine
 10
1.8276999423
 20
-1.3222181532
 30
0.0
 11
1.8242473701
 21
-1.3009777998
 31
0.0
  0
LINE
  5
308
330
1F
100
AcDbEntity
  8
0
  6
Continuous
 62
     7
370
    25
100
AcDbLine
 10
1.8325718267
 20
-1.2865525875
 30
0.0
 11
1.8526999423
 21
-1.2789168844
 31
0.0
  0
LINE
  5
309
330
1F
100
AcDbEntity
  8
0
  6
Continuous
 62
     7
370
    25
100
AcDbLine
 10
1.8276999423
 20
-1.4471643112
 30
0.0
 11
1.8242473701
 21
-1.4259239578
 31
0.0
  0
LINE
  5
30A
330
1F
100
AcDbEntity
  8
0
  6
Continuous
 62
     7
370
    25
100
AcDbLine
 10
1.8325718267
 20
-1.4114987454
 30
0.0
 11
1.8526999423
 21
-1.4038630423
 31
0.0
  0
LINE
  5
30B
330
1F
100
AcDbEntity
  8
0
  6
Continuous
 62
     7
370
    25
100
AcDbLine
 10
1.8276999423
 20
-1.5721104691
 30
0.0
 11
1.8242473701
 21
-1.5508701157
 31
0.0
  0
LINE
  5
30C
330
1F
100
AcDbEntity
  8
0
  6
Continuous
 62
     7
370
    25
100
AcDbLine
 10
1.8325718267
 20
-1.5364449034
 30
0.0
 11
1.8526999423
 21
-1.5288092003
 31
0.0
  0
LINE
  5
30D
330
1F
100
AcDbEntity
  8
0
  6
Continuous
 62
     7
370
    25
100
AcDbLine
 10
1.8276999423
 20
-1.697056627
 30
0.0
 11
1.8242473701
 21
-1.6758162737
 31
0.0
  0
LINE
  5
30E
330
1F
100
AcDbEntity
  8
0
  6
Continuous
 62
     7
370
    25
100
AcDbLine
 10
1.8325718267
 20
-1.6613910613
 30
0.0
 11
1.8526999423
 21
-1.6537553582
 31
0.0
  0
LINE
  5
30F
330
1F
100
AcDbEntity
  8
0
  6
Continuous
 62
     7
370
    25
100
AcDbLine
 10
1.8276999423
 20
-1.822002785
 30
0.0
 11
1.8242473701
 21
-1.8007624316
 31
0.0
  0
LINE
  5
310
330
1F
100
AcDbEntity
  8
0
  6
Continuous
 62
     7
370
    25
100
AcDbLine
 10
1.8325718267
 20
-1.7863372192
 30
0.0
 11
1.8526999423
 21
-1.7787015161
 31
0.0
  0
LINE
  5
311
330
1F
100
AcDbEntity
  8
0
  6
Continuous
 62
     7
370
    25
100
AcDbLine
 10
1.8276999423
 20
-1.9469489429
 30
0.0
 11
1.8242473701
 21
-1.9257085895
 31
0.0
  0
LINE
  5
312
330
1F
100
AcDbEntity
  8
0
  6
Continuous
 62
     7
370
    25
100
AcDbLine
 10
1.8325718267
 20
-1.9112833772
 30
0.0
 11
1.8526999423
 21
-1.9036476741
 31
0.0
  0
LINE
  5
313
330
1F
100
AcDbEntity
  8
0
  6
Continuous
 62
     7
370
    25
100
AcDbLine
 10
1.8276999423
 20
-2.0718951009
 30
0.0
 11
1.8242473701
 21
-2.0506547475
 31
0.0
  0
LINE
  5
314
330
1F
100
AcDbEntity
  8
0
  6
Continuous
 62
     7
370
    25
100
AcDbLine
 10
1.8325718267
 20
-2.0362295351
 30
0.0
 11
1.8526999423
 21
-2.028593832
 31
0.0
  0
LINE
  5
315
330
1F
100
AcDbEntity
  8
0
  6
Continuous
 62
     7
370
    25
100
AcDbLine
 10
1.6050928235
 20
-0.9505989743
 30
0.0
 11
-0.4419417382
 21
0.2308371768
 31
0.0
  0
LINE
  5
316
330
1F
100
AcDbEntity
  8
0
  6
Continuous
 62
     7
370
    25
100
AcDbLine
 10
-0.4207285348
 20
0.2675795218
 30
0.0
 11
1.647530536
 21
-0.9261062527
 31
0.0
  0
LINE
  5
317
330
1F
100
AcDbEntity
  8
0
  6
Continuous
 62
     7
370
    25
100
AcDbLine
 10
-0.4419417382
 20
-0.7409662738
 30
0.0
 11
1.5909902577
 21
-1.9142631969
 31
0.0
  0
LINE
  5
318
330
1F
100
AcDbEntity
  8
0
  6
Continuous
 62
     7
370
    25
100
AcDbLine
 10
2.4889876057
 20
-0.4404633523
 30
0.0
 11
0.4207285348
 21
0.7532224222
 31
0.0
  0
ARC
  5
319
330
1F
100
AcDbEntity
  8
0
  6
Continuous
 62
     7
370
    25
100
AcDbCircle
 10
-2.0144441294
 20
-0.5625701965
 30
0.0
 40
0.2843815357859112
100
AcDbArc
 50
242.7922457525
 51
297.4056864864
  0
ARC
  5
31A
330
1F
100
AcDbEntity
  8
0
  6
Continuous
 62
     7
370
    25
100
AcDbCircle
 10
-2.01439194
 20
-0.5848890737
 30
0.0
 40
0.2142495039254338
100
AcDbArc
 50
242.7922457525
 51
297.4056864864
  0
ARC
  5
31B
330
1F
100
AcDbEntity
  8
0
  6
Continuous
 62
     7
370
    25
100
AcDbCircle
 10
-2.0143330871
 20
-0.6055395206
 30
0.0
 40
0.2843815357859108
100
AcDbArc
 50
242.7922457525
 51
297.4056864864
  0
ARC
  5
31C
330
1F
100
AcDbEntity
  8
0
  6
Continuous
 62
     7
370
    25
100
AcDbCircle
 10
-2.0142287082
 20
-0.6501772749
 30
0.0
 40
0.1441174720649421
100
AcDbArc
 50
242.7922457525
 51
297.4056864864
  0
ARC
  5
31D
330
1F
100
AcDbEntity
  8
0
  6
Continuous
 62
     7
370
    25
100
AcDbCircle
 10
-0.5249198942
 20
0.2265288923
 30
0.0
 40
0.0934379032210403
100
AcDbArc
 50
253.3803394581
 51
312.6967947318
  0
ARC
  5
31E
330
1F
100
AcDbEntity
  8
0
  6
Continuous
 62
     7
370
    25
100
AcDbCircle
 10
-0.4728733408
 20
0.3359306168
 30
0.0
 40
0.1073946042985195
100
AcDbArc
 50
343.2929088456
 51
43.0831436995
  0
ARC
  5
31F
330
1F
100
AcDbEntity
  8
0
  6
Continuous
 62
     7
370
    25
100
AcDbCircle
 10
-1.9091790942
 20
-2.1142203574
 30
0.0
 40
2.94305991854873
100
AcDbArc
 50
59.2335171846
 51
60.0200610386
  0
ARC
  5
320
330
1F
100
AcDbEntity
  8
0
  6
Continuous
 62
     7
370
    25
100
AcDbCircle
 10
0.8748130301
 20
2.7103102072
 30
0.0
 40
2.942062985480371
100
AcDbArc
 50
240.0044191468
 51
240.7912318039
  0
ARC
  5
321
330
1F
100
AcDbEntity
  8
0
  6
Continuous
 62
     7
370
    25
100
AcDbCircle
 10
-0.5297385182
 20
0.3058666586
 30
0.0
 40
0.2718839832372065
100
AcDbArc
 50
145.8480173022
 51
154.151981133
  0
ARC
  5
322
330
1F
100
AcDbEntity
  8
0
  6
Continuous
 62
     7
370
    25
100
AcDbCircle
 10
-0.9560379467
 20
0.4854515958
 30
0.0
 40
0.1018645254363966
100
AcDbArc
 50
157.4170150846
 51
228.8137150315
  0
ARC
  5
323
330
1F
100
AcDbEntity
  8
0
  6
Continuous
 62
     7
370
    25
100
AcDbCircle
 10
-0.821951855
 20
0.3275094957
 30
0.0
 40
0.0490539510143387
100
AcDbArc
 50
146.3442039007
 51
187.9447520549
  0
ARC
  5
324
330
1F
100
AcDbEntity
  8
0
  6
Continuous
 62
     7
370
    25
100
AcDbCircle
 10
-1.0810767487
 20
0.5936798612
 30
0.0
 40
0.1167466421485314
100
AcDbArc
 50
146.7338027706
 51
211.3163349912
  0
ARC
  5
325
330
1F
100
AcDbEntity
  8
0
  6
Continuous
 62
     7
370
    25
100
AcDbCircle
 10
-0.9839863812
 20
0.5694105763
 30
0.0
 40
0.2135766184136861
100
AcDbArc
 50
138.6272636939
 51
145.0323344133
  0
ARC
  5
326
330
1F
100
AcDbEntity
  8
0
  6
Continuous
 62
     7
370
    25
100
AcDbCircle
 10
-1.0586671947
 20
0.6530936403
 30
0.0
 40
0.1031028736933267
100
AcDbArc
 50
86.3578662769
 51
146.1158557716
  0
ARC
  5
327
330
1F
100
AcDbEntity
  8
0
  6
Continuous
 62
     7
370
    25
100
AcDbCircle
 10
-0.9752889727
 20
0.5630061473
 30
0.0
 40
0.2717389968820181
100
AcDbArc
 50
149.1683816618
 51
154.1527650579
  0
ARC
  5
328
330
1F
100
AcDbEntity
  8
0
  6
Continuous
 62
     7
370
    25
100
AcDbCircle
 10
-1.105219219
 20
0.6895075988
 30
0.0
 40
0.1165730391732721
100
AcDbArc
 50
74.4854833448
 51
150.6286603011
  0
ARC
  5
329
330
1F
100
AcDbEntity
  8
0
  6
Continuous
 62
     7
370
    25
100
AcDbCircle
 10
-1.22267402
 20
0.6554250962
 30
0.0
 40
0.093684072792671
100
AcDbArc
 50
159.471262741
 51
215.3035457879
  0
ARC
  5
32A
330
1F
100
AcDbEntity
  8
0
  6
Continuous
 62
     7
370
    25
100
AcDbCircle
 10
-1.0636258074
 20
0.6133716552
 30
0.0
 40
0.2332490906676821
100
AcDbArc
 50
148.8992880749
 51
164.5286251995
  0
ARC
  5
32B
330
1F
100
AcDbEntity
  8
0
  6
Continuous
 62
     7
370
    25
100
AcDbCircle
 10
-1.1769823058
 20
0.7213786375
 30
0.0
 40
0.1031028736933258
100
AcDbArc
 50
86.3578662769
 51
146.1158557716
  0
ARC
  5
32C
330
1F
100
AcDbEntity
  8
0
  6
Continuous
 62
     7
370
    25
100
AcDbCircle
 10
-1.1748576553
 20
0.6781645182
 30
0.0
 40
0.2411270696929379
100
AcDbArc
 50
139.6473085872
 51
154.6764826971
  0
ARC
  5
32D
330
1F
100
AcDbEntity
  8
0
  6
Continuous
 62
     7
370
    25
100
AcDbCircle
 10
-1.2952974168
 20
0.7896636347
 30
0.0
 40
0.1031028736933269
100
AcDbArc
 50
86.3578662769
 51
146.1158557716
  0
ARC
  5
32E
330
1F
100
AcDbEntity
  8
0
  6
Continuous
 62
     7
370
    25
100
AcDbCircle
 10
-1.3409891311
 20
0.7237100935
 30
0.0
 40
0.0936840727926719
100
AcDbArc
 50
159.471262741
 51
215.3035457879
  0
ARC
  5
32F
330
1F
100
AcDbEntity
  8
0
  6
Continuous
 62
     7
370
    25
100
AcDbCircle
 10
-1.3418494411
 20
0.8260775933
 30
0.0
 40
0.1165730391732727
100
AcDbArc
 50
74.4854833448
 51
150.6286603011
  0
ARC
  5
330
330
1F
100
AcDbEntity
  8
0
  6
Continuous
 62
     7
370
    25
100
AcDbCircle
 10
-1.4360220818
 20
0.7985348529
 30
0.0
 40
0.1167466421485317
100
AcDbArc
 50
146.7338027706
 51
211.3163349912
  0
ARC
  5
331
330
1F
100
AcDbEntity
  8
0
  6
Continuous
 62
     7
370
    25
100
AcDbCircle
 10
-1.2904731098
 20
0.7449112413
 30
0.0
 40
0.2442253863393294
100
AcDbArc
 50
149.0742938119
 51
154.6211786008
  0
ARC
  5
332
330
1F
100
AcDbEntity
  8
0
  6
Continuous
 62
     7
370
    25
100
AcDbCircle
 10
-1.4136125278
 20
0.857948632
 30
0.0
 40
0.1031028736933235
100
AcDbArc
 50
86.3578662769
 51
146.1158557716
  0
ARC
  5
333
330
1F
100
AcDbEntity
  8
0
  6
Continuous
 62
     7
370
    25
100
AcDbCircle
 10
-1.5639296245
 20
0.886729975
 30
0.0
 40
0.0909272253463499
100
AcDbArc
 50
153.6605864006
 51
197.0985909538
  0
ARC
  5
334
330
1F
100
AcDbEntity
  8
0
  6
Continuous
 62
     7
370
    25
100
AcDbCircle
 10
-1.5500821492
 20
0.910792918
 30
0.0
 40
0.0908878836874941
100
AcDbArc
 50
102.9120217258
 51
146.339953954
  0
ARC
  5
335
330
1F
100
AcDbEntity
  8
0
  6
Continuous
 62
     7
370
    25
100
AcDbCircle
 10
-0.4098163129
 20
0.0815385139
 30
0.0
 40
0.0362800014971504
100
AcDbArc
 50
152.3113606673
 51
190.0920092995
  0
ARC
  5
336
330
1F
100
AcDbEntity
  8
0
  6
Continuous
 62
     7
370
    25
100
AcDbCircle
 10
-0.3958900794
 20
0.2287441354
 30
0.0
 40
0.0460991985466424
100
AcDbArc
 50
122.602292723
 51
177.3977057122
  0
ARC
  5
337
330
1F
100
AcDbEntity
  8
0
  6
Continuous
 62
     7
370
    25
100
AcDbCircle
 10
-0.4272371873
 20
-0.7425892069
 30
0.0
 40
0.0147938409032062
100
AcDbArc
 50
173.7017880468
 51
234.9907690305
  0
ARC
  5
338
330
1F
100
AcDbEntity
  8
0
  6
Continuous
 62
     7
370
    25
100
AcDbCircle
 10
0.4295137323
 20
0.7409555052
 30
0.0
 40
0.0150883049079678
100
AcDbArc
 50
65.6927008288
 51
125.6091008198
  0
ENDSEC
  0
SECTION
  2
OBJECTS
  0
DICTIONARY
  5
C
330
0
100
AcDbDictionary
281
     1
  3
ACAD_GROUP
350
D
  3
ACAD_LAYOUT
350
1A
  3
ACAD_MLINESTYLE
350
17
  3
ACAD_PLOTSETTINGS
350
19
  3
ACAD_PLOTSTYLENAME
350
E
  3
ACAD_SCALELIST
350
47
  3
DWGPROPS
350
339
  0
DICTIONARY
  5
D
102
{ACAD_REACTORS
330
C
102
}
330
C
100
AcDbDictionary
281
     1
  0
DICTIONARY
  5
1A
102
{ACAD_REACTORS
330
C
102
}
330
C
100
AcDbDictionary
281
     1
  3
Layout1
350
1E
  3
Layout2
350
26
  3
Model
350
22
  0
DICTIONARY
  5
17
102
{ACAD_REACTORS
330
C
102
}
330
C
100
AcDbDictionary
281
     1
  3
Standard
350
18
  0
DICTIONARY
  5
19
102
{ACAD_REACTORS
330
C
102
}
330
C
100
AcDbDictionary
281
     1
  0
ACDBDICTIONARYWDFLT
  5
E
102
{ACAD_REACTORS
330
C
102
}
330
C
100
AcDbDictionary
281
     1
  3
Normal
350
F
100
AcDbDictionaryWithDefault
340
F
  0
DICTIONARY
  5
47
102
{ACAD_REACTORS
330
C
102
}
330
C
100
AcDbDictionary
281
     1
  3
A0
350
48
  3
A1
350
49
  3
A2
350
4A
  3
A3
350
4B
  3
A4
350
4C
  3
A5
350
4D
  3
A6
350
4E
  3
A7
350
4F
  3
A8
350
50
  3
A9
350
51
  3
B1
350
52
  3
B2
350
53
  3
B3
350
54
  3
B4
350
55
  3
B5
350
56
  3
B6
350
57
  3
B7
350
58
  0
XRECORD
  5
339
102
{ACAD_REACTORS
330
C
102
}
330
C
100
AcDbXrecord
280
     1
  1
DWGPROPS COOKIE
  2

  3

  4

  6

  7

  8
Alan Ramirez
  9

300
=
301
=
302
=
303
=
304
=
305
=
306
=
307
=
308
=
309
=
 40
0.0
 41
2460717.961309965
 42
2460717.961363611
  1

 90
        0
  0
LAYOUT
  5
1E
102
{ACAD_REACTORS
330
1A
102
}
330
1A
100
AcDbPlotSettings
  1

  2
none_device
  4

  6

 40
0.0
 41
0.0
 42
0.0
 43
0.0
 44
0.0
 45
0.0
 46
0.0
 47
0.0
 48
0.0
 49
0.0
140
0.0
141
0.0
142
1.0
143
1.0
 70
   688
 72
     0
 73
     0
 74
     5
  7

 75
    16
147
1.0
148
0.0
149
0.0
100
AcDbLayout
  1
Layout1
 70
     1
 71
     1
 10
0.0
 20
0.0
 11
12.0
 21
9.0
 12
0.0
 22
0.0
 32
0.0
 14
1.0000000000E+20
 24
1.0000000000E+20
 34
1.0000000000E+20
 15
-1.0000000000E+20
 25
-1.0000000000E+20
 35
-1.0000000000E+20
146
0.0
 13
0.0
 23
0.0
 33
0.0
 16
1.0
 26
0.0
 36
0.0
 17
0.0
 27
1.0
 37
0.0
 76
     0
330
1B
  0
LAYOUT
  5
26
102
{ACAD_REACTORS
330
1A
102
}
330
1A
100
AcDbPlotSettings
  1

  2
none_device
  4

  6

 40
0.0
 41
0.0
 42
0.0
 43
0.0
 44
0.0
 45
0.0
 46
0.0
 47
0.0
 48
0.0
 49
0.0
140
0.0
141
0.0
142
1.0
143
1.0
 70
   688
 72
     0
 73
     0
 74
     5
  7

 75
    16
147
1.0
148
0.0
149
0.0
100
AcDbLayout
  1
Layout2
 70
     1
 71
     2
 10
0.0
 20
0.0
 11
0.0
 21
0.0
 12
0.0
 22
0.0
 32
0.0
 14
0.0
 24
0.0
 34
0.0
 15
0.0
 25
0.0
 35
0.0
146
0.0
 13
0.0
 23
0.0
 33
0.0
 16
1.0
 26
0.0
 36
0.0
 17
0.0
 27
1.0
 37
0.0
 76
     0
330
23
  0
LAYOUT
  5
22
102
{ACAD_REACTORS
330
1A
102
}
330
1A
100
AcDbPlotSettings
  1

  2
none_device
  4
ANSI_A_(11.00_x_8.50_Inches)
  6

 40
6.35
 41
19.05
 42
6.35000508
 43
19.05000254
 44
279.4
 45
215.9
 46
76.1402254675
 47
78.409917147
 48
0.0
 49
0.0
140
0.0
141
0.0
142
0.8752322677
143
1.0
 70
  1696
 72
     0
 73
     0
 74
     0
  7

 75
     0
147
0.5913241897
148
-39.4088153714
149
0.0
100
AcDbLayout
  1
Model
 70
     1
 71
     0
 10
0.0
 20
0.0
 11
12.0
 21
9.0
 12
0.0
 22
0.0
 32
0.0
 14
-3.6477708715
 24
-2.1785557442
 34
0.0
 15
8.794640591
 25
3.1222945736
 35
0.0
146
0.0
 13
0.0
 23
0.0
 33
0.0
 16
1.0
 26
0.0
 36
0.0
 17
0.0
 27
1.0
 37
0.0
 76
     0
330
1F
331
29
  0
MLINESTYLE
  5
18
102
{ACAD_REACTORS
330
17
102
}
330
17
100
AcDbMlineStyle
  2
Standard
 70
     0
  3

 62
   256
 51
90.0
 52
90.0
 71
     2
 49
0.5
 62
   256
  6
BYLAYER
 49
-0.5
 62
   256
  6
BYLAYER
  0
ACDBPLACEHOLDER
  5
F
102
{ACAD_REACTORS
330
E
102
}
330
E
  0
SCALE
  5
48
102
{ACAD_REACTORS
330
47
102
}
330
47
100
AcDbScale
 70
     0
300
1:1
140
1.0
141
1.0
290
     1
  0
SCALE
  5
49
102
{ACAD_REACTORS
330
47
102
}
330
47
100
AcDbScale
 70
     0
300
1/128" = 1'-0"
140
0.0078125
141
12.0
290
     0
  0
SCALE
  5
4A
102
{ACAD_REACTORS
330
47
102
}
330
47
100
AcDbScale
 70
     0
300
1/64" = 1'-0"
140
0.015625
141
12.0
290
     0
  0
SCALE
  5
4B
102
{ACAD_REACTORS
330
47
102
}
330
47
100
AcDbScale
 70
     0
300
1/32" = 1'-0"
140
0.03125
141
12.0
290
     0
  0
SCALE
  5
4C
102
{ACAD_REACTORS
330
47
102
}
330
47
100
AcDbScale
 70
     0
300
1/16" = 1'-0"
140
0.0625
141
12.0
290
     0
  0
SCALE
  5
4D
102
{ACAD_REACTORS
330
47
102
}
330
47
100
AcDbScale
 70
     0
300
3/32" = 1'-0"
140
0.09375
141
12.0
290
     0
  0
SCALE
  5
4E
102
{ACAD_REACTORS
330
47
102
}
330
47
100
AcDbScale
 70
     0
300
1/8" = 1'-0"
140
0.125
141
12.0
290
     0
  0
SCALE
  5
4F
102
{ACAD_REACTORS
330
47
102
}
330
47
100
AcDbScale
 70
     0
300
3/16" = 1'-0"
140
0.1875
141
12.0
290
     0
  0
SCALE
  5
50
102
{ACAD_REACTORS
330
47
102
}
330
47
100
AcDbScale
 70
     0
300
1/4" = 1'-0"
140
0.25
141
12.0
290
     0
  0
SCALE
  5
51
102
{ACAD_REACTORS
330
47
102
}
330
47
100
AcDbScale
 70
     0
300
3/8" = 1'-0"
140
0.375
141
12.0
290
     0
  0
SCALE
  5
52
102
{ACAD_REACTORS
330
47
102
}
330
47
100
AcDbScale
 70
     0
300
1/2" = 1'-0"
140
0.5
141
12.0
290
     0
  0
SCALE
  5
53
102
{ACAD_REACTORS
330
47
102
}
330
47
100
AcDbScale
 70
     0
300
3/4" = 1'-0"
140
0.75
141
12.0
290
     0
  0
SCALE
  5
54
102
{ACAD_REACTORS
330
47
102
}
330
47
100
AcDbScale
 70
     0
300
1" = 1'-0"
140
1.0
141
12.0
290
     0
  0
SCALE
  5
55
102
{ACAD_REACTORS
330
47
102
}
330
47
100
AcDbScale
 70
     0
300
1-1/2" = 1'-0"
140
1.5
141
12.0
290
     0
  0
SCALE
  5
56
102
{ACAD_REACTORS
330
47
102
}
330
47
100
AcDbScale
 70
     0
300
3" = 1'-0"
140
3.0
141
12.0
290
     0
  0
SCALE
  5
57
102
{ACAD_REACTORS
330
47
102
}
330
47
100
AcDbScale
 70
     0
300
6" = 1'-0"
140
6.0
141
12.0
290
     0
  0
SCALE
  5
58
102
{ACAD_REACTORS
330
47
102
}
330
47
100
AcDbScale
 70
     0
300
1'-0" = 1'-0"
140
12.0
141
12.0
290
     0
  0
ENDSEC
  0
EOF
