  0
SECTION
  2
HEADER
  9
$ACADVER
  1
AC1015
  9
$ACADMAINTVER
 70
     6
  9
$DWGCODEPAGE
  3
ANSI_1252
  9
$INSBASE
 10
0.0
 20
0.0
 30
0.0
  9
$EXTMIN
 10
-6.6169680295
 20
-2.3756495706
 30
0.0
  9
$EXTMAX
 10
11.2120787971
 20
8.5565654236
 30
0.0
  9
$LIMMIN
 10
0.0
 20
0.0
  9
$LIMMAX
 10
12.0
 20
9.0
  9
$ORTHOMODE
 70
     0
  9
$REGENMODE
 70
     1
  9
$FILLMODE
 70
     1
  9
$QTEXTMODE
 70
     0
  9
$MIRRTEXT
 70
     1
  9
$LTSCALE
 40
1.0
  9
$ATTMODE
 70
     1
  9
$TEXTSIZE
 40
0.125
  9
$TRACEWID
 40
0.05
  9
$TEXTSTYLE
  7
Standard
  9
$CLAYER
  8
0
  9
$CELTYPE
  6
ByLayer
  9
$CECOLOR
 62
   256
  9
$CELTSCALE
 40
1.0
  9
$DISPSILH
 70
     0
  9
$DIMSCALE
 40
1.0
  9
$DIMASZ
 40
0.13
  9
$DIMEXO
 40
0.0
  9
$DIMDLI
 40
0.38
  9
$DIMRND
 40
0.0
  9
$DIMDLE
 40
0.0
  9
$DIMEXE
 40
0.125
  9
$DIMTP
 40
0.0
  9
$DIMTM
 40
0.0
  9
$DIMTXT
 40
0.125
  9
$DIMCEN
 40
0.09
  9
$DIMTSZ
 40
0.0
  9
$DIMTOL
 70
     0
  9
$DIMLIM
 70
     0
  9
$DIMTIH
 70
     1
  9
$DIMTOH
 70
     1
  9
$DIMSE1
 70
     0
  9
$DIMSE2
 70
     0
  9
$DIMTAD
 70
     0
  9
$DIMZIN
 70
     0
  9
$DIMBLK
  1

  9
$DIMASO
 70
     1
  9
$DIMSHO
 70
     1
  9
$DIMPOST
  1

  9
$DIMAPOST
  1

  9
$DIMALT
 70
     0
  9
$DIMALTD
 70
     2
  9
$DIMALTF
 40
25.4
  9
$DIMLFAC
 40
1.0
  9
$DIMTOFL
 70
     0
  9
$DIMTVP
 40
0.0
  9
$DIMTIX
 70
     0
  9
$DIMSOXD
 70
     0
  9
$DIMSAH
 70
     0
  9
$DIMBLK1
  1

  9
$DIMBLK2
  1

  9
$DIMSTYLE
  2
Standard
  9
$DIMCLRD
 70
     0
  9
$DIMCLRE
 70
     0
  9
$DIMCLRT
 70
     0
  9
$DIMTFAC
 40
1.0
  9
$DIMGAP
 40
0.06
  9
$DIMJUST
 70
     0
  9
$DIMSD1
 70
     0
  9
$DIMSD2
 70
     0
  9
$DIMTOLJ
 70
     1
  9
$DIMTZIN
 70
     0
  9
$DIMALTZ
 70
     0
  9
$DIMALTTZ
 70
     0
  9
$DIMUPT
 70
     0
  9
$DIMDEC
 70
     3
  9
$DIMTDEC
 70
     3
  9
$DIMALTU
 70
     2
  9
$DIMALTTD
 70
     2
  9
$DIMTXSTY
  7
Standard
  9
$DIMAUNIT
 70
     0
  9
$DIMADEC
 70
     2
  9
$DIMALTRND
 40
0.0
  9
$DIMAZIN
 70
     0
  9
$DIMDSEP
 70
    46
  9
$DIMATFIT
 70
     3
  9
$DIMFRAC
 70
     0
  9
$DIMLDRBLK
  1

  9
$DIMLUNIT
 70
     2
  9
$DIMLWD
 70
    -2
  9
$DIMLWE
 70
    -2
  9
$DIMTMOVE
 70
     0
  9
$LUNITS
 70
     2
  9
$LUPREC
 70
     2
  9
$SKETCHINC
 40
0.1
  9
$FILLETRAD
 40
0.0
  9
$AUNITS
 70
     0
  9
$AUPREC
 70
     2
  9
$MENU
  1
.
  9
$ELEVATION
 40
0.0
  9
$PELEVATION
 40
0.0
  9
$THICKNESS
 40
0.0
  9
$LIMCHECK
 70
     0
  9
$CHAMFERA
 40
0.0
  9
$CHAMFERB
 40
0.0
  9
$CHAMFERC
 40
0.0
  9
$CHAMFERD
 40
0.0
  9
$SKPOLY
 70
     0
  9
$TDCREATE
 40
2460517.412670266
  9
$TDUCREATE
 40
2460517.662670266
  9
$TDUPDATE
 40
2460517.41271206
  9
$TDUUPDATE
 40
2460517.66271206
  9
$TDINDWG
 40
0.0000000116
  9
$TDUSRTIMER
 40
0.0000000116
  9
$USRTIMER
 70
     1
  9
$ANGBASE
 50
0.0
  9
$ANGDIR
 70
     0
  9
$PDMODE
 70
     0
  9
$PDSIZE
 40
-1.0
  9
$PLINEWID
 40
0.0
  9
$SPLFRAME
 70
     0
  9
$SPLINETYPE
 70
     6
  9
$SPLINESEGS
 70
     8
  9
$HANDSEED
  5
1E5
  9
$SURFTAB1
 70
     6
  9
$SURFTAB2
 70
     6
  9
$SURFTYPE
 70
     6
  9
$SURFU
 70
     6
  9
$SURFV
 70
     6
  9
$UCSBASE
  2

  9
$UCSNAME
  2

  9
$UCSORG
 10
0.0
 20
0.0
 30
0.0
  9
$UCSXDIR
 10
1.0
 20
0.0
 30
0.0
  9
$UCSYDIR
 10
0.0
 20
1.0
 30
0.0
  9
$UCSORTHOREF
  2

  9
$UCSORTHOVIEW
 70
     0
  9
$UCSORGTOP
 10
0.0
 20
0.0
 30
0.0
  9
$UCSORGBOTTOM
 10
0.0
 20
0.0
 30
0.0
  9
$UCSORGLEFT
 10
0.0
 20
0.0
 30
0.0
  9
$UCSORGRIGHT
 10
0.0
 20
0.0
 30
0.0
  9
$UCSORGFRONT
 10
0.0
 20
0.0
 30
0.0
  9
$UCSORGBACK
 10
0.0
 20
0.0
 30
0.0
  9
$PUCSBASE
  2

  9
$PUCSNAME
  2

  9
$PUCSORG
 10
0.0
 20
0.0
 30
0.0
  9
$PUCSXDIR
 10
1.0
 20
0.0
 30
0.0
  9
$PUCSYDIR
 10
0.0
 20
1.0
 30
0.0
  9
$PUCSORTHOREF
  2

  9
$PUCSORTHOVIEW
 70
     0
  9
$PUCSORGTOP
 10
0.0
 20
0.0
 30
0.0
  9
$PUCSORGBOTTOM
 10
0.0
 20
0.0
 30
0.0
  9
$PUCSORGLEFT
 10
0.0
 20
0.0
 30
0.0
  9
$PUCSORGRIGHT
 10
0.0
 20
0.0
 30
0.0
  9
$PUCSORGFRONT
 10
0.0
 20
0.0
 30
0.0
  9
$PUCSORGBACK
 10
0.0
 20
0.0
 30
0.0
  9
$USERI1
 70
     0
  9
$USERI2
 70
     0
  9
$USERI3
 70
     0
  9
$USERI4
 70
     0
  9
$USERI5
 70
     0
  9
$USERR1
 40
0.0
  9
$USERR2
 40
0.0
  9
$USERR3
 40
0.0
  9
$USERR4
 40
0.0
  9
$USERR5
 40
0.0
  9
$WORLDVIEW
 70
     1
  9
$SHADEDGE
 70
     3
  9
$SHADEDIF
 70
    70
  9
$TILEMODE
 70
     1
  9
$MAXACTVP
 70
    64
  9
$PINSBASE
 10
0.0
 20
0.0
 30
0.0
  9
$PLIMCHECK
 70
     0
  9
$PEXTMIN
 10
1.0000000000E+20
 20
1.0000000000E+20
 30
1.0000000000E+20
  9
$PEXTMAX
 10
-1.0000000000E+20
 20
-1.0000000000E+20
 30
-1.0000000000E+20
  9
$PLIMMIN
 10
0.0
 20
0.0
  9
$PLIMMAX
 10
12.0
 20
9.0
  9
$UNITMODE
 70
     0
  9
$VISRETAIN
 70
     1
  9
$PLINEGEN
 70
     0
  9
$PSLTSCALE
 70
     1
  9
$TREEDEPTH
 70
  3020
  9
$CMLSTYLE
  2
Standard
  9
$CMLJUST
 70
     0
  9
$CMLSCALE
 40
1.0
  9
$PROXYGRAPHICS
 70
     1
  9
$MEASUREMENT
 70
     0
  9
$CELWEIGHT
370
    -1
  9
$ENDCAPS
280
     0
  9
$JOINSTYLE
280
     0
  9
$LWDISPLAY
290
     1
  9
$INSUNITS
 70
     1
  9
$HYPERLINKBASE
  1

  9
$STYLESHEET
  1

  9
$XEDIT
290
     1
  9
$CEPSNTYPE
380
     0
  9
$PSTYLEMODE
290
     1
  9
$FINGERPRINTGUID
  2
{0cc11c35-10dd-4283-ad13-2dc48d71893b}
  9
$VERSIONGUID
  2
{FAEB1C32-E019-11D5-929B-00C0DF256EC4}
  9
$EXTNAMES
290
     1
  9
$PSVPSCALE
 40
0.0
  9
$OLESTARTUP
290
     0
  0
ENDSEC
  0
SECTION
  2
CLASSES
  0
CLASS
  1
ACDBDICTIONARYWDFLT
  2
AcDbDictionaryWithDefault
  3
ObjectDBX Classes
 90
        0
280
     0
281
     0
  0
CLASS
  1
VISUALSTYLE
  2
AcDbVisualStyle
  3
ObjectDBX Classes
 90
     4095
280
     0
281
     0
  0
CLASS
  1
MATERIAL
  2
AcDbMaterial
  3
ObjectDBX Classes
 90
     1153
280
     0
281
     0
  0
CLASS
  1
SCALE
  2
AcDbScale
  3
ObjectDBX Classes
 90
     1153
280
     0
281
     0
  0
CLASS
  1
TABLESTYLE
  2
AcDbTableStyle
  3
ObjectDBX Classes
 90
     4095
280
     0
281
     0
  0
CLASS
  1
MLEADERSTYLE
  2
AcDbMLeaderStyle
  3
ACDB_MLEADERSTYLE_CLASS
 90
     4095
280
     0
281
     0
  0
CLASS
  1
SUN
  2
AcDbSun
  3
SCENEOE
 90
     1153
280
     0
281
     0
  0
CLASS
  1
ACDBPLACEHOLDER
  2
AcDbPlaceHolder
  3
ObjectDBX Classes
 90
        0
280
     0
281
     0
  0
CLASS
  1
LAYOUT
  2
AcDbLayout
  3
ObjectDBX Classes
 90
        0
280
     0
281
     0
  0
ENDSEC
  0
SECTION
  2
TABLES
  0
TABLE
  2
VPORT
  5
8
330
0
100
AcDbSymbolTable
 70
     1
  0
VPORT
  5
29
330
8
100
AcDbSymbolTableRecord
100
AcDbViewportTableRecord
  2
*Active
 70
     0
 10
0.0
 20
0.0
 11
1.0
 21
1.0
 12
2.2975553838
 22
3.0904579265
 13
0.0
 23
0.0
 14
0.5
 24
0.5
 15
0.5
 25
0.5
 16
0.0
 26
0.0
 36
1.0
 17
0.0
 27
0.0
 37
0.0
 40
11.150859294
 41
1.6308723197
 42
50.0
 43
0.0
 44
0.0
 50
0.0
 51
0.0
 71
     0
 72
   100
 73
     1
 74
     3
 75
     0
 76
     0
 77
     0
 78
     0
281
     0
 65
     1
110
0.0
120
0.0
130
0.0
111
1.0
121
0.0
131
0.0
112
0.0
122
1.0
132
0.0
 79
     0
146
0.0
  0
ENDTAB
  0
TABLE
  2
LTYPE
  5
5
330
0
100
AcDbSymbolTable
 70
     6
  0
LTYPE
  5
14
330
5
100
AcDbSymbolTableRecord
100
AcDbLinetypeTableRecord
  2
ByBlock
 70
     0
  3

 72
    65
 73
     0
 40
0.0
  0
LTYPE
  5
15
330
5
100
AcDbSymbolTableRecord
100
AcDbLinetypeTableRecord
  2
ByLayer
 70
     0
  3

 72
    65
 73
     0
 40
0.0
  0
LTYPE
  5
16
330
5
100
AcDbSymbolTableRecord
100
AcDbLinetypeTableRecord
  2
Continuous
 70
     0
  3
Solid line
 72
    65
 73
     0
 40
0.0
  0
LTYPE
  5
5E
330
5
100
AcDbSymbolTableRecord
100
AcDbLinetypeTableRecord
  2
HIDDEN
 70
     0
  3
Hidden __ __ __ __ __ __ __ __ __ __ __ __ __ __
 72
    65
 73
     2
 40
0.075
 49
0.05
 74
     0
 49
-0.025
 74
     0
  0
LTYPE
  5
5F
330
5
100
AcDbSymbolTableRecord
100
AcDbLinetypeTableRecord
  2
PHANTOM
 70
     0
  3
Phantom ______  __  __  ______  __  __  ______
 72
    65
 73
     6
 40
0.5
 49
0.25
 74
     0
 49
-0.05
 74
     0
 49
0.05
 74
     0
 49
-0.05
 74
     0
 49
0.05
 74
     0
 49
-0.05
 74
     0
  0
LTYPE
  5
60
330
5
100
AcDbSymbolTableRecord
100
AcDbLinetypeTableRecord
  2
CENTER
 70
     0
  3
Center ____ _ ____ _ ____ _ ____ _ ____ _ ____
 72
    65
 73
     4
 40
0.4
 49
0.25
 74
     0
 49
-0.05
 74
     0
 49
0.05
 74
     0
 49
-0.05
 74
     0
  0
LTYPE
  5
61
330
5
100
AcDbSymbolTableRecord
100
AcDbLinetypeTableRecord
  2
CENTERX2
 70
     0
  3
Center (2x) ________  __  ________  __  _____
 72
    65
 73
     4
 40
0.8
 49
0.5
 74
     0
 49
-0.1
 74
     0
 49
0.1
 74
     0
 49
-0.1
 74
     0
  0
LTYPE
  5
62
330
5
100
AcDbSymbolTableRecord
100
AcDbLinetypeTableRecord
  2
DOT2
 70
     0
  3
Dot (.5x) ........................................
 72
    65
 73
     2
 40
0.025
 49
0.0
 74
     0
 49
-0.025
 74
     0
  0
ENDTAB
  0
TABLE
  2
LAYER
  5
2
330
0
100
AcDbSymbolTable
 70
     1
  0
LAYER
  5
10
330
2
100
AcDbSymbolTableRecord
100
AcDbLayerTableRecord
  2
0
 70
     0
 62
     7
  6
Continuous
370
    -3
390
F
  0
ENDTAB
  0
TABLE
  2
STYLE
  5
3
330
0
100
AcDbSymbolTable
 70
     1
  0
STYLE
  5
11
330
3
100
AcDbSymbolTableRecord
100
AcDbTextStyleTableRecord
  2
Standard
 70
     0
 40
0.0
 41
1.0
 50
0.0
 71
     0
 42
0.125
  3
txt
  4

  0
ENDTAB
  0
TABLE
  2
VIEW
  5
6
330
0
100
AcDbSymbolTable
 70
     0
  0
ENDTAB
  0
TABLE
  2
UCS
  5
7
330
0
100
AcDbSymbolTable
 70
     0
  0
ENDTAB
  0
TABLE
  2
APPID
  5
9
330
0
100
AcDbSymbolTable
 70
     1
  0
APPID
  5
12
330
9
100
AcDbSymbolTableRecord
100
AcDbRegAppTableRecord
  2
ACAD
 70
     0
  0
ENDTAB
  0
TABLE
  2
DIMSTYLE
  5
A
330
0
100
AcDbSymbolTable
 70
     1
100
AcDbDimStyleTable
  0
DIMSTYLE
105
27
330
A
100
AcDbSymbolTableRecord
100
AcDbDimStyleTableRecord
  2
Standard
 70
     0
178
     0
340
11
  0
ENDTAB
  0
TABLE
  2
BLOCK_RECORD
  5
1
330
0
100
AcDbSymbolTable
 70
     1
  0
BLOCK_RECORD
  5
1F
330
1
100
AcDbSymbolTableRecord
100
AcDbBlockTableRecord
  2
*Model_Space
340
22
  0
BLOCK_RECORD
  5
1B
330
1
100
AcDbSymbolTableRecord
100
AcDbBlockTableRecord
  2
*Paper_Space
340
1E
  0
BLOCK_RECORD
  5
23
330
1
100
AcDbSymbolTableRecord
100
AcDbBlockTableRecord
  2
*Paper_Space0
340
26
  0
ENDTAB
  0
ENDSEC
  0
SECTION
  2
BLOCKS
  0
BLOCK
  5
20
330
1F
100
AcDbEntity
  8
0
100
AcDbBlockBegin
  2
*Model_Space
 70
     0
 10
0.0
 20
0.0
 30
0.0
  3
*Model_Space
  1

  0
ENDBLK
  5
21
330
1F
100
AcDbEntity
  8
0
100
AcDbBlockEnd
  0
BLOCK
  5
1C
330
1B
100
AcDbEntity
 67
     1
  8
0
100
AcDbBlockBegin
  2
*Paper_Space
 70
     0
 10
0.0
 20
0.0
 30
0.0
  3
*Paper_Space
  1

  0
ENDBLK
  5
1D
330
1B
100
AcDbEntity
 67
     1
  8
0
100
AcDbBlockEnd
  0
BLOCK
  5
24
330
23
100
AcDbEntity
  8
0
100
AcDbBlockBegin
  2
*Paper_Space0
 70
     0
 10
0.0
 20
0.0
 30
0.0
  3
*Paper_Space0
  1

  0
ENDBLK
  5
25
330
23
100
AcDbEntity
  8
0
100
AcDbBlockEnd
  0
ENDSEC
  0
SECTION
  2
ENTITIES
  0
SPLINE
  5
63
330
1F
100
AcDbEntity
  8
0
  6
Continuous
 62
     7
370
    25
100
AcDbSpline
210
0.0
220
0.0
230
1.0
 70
     8
 71
     3
 72
    11
 73
     7
 74
     0
 42
0.00000001
 43
0.00000001
 40
0.0
 40
0.0
 40
0.0
 40
0.0
 40
0.2441322532956265
 40
0.5488986783236477
 40
0.867099396373903
 40
1.0
 40
1.0
 40
1.0
 40
1.0
 10
-2.470097702312928
 20
4.601850267306523
 30
0.0
 10
-2.452571434688323
 20
4.602834379656276
 30
0.0
 10
-2.413165968981814
 20
4.605047024486316
 30
0.0
 10
-2.35167506244484
 20
4.621932773418771
 30
0.0
 10
-2.299324906937275
 20
4.643650325685578
 30
0.0
 10
-2.269002151342646
 20
4.660517473207487
 30
0.0
 10
-2.26006865385885
 20
4.665486764981632
 30
0.0
  0
SPLINE
  5
64
330
1F
100
AcDbEntity
  8
0
  6
Continuous
 62
     7
370
    25
100
AcDbSpline
210
0.0
220
0.0
230
1.0
 70
     8
 71
     3
 72
    21
 73
    17
 74
     0
 42
0.00000001
 43
0.00000001
 40
0.0
 40
0.0
 40
0.0
 40
0.0
 40
0.0435437745754972
 40
0.1216295979093357
 40
0.1995017489271789
 40
0.2770738977885777
 40
0.3543576486691468
 40
0.4315519764962198
 40
0.5089209788498105
 40
0.586681682839328
 40
0.6651461901220135
 40
0.744581140843585
 40
0.8250567941958827
 40
0.9058999151712368
 40
0.9758540128048764
 40
1.0
 40
1.0
 40
1.0
 40
1.0
 10
-2.26006865385885
 20
4.665486764981632
 30
0.0
 10
-2.247579896736966
 20
4.673070181409643
 30
0.0
 10
-2.212695403558991
 20
4.694252724721744
 30
0.0
 10
-2.157847573532417
 20
4.736943504121612
 30
0.0
 10
-2.097376393172291
 20
4.795121277498221
 30
0.0
 10
-2.041882968899762
 20
4.86077009136402
 30
0.0
 10
-1.992219716930612
 20
4.93232134142089
 30
0.0
 10
-1.949219794373687
 20
5.008462912841162
 30
0.0
 10
-1.913650045118185
 20
5.087856339061219
 30
0.0
 10
-1.886257381166211
 20
5.169228260750281
 30
0.0
 10
-1.867773077541906
 20
5.251372641444995
 30
0.0
 10
-1.859089155645563
 20
5.333071253670504
 30
0.0
 10
-1.860884286685363
 20
5.413080805736442
 30
0.0
 10
-1.874528169277229
 20
5.485818257404051
 30
0.0
 10
-1.891325920613907
 20
5.538514702351857
 30
0.0
 10
-1.906087966725492
 20
5.563593371651065
 30
0.0
 10
-1.909875892921656
 20
5.570028532988819
 30
0.0
  0
SPLINE
  5
6A
330
1F
100
AcDbEntity
  8
0
  6
Continuous
 62
     7
370
    25
100
AcDbSpline
210
0.0
220
0.0
230
1.0
 70
     8
 71
     3
 72
    10
 73
     6
 74
     0
 42
0.00000001
 43
0.00000001
 40
0.0
 40
0.0
 40
0.0
 40
0.0
 40
0.1416770672072298
 40
0.6696465343434808
 40
1.0
 40
1.0
 40
1.0
 40
1.0
 10
-2.759548707895574
 20
4.735672333942232
 30
0.0
 10
-2.755607594551575
 20
4.732953218990398
 30
0.0
 10
-2.736979647599482
 20
4.720101132623356
 30
0.0
 10
-2.704206026429288
 20
4.709037734780088
 30
0.0
 10
-2.674531922131
 20
4.705995531976878
 30
0.0
 10
-2.663110879047256
 20
4.704824641393772
 30
0.0
  0
SPLINE
  5
6B
330
1F
100
AcDbEntity
  8
0
  6
Continuous
 62
     7
370
    25
100
AcDbSpline
210
0.0
220
0.0
230
1.0
 70
     8
 71
     3
 72
    10
 73
     6
 74
     0
 42
0.00000001
 43
0.00000001
 40
0.0
 40
0.0
 40
0.0
 40
0.0
 40
0.2811232863799675
 40
0.7537723578356222
 40
1.0
 40
1.0
 40
1.0
 40
1.0
 10
-2.093575260253597
 20
5.683647088133214
 30
0.0
 10
-2.099938153832783
 20
5.693004447650149
 30
0.0
 10
-2.116998900943419
 20
5.718094218892586
 30
0.0
 10
-2.146961821648142
 20
5.744228888517029
 30
0.0
 10
-2.17219989966587
 20
5.756331993100996
 30
0.0
 10
-2.180844375589664
 20
5.760477514646087
 30
0.0
  0
SPLINE
  5
6E
330
1F
100
AcDbEntity
  8
0
  6
Continuous
 62
     7
370
    25
100
AcDbSpline
210
0.0
220
0.0
230
1.0
 70
     8
 71
     3
 72
    15
 73
    11
 74
     0
 42
0.00000001
 43
0.00000001
 40
0.0
 40
0.0
 40
0.0
 40
0.0
 40
0.089684368860934
 40
0.2409811196521596
 40
0.392083563213751
 40
0.5427741819216346
 40
0.6928703789051825
 40
0.8422809077181047
 40
0.9912080790256327
 40
1.0
 40
1.0
 40
1.0
 40
1.0
 10
-2.644951340790621
 20
5.322013096040513
 30
0.0
 10
-2.638554910121411
 20
5.334219860263868
 30
0.0
 10
-2.621367756506789
 20
5.367019329638909
 30
0.0
 10
-2.586701551473108
 20
5.416390320193887
 30
0.0
 10
-2.543178742199393
 20
5.468149920404593
 30
0.0
 10
-2.496469000987556
 20
5.512151368754602
 30
0.0
 10
-2.448430765978183
 20
5.5475801884963
 30
0.0
 10
-2.401356494216081
 20
5.57195022850693
 30
0.0
 10
-2.369312360987736
 20
5.584446678061061
 30
0.0
 10
-2.354888515845306
 20
5.585950862175584
 30
0.0
 10
-2.354084470470684
 20
5.586034711680893
 30
0.0
  0
SPLINE
  5
6F
330
1F
100
AcDbEntity
  8
0
  6
Continuous
 62
     7
370
    25
100
AcDbSpline
210
0.0
220
0.0
230
1.0
 70
     8
 71
     3
 72
    14
 73
    10
 74
     0
 42
0.00000001
 43
0.00000001
 40
0.0
 40
0.0
 40
0.0
 40
0.0
 40
0.069557737753173
 40
0.2421944159380053
 40
0.4137647727408423
 40
0.5853255660797327
 40
0.7573041465870478
 40
0.9297147138250648
 40
1.0
 40
1.0
 40
1.0
 40
1.0
 10
-2.705587074631693
 20
4.98593958902292
 30
0.0
 10
-2.707544023233992
 20
4.991511254731678
 30
0.0
 10
-2.714357959958561
 20
5.010911344006038
 30
0.0
 10
-2.718038336335613
 20
5.053011305193124
 30
0.0
 10
-2.716009348270385
 20
5.109587853909849
 30
0.0
 10
-2.705233520914622
 20
5.170841921463237
 30
0.0
 10
-2.686013630358312
 20
5.233943292403844
 30
0.0
 10
-2.665587168421483
 20
5.285236514996873
 30
0.0
 10
-2.649585470030489
 20
5.313754283619446
 30
0.0
 10
-2.644951340790621
 20
5.322013096040513
 30
0.0
  0
SPLINE
  5
72
330
1F
100
AcDbEntity
  8
0
  6
Continuous
 62
     7
370
    25
100
AcDbSpline
210
0.0
220
0.0
230
1.0
 70
     8
 71
     3
 72
    68
 73
    64
 74
     0
 42
0.00000001
 43
0.00000001
 40
0.0
 40
0.0
 40
0.0
 40
0.0
 40
0.0016375120917292
 40
0.0179581240790203
 40
0.0343243760703503
 40
0.0507024708988271
 40
0.0670455377374743
 40
0.0833262677141576
 40
0.0996832631023526
 40
0.1161186840441339
 40
0.132483778802254
 40
0.1487443018082639
 40
0.1648706163569813
 40
0.1808379889853979
 40
0.1966268753811418
 40
0.2122230144005993
 40
0.2276173633201544
 40
0.241230928347194
 40
0.2556174759541621
 40
0.2701514889830561
 40
0.2848697150489937
 40
0.2997498456471069
 40
0.3147658686364788
 40
0.3298878414505398
 40
0.3450823206867399
 40
0.3603129971529844
 40
0.3755362562058101
 40
0.3907044613030086
 40
0.4058295155751729
 40
0.4217595579279655
 40
0.437904769940878
 40
0.4542720802631926
 40
0.4708591757076617
 40
0.4876596085372025
 40
0.504662486706769
 40
0.5218522671824344
 40
0.5392086241134316
 40
0.5567172695659973
 40
0.5743077680235632
 40
0.5919698839177909
 40
0.60976698549127
 40
0.6276831735386081
 40
0.64570051827088
 40
0.6637989114145314
 40
0.681956362578812
 40
0.7001493528375001
 40
0.7183651152115668
 40
0.7366692150316997
 40
0.7551204449684262
 40
0.773678698552927
 40
0.7923260715442627
 40
0.8110427030400934
 40
0.8298071572819438
 40
0.8485967544529931
 40
0.8673966686785416
 40
0.8862542332741039
 40
0.9051586817606753
 40
0.9240962860510088
 40
0.9429733339847816
 40
0.960971463082433
 40
0.9783209890000569
 40
0.997551886201369
 40
1.0
 40
1.0
 40
1.0
 40
1.0
 10
-6.581789829806903
 20
2.092434910205069
 30
0.0
 10
-6.581029521536237
 20
2.08621510138363
 30
0.0
 10
-6.572691439434815
 20
2.018004247169274
 30
0.0
 10
-6.545127361425987
 20
1.888357202784625
 30
0.0
 10
-6.498257678085197
 20
1.703891057687739
 30
0.0
 10
-6.437874284838428
 20
1.520860998665129
 30
0.0
 10
-6.365808691581629
 20
1.339847205589803
 30
0.0
 10
-6.281584328317163
 20
1.161008149961571
 30
0.0
 10
-6.185488908760181
 20
0.9842256062272919
 30
0.0
 10
-6.0774586074363
 20
0.8097327488710268
 30
0.0
 10
-5.957980898109247
 20
0.6384749580114266
 30
0.0
 10
-5.827765930944976
 20
0.4714412787190214
 30
0.0
 10
-5.687322696180571
 20
0.3091735487004499
 30
0.0
 10
-5.537176005028285
 20
0.1521447047783193
 30
0.0
 10
-5.377868885326775
 20
0.000766656112169
 30
0.0
 10
-5.20990556821028
 20
-0.1446302950713529
 30
0.0
 10
-5.039907664285444
 20
-0.2789733944242941
 30
0.0
 10
-4.865264731717489
 20
-0.405594999916516
 30
0.0
 10
-4.684814440704974
 20
-0.5249363219834442
 30
0.0
 10
-4.490799358364474
 20
-0.6423276321728467
 30
0.0
 10
-4.286000218260029
 20
-0.755802988456048
 30
0.0
 10
-4.070762711144067
 20
-0.8650907156496782
 30
0.0
 10
-3.84574527117306
 20
-0.969756558667557
 30
0.0
 10
-3.61171406768748
 20
-1.069364363785961
 30
0.0
 10
-3.369534950961732
 20
-1.163484099346279
 30
0.0
 10
-3.120184638664275
 20
-1.251679466322209
 30
0.0
 10
-2.864808303731571
 20
-1.333559886643198
 30
0.0
 10
-2.604183943176493
 20
-1.408730762614411
 30
0.0
 10
-2.334455494520237
 20
-1.478641000808994
 30
0.0
 10
-2.054482974958105
 20
-1.543770419060474
 30
0.0
 10
-1.7628484011484
 20
-1.603954376625418
 30
0.0
 10
-1.463425344670407
 20
-1.658242213927941
 30
0.0
 10
-1.156614020431803
 20
-1.706457870437059
 30
0.0
 10
-0.8429353964869195
 20
-1.748427575883119
 30
0.0
 10
-0.5229990684148882
 20
-1.78397727089175
 30
0.0
 10
-0.1975101036936882
 20
-1.812941162592492
 30
0.0
 10
0.1327961916208185
 20
-1.835169031486689
 30
0.0
 10
0.4668307285719732
 20
-1.850514062098594
 30
0.0
 10
0.8035640700892082
 20
-1.858745347631739
 30
0.0
 10
1.142430450541603
 20
-1.859879497981138
 30
0.0
 10
1.483226410118319
 20
-1.853889654623978
 30
0.0
 10
1.82569734246951
 20
-1.840730660128372
 30
0.0
 10
2.169055492237889
 20
-1.820375836841612
 30
0.0
 10
2.512474963417037
 20
-1.792823390145002
 30
0.0
 10
2.855096711174161
 20
-1.758098511960799
 30
0.0
 10
3.196111462578611
 20
-1.716242657129945
 30
0.0
 10
3.535254841894425
 20
-1.667247261555606
 30
0.0
 10
3.872824915136524
 20
-1.611134651785973
 30
0.0
 10
4.208909689155221
 20
-1.547844758872143
 30
0.0
 10
4.543077660450542
 20
-1.477395587541768
 30
0.0
 10
4.874430494549252
 20
-1.399916175615018
 30
0.0
 10
5.202195571875854
 20
-1.31553650813207
 30
0.0
 10
5.525585078402917
 20
-1.22441377940456
 30
0.0
 10
5.843855728234829
 20
-1.126720720215161
 30
0.0
 10
6.156653231843677
 20
-1.022510195958472
 30
0.0
 10
6.463683153807801
 20
-0.911832257253449
 30
0.0
 10
6.764769161012383
 20
-0.7948105466828496
 30
0.0
 10
7.058793674302507
 20
-0.6717389951730709
 30
0.0
 10
7.341087382705088
 20
-0.5449938237937572
 30
0.0
 10
7.606717607992682
 20
-0.4154914412898
 30
0.0
 10
7.865945893748801
 20
-0.2799766254234128
 30
0.0
 10
8.047976881254211
 20
-0.1809323371632978
 30
0.0
 10
8.146574603215978
 20
-0.1244333833754378
 30
0.0
 10
8.157708803187038
 20
-0.1180532090964254
 30
0.0
  0
SPLINE
  5
73
330
1F
100
AcDbEntity
  8
0
  6
Continuous
 62
     7
370
    25
100
AcDbSpline
210
0.0
220
0.0
230
1.0
 70
     8
 71
     3
 72
    29
 73
    25
 74
     0
 42
0.00000001
 43
0.00000001
 40
0.0
 40
0.0
 40
0.0
 40
0.0
 40
0.0313742608207426
 40
0.0877980449540409
 40
0.1381180528173656
 40
0.18681412760485
 40
0.2378883204520393
 40
0.2918193945178311
 40
0.3446857472561735
 40
0.3966136352208608
 40
0.447746079431825
 40
0.498203017670687
 40
0.5472629136509857
 40
0.595600342110079
 40
0.643144696765205
 40
0.6898066959592364
 40
0.7355170740989074
 40
0.780325042679191
 40
0.8243376084542374
 40
0.8679923844237494
 40
0.9112241752136983
 40
0.9539496998460052
 40
0.996105439222801
 40
1.0
 40
1.0
 40
1.0
 40
1.0
 10
-3.281718256925754
 20
6.661429377727721
 30
0.0
 10
-3.336564038929597
 20
6.629538912917528
 30
0.0
 10
-3.49004502327615
 20
6.5402963175618
 30
0.0
 10
-3.725442635489596
 20
6.395406086649412
 30
0.0
 10
-3.984266626494966
 20
6.228818119381017
 30
0.0
 10
-4.224967345198595
 20
6.063229596996252
 30
0.0
 10
-4.463278586101032
 20
5.889834471337756
 30
0.0
 10
-4.698620017712626
 20
5.707238373630519
 30
0.0
 10
-4.924928787465123
 20
5.519131310824145
 30
0.0
 10
-5.136706523326397
 20
5.329966906229838
 30
0.0
 10
-5.334454890587801
 20
5.139599290259779
 30
0.0
 10
-5.517574416169431
 20
4.948719822929202
 30
0.0
 10
-5.685941987050762
 20
4.757574157195775
 30
0.0
 10
-5.839681240917921
 20
4.566632814729569
 30
0.0
 10
-5.979348669191245
 20
4.375480923151735
 30
0.0
 10
-6.104724550746229
 20
4.184678050310585
 30
0.0
 10
-6.215758054446773
 20
3.994655066892976
 30
0.0
 10
-6.312489720639377
 20
3.80551449075867
 30
0.0
 10
-6.395449985500157
 20
3.616951471085237
 30
0.0
 10
-6.46507189793712
 20
3.428577517527218
 30
0.0
 10
-6.522006070302864
 20
3.240306760035237
 30
0.0
 10
-6.564423706675852
 20
3.052652979523014
 30
0.0
 10
-6.588544928606765
 20
2.921996303259749
 30
0.0
 10
-6.594740921655831
 20
2.853836941724413
 30
0.0
 10
-6.595264928479326
 20
2.84807257590819
 30
0.0
  0
SPLINE
  5
74
330
1F
100
AcDbEntity
  8
0
  6
Continuous
 62
     7
370
    25
100
AcDbSpline
210
0.0
220
0.0
230
1.0
 70
     8
 71
     3
 72
    61
 73
    57
 74
     0
 42
0.00000001
 43
0.00000001
 40
0.0
 40
0.0
 40
0.0
 40
0.0
 40
0.0113004340331217
 40
0.0265708488851738
 40
0.0440042630474201
 40
0.0651568283257004
 40
0.0884334844999592
 40
0.110887946840712
 40
0.132819628680044
 40
0.1545549237131113
 40
0.176142518436367
 40
0.1975953860658936
 40
0.218929318294315
 40
0.2401610390639451
 40
0.2613114457784584
 40
0.2819707818804459
 40
0.3026491523363137
 40
0.3233371086223374
 40
0.343998805156124
 40
0.3646082463486641
 40
0.3851411002153444
 40
0.4055751513660261
 40
0.4258906969836527
 40
0.4460708718176865
 40
0.4661018980807464
 40
0.4859732598770564
 40
0.5056787397803637
 40
0.525382489139361
 40
0.5451243313120334
 40
0.5644412558959362
 40
0.5833961449058017
 40
0.6020533298933854
 40
0.6204752775079376
 40
0.6386714443126509
 40
0.6562667254320429
 40
0.6734677932972496
 40
0.6903089508720629
 40
0.7068173857327439
 40
0.7230246604235228
 40
0.738966204131919
 40
0.7546814823776371
 40
0.770249496850821
 40
0.786118450319361
 40
0.8022288067372635
 40
0.818599704411966
 40
0.8352448643068523
 40
0.8521728409155405
 40
0.8693864037640612
 40
0.8868812925282785
 40
0.9046655198600664
 40
0.9226578706366141
 40
0.9407332346162783
 40
0.9589170159052782
 40
0.977232788385798
 40
0.99570202775129
 40
1.0
 40
1.0
 40
1.0
 40
1.0
 10
7.40648856911598
 20
0.572466285535169
 30
0.0
 10
7.363851081096333
 20
0.5483046339689919
 30
0.0
 10
7.263597033535608
 20
0.4914930468476984
 30
0.0
 10
7.08859612691387
 20
0.40253656108175
 30
0.0
 10
6.869197822991343
 20
0.2966292790941277
 30
0.0
 10
6.612491592994829
 20
0.177923185681741
 30
0.0
 10
6.327452448355399
 20
0.0550586912894322
 30
0.0
 10
6.031560052704458
 20
-0.0634062305693978
 30
0.0
 10
5.73526381638078
 20
-0.1731464396848042
 30
0.0
 10
5.436274005769659
 20
-0.2754371008592134
 30
0.0
 10
5.133265853745707
 20
-0.3708025009772586
 30
0.0
 10
4.826324858903592
 20
-0.4592718795802067
 30
0.0
 10
4.515664627925924
 20
-0.5407976990573357
 30
0.0
 10
4.201502529132482
 20
-0.6154176059243565
 30
0.0
 10
3.886033910938822
 20
-0.6824426420037478
 30
0.0
 10
3.56911903042818
 20
-0.7419404276087853
 30
0.0
 10
3.250910811878119
 20
-0.794179087206882
 30
0.0
 10
2.929486631899561
 20
-0.8395043270365747
 30
0.0
 10
2.605670642615975
 20
-0.8777947075724912
 30
0.0
 10
2.280374301222967
 20
-0.9089430353682094
 30
0.0
 10
1.954450328018924
 20
-0.9328805629638334
 30
0.0
 10
1.628726920581593
 20
-0.9495682666469232
 30
0.0
 10
1.303999831523093
 20
-0.9589953208446951
 30
0.0
 10
0.9810243218342746
 20
-0.9611792100576904
 30
0.0
 10
0.6605117040108234
 20
-0.9561549067731682
 30
0.0
 10
0.3431108693233634
 20
-0.9440024847626237
 30
0.0
 10
0.028552612923776
 20
-0.9246755055452378
 30
0.0
 10
-0.2838337052610637
 20
-0.8986622232922536
 30
0.0
 10
-0.5921373663147511
 20
-0.8657745700374327
 30
0.0
 10
-0.8939229253928224
 20
-0.8261754001310805
 30
0.0
 10
-1.186961511679398
 20
-0.7802546803287667
 30
0.0
 10
-1.471769256086468
 20
-0.728081390830906
 30
0.0
 10
-1.748584222321591
 20
-0.6697478189345292
 30
0.0
 10
-2.015471061414039
 20
-0.60585178300896
 30
0.0
 10
-2.271109577678833
 20
-0.5367121795820124
 30
0.0
 10
-2.514523218536145
 20
-0.4629050507064832
 30
0.0
 10
-2.746599066761443
 20
-0.3843846806247982
 30
0.0
 10
-2.967381227984572
 20
-0.3013357776148705
 30
0.0
 10
-3.176900555406177
 20
-0.2139310168511018
 30
0.0
 10
-3.375273191600965
 20
-0.1223299169403024
 30
0.0
 10
-3.5626522618415
 20
-0.0265415391633791
 30
0.0
 10
-3.741270098979446
 20
0.0741718751304779
 30
0.0
 10
-3.912717720128372
 20
0.1803375037239539
 30
0.0
 10
-4.077954935234565
 20
0.2927109245941135
 30
0.0
 10
-4.236394728577118
 20
0.4110335762626452
 30
0.0
 10
-4.387691857217145
 20
0.53521045550679
 30
0.0
 10
-4.531459235464092
 20
0.6651029721142209
 30
0.0
 10
-4.667266026178043
 20
0.8005119334413738
 30
0.0
 10
-4.794703569174105
 20
0.9412738288575426
 30
0.0
 10
-4.913273970445188
 20
1.086889964461612
 30
0.0
 10
-5.021902946673428
 20
1.236578127211298
 30
0.0
 10
-5.119767127829479
 20
1.389621618997897
 30
0.0
 10
-5.206795943652108
 20
1.545515270032025
 30
0.0
 10
-5.281642550059779
 20
1.704319486434937
 30
0.0
 10
-5.331464354437147
 20
1.823831971280846
 30
0.0
 10
-5.352554828301413
 20
1.890677329015514
 30
0.0
 10
-5.356536267614966
 20
1.903296331173841
 30
0.0
  0
SPLINE
  5
75
330
1F
100
AcDbEntity
  8
0
  6
Continuous
 62
     7
370
    25
100
AcDbSpline
210
0.0
220
0.0
230
1.0
 70
     8
 71
     3
 72
    76
 73
    72
 74
     0
 42
0.00000001
 43
0.00000001
 40
0.0
 40
0.0
 40
0.0
 40
0.0
 40
0.0110918009548841
 40
0.0247600194430987
 40
0.0434933622122502
 40
0.0581359711572781
 40
0.0707557335025441
 40
0.0885026676140201
 40
0.1065459130224654
 40
0.1224769899322157
 40
0.1393432748717157
 40
0.1590657561469101
 40
0.1717758768781148
 40
0.1842443233641325
 40
0.1970598271663332
 40
0.2087951190406842
 40
0.2196549025765722
 40
0.2322975595110562
 40
0.2607339394392634
 40
0.2881459168021095
 40
0.3128358389076504
 40
0.3369883970362844
 40
0.3618169265809211
 40
0.3980890023214039
 40
0.4328810350100716
 40
0.4678230991242922
 40
0.4812901713757449
 40
0.4943571389755212
 40
0.5071635395607667
 40
0.52056586478543
 40
0.5365633647042234
 40
0.5540970898481593
 40
0.5683213846895772
 40
0.5802230884841072
 40
0.58978445801194
 40
0.5987232268765065
 40
0.6084335635853633
 40
0.6212167978911177
 40
0.6344415821792652
 40
0.6444269286814385
 40
0.6520151609319641
 40
0.6616919924713457
 40
0.6736132540257472
 40
0.6857940306711146
 40
0.6978694493794164
 40
0.7085267699987087
 40
0.7176354485661313
 40
0.7267102673479698
 40
0.7341539959576862
 40
0.7423347647248123
 40
0.7514353011227298
 40
0.76057308722778
 40
0.7677096573102328
 40
0.7758179319043543
 40
0.7889544442113335
 40
0.8039094462285514
 40
0.8156535062095966
 40
0.8252052595702971
 40
0.8336047006631134
 40
0.8427281645633985
 40
0.8549756460463832
 40
0.8683240914693998
 40
0.8813811936541528
 40
0.8923786308892521
 40
0.902603054377802
 40
0.915559934092505
 40
0.9305982954202655
 40
0.9457995840697642
 40
0.9677728347263043
 40
0.9889413373789097
 40
1.0
 40
1.0
 40
1.0
 40
1.0
 10
-4.565736141584051
 20
-0.5952637710855226
 30
0.0
 10
-4.534201485627481
 20
-0.6228452190174731
 30
0.0
 10
-4.463807264004495
 20
-0.6844147684388583
 30
0.0
 10
-4.335915548380583
 20
-0.7886108020998398
 30
0.0
 10
-4.193769877096769
 20
-0.8974958994727817
 30
0.0
 10
-4.05088192367048
 20
-0.99975793480367
 30
0.0
 10
-3.909222963999359
 20
-1.096008078839741
 30
0.0
 10
-3.75421952547097
 20
-1.195522149151647
 30
0.0
 10
-3.58692449834452
 20
-1.296376591803795
 30
0.0
 10
-3.420402610714586
 20
-1.391232410612123
 30
0.0
 10
-3.247522430498737
 20
-1.484666095008571
 30
0.0
 10
-3.083791770743527
 20
-1.568317801177754
 30
0.0
 10
-2.933820805651696
 20
-1.641382510171393
 30
0.0
 10
-2.806212815746357
 20
-1.701314382946516
 30
0.0
 10
-2.683435388047282
 20
-1.757020844505243
 30
0.0
 10
-2.558462890898273
 20
-1.811781192792475
 30
0.0
 10
-2.4274364812977
 20
-1.867525814118205
 30
0.0
 10
-2.235555689313615
 20
-1.943682448661775
 30
0.0
 10
-1.985201487112716
 20
-2.030685308709185
 30
0.0
 10
-1.681873834871667
 20
-2.118562090908843
 30
0.0
 10
-1.388996664666035
 20
-2.188780344356263
 30
0.0
 10
-1.101775622326232
 20
-2.245496919105889
 30
0.0
 10
-0.7658785395019034
 20
-2.298769425388886
 30
0.0
 10
-0.3845269866419953
 20
-2.342329585099582
 30
0.0
 10
0.039339088500254
 20
-2.371191704245131
 30
0.0
 10
0.3729685455595605
 20
-2.380033555335286
 30
0.0
 10
0.6195225852312233
 20
-2.37998037407484
 30
0.0
 10
0.7772830203611938
 20
-2.377686961453303
 30
0.0
 10
0.9347151675743332
 20
-2.373237275385053
 30
0.0
 10
1.103730396557604
 20
-2.366172839249813
 30
0.0
 10
1.291372729100452
 20
-2.355570888260466
 30
0.0
 10
1.481681300313491
 20
-2.341740839382998
 30
0.0
 10
1.654806390915654
 20
-2.326618938303378
 30
0.0
 10
1.79588184093107
 20
-2.312647073716776
 30
0.0
 10
1.91537752286238
 20
-2.299696676657693
 30
0.0
 10
2.025749625962054
 20
-2.28686940740636
 30
0.0
 10
2.147637986390901
 20
-2.27176352484808
 30
0.0
 10
2.2844122123461
 20
-2.253586027748459
 30
0.0
 10
2.421186821409482
 20
-2.234056122043191
 30
0.0
 10
2.537215844203117
 20
-2.216504386398736
 30
0.0
 10
2.637107869579928
 20
-2.200785889978709
 30
0.0
 10
2.740415659978194
 20
-2.183950320471121
 30
0.0
 10
2.857537436691579
 20
-2.164119282100311
 30
0.0
 10
2.983390272343686
 20
-2.141989542001012
 30
0.0
 10
3.102104033727364
 20
-2.120326798191388
 30
0.0
 10
3.217459995669826
 20
-2.098855163900244
 30
0.0
 10
3.331687677704985
 20
-2.076109409506635
 30
0.0
 10
3.432036122514962
 20
-2.054743207644661
 30
0.0
 10
3.528691415136457
 20
-2.03308737505255
 30
0.0
 10
3.624984892537839
 20
-2.010487263880228
 30
0.0
 10
3.727355158597598
 20
-1.985288544499159
 30
0.0
 10
3.825234763213064
 20
-1.960033232666985
 30
0.0
 10
3.919666428272533
 20
-1.934685799436278
 30
0.0
 10
4.02933694242084
 20
-1.904187492521198
 30
0.0
 10
4.168616923872063
 20
-1.863621178010192
 30
0.0
 10
4.321066274278635
 20
-1.816647193585893
 30
0.0
 10
4.459329092657362
 20
-1.771887951889946
 30
0.0
 10
4.572207428843181
 20
-1.733970234700479
 30
0.0
 10
4.67480368606511
 20
-1.698469275030084
 30
0.0
 10
4.787277884747879
 20
-1.658455351866031
 30
0.0
 10
4.917970712770583
 20
-1.610429460508042
 30
0.0
 10
5.062821936906313
 20
-1.555207226183315
 30
0.0
 10
5.202328419792052
 20
-1.500073512508538
 30
0.0
 10
5.329622464347502
 20
-1.448159096363035
 30
0.0
 10
5.456048722946158
 20
-1.395195443904233
 30
0.0
 10
5.596809046853971
 20
-1.334525636231571
 30
0.0
 10
5.755031310025489
 20
-1.263999256816925
 30
0.0
 10
5.94513869556035
 20
-1.176295932537311
 30
0.0
 10
6.155817577669882
 20
-1.074586182702916
 30
0.0
 10
6.350076607575559
 20
-0.9771674760152612
 30
0.0
 10
6.463959730504147
 20
-0.9160562043521656
 30
0.0
 10
6.503038409128461
 20
-0.8950860405189978
 30
0.0
  0
SPLINE
  5
77
330
1F
100
AcDbEntity
  8
0
  6
Continuous
 62
     7
370
    25
100
AcDbSpline
210
0.0
220
0.0
230
1.0
 70
     8
 71
     3
 72
    68
 73
    64
 74
     0
 42
0.00000001
 43
0.00000001
 40
0.0
 40
0.0
 40
0.0
 40
0.0
 40
0.0000154370236374
 40
0.0173897388740211
 40
0.0346480003522051
 40
0.051790718341014
 40
0.0688199715986394
 40
0.0857702637809921
 40
0.1024897793038779
 40
0.1190629270672368
 40
0.135444610688999
 40
0.151599528397773
 40
0.16750050416403
 40
0.1831282587582729
 40
0.1985170934765569
 40
0.2135032510304316
 40
0.2285888418513036
 40
0.2436083135046493
 40
0.2585170497401843
 40
0.2732758583863451
 40
0.287851550952527
 40
0.3022147172265067
 40
0.3165657283924785
 40
0.3314913077754047
 40
0.3466151136142701
 40
0.3619405008906416
 40
0.3774640531388699
 40
0.3931785571835344
 40
0.4090728043849891
 40
0.4251315048848908
 40
0.4413353039432597
 40
0.4576609154527507
 40
0.4740813847120744
 40
0.4905664877887167
 40
0.5070832680796084
 40
0.5235915668880643
 40
0.5400972145327113
 40
0.556418400844581
 40
0.5727820816651531
 40
0.5891849098240725
 40
0.6055779297475442
 40
0.6219103202685187
 40
0.638141599935893
 40
0.6542437659965904
 40
0.6706335532135748
 40
0.6872859450337567
 40
0.7041477935850656
 40
0.7212292832004797
 40
0.7385375489948162
 40
0.7560745103404815
 40
0.7737921628830489
 40
0.7920274766501858
 40
0.8104668368076978
 40
0.8291435422642854
 40
0.8480878966393819
 40
0.867329952311374
 40
0.8868994601572756
 40
0.9068258358955267
 40
0.9271381175441878
 40
0.9478649126578182
 40
0.9690343334771446
 40
0.9906443504195656
 40
1.0
 40
1.0
 40
1.0
 40
1.0
 10
11.18816831139156
 20
4.480358190042665
 30
0.0
 10
11.18816307436355
 20
4.480416901068576
 30
0.0
 10
11.18226358545727
 20
4.546554612170692
 30
0.0
 10
11.15917153577686
 20
4.677904971318619
 30
0.0
 10
11.1179603572473
 20
4.873528631433651
 30
0.0
 10
11.06308315549566
 20
5.066636830072028
 30
0.0
 10
10.99664493463753
 20
5.25709138782023
 30
0.0
 10
10.91827501648651
 20
5.444292003202878
 30
0.0
 10
10.82839648667421
 20
5.627652564127826
 30
0.0
 10
10.72750971899247
 20
5.806577435287363
 30
0.0
 10
10.61589014968477
 20
5.980820959958886
 30
0.0
 10
10.49409455681119
 20
6.149761025301725
 30
0.0
 10
10.3626541679792
 20
6.3128818348067
 30
0.0
 10
10.2220999535205
 20
6.469901261301684
 30
0.0
 10
10.07290994901091
 20
6.620154753983616
 30
0.0
 10
9.914757630087964
 20
6.764431224820321
 30
0.0
 10
9.747634294051643
 20
6.903284551896525
 30
0.0
 10
9.570762385177098
 20
7.037365268437227
 30
0.0
 10
9.385457656321138
 20
7.165722461811203
 30
0.0
 10
9.1926039102703
 20
7.287818521153937
 30
0.0
 10
8.993146558462154
 20
7.403233835168944
 30
0.0
 10
8.786762446692324
 20
7.51202559089927
 30
0.0
 10
8.571042120840517
 20
7.616230611225329
 30
0.0
 10
8.34416089169117
 20
7.716720235044534
 30
0.0
 10
8.105156842814662
 20
7.813562235300926
 30
0.0
 10
7.856269335186267
 20
7.905689419283309
 30
0.0
 10
7.597867961658688
 20
7.992863487004197
 30
0.0
 10
7.330415723371121
 20
8.074832398709997
 30
0.0
 10
7.054459583964491
 20
8.151335523830081
 30
0.0
 10
6.770634807074192
 20
8.222109370771083
 30
0.0
 10
6.479667315300722
 20
8.286892136001917
 30
0.0
 10
6.182373416967854
 20
8.345429563729821
 30
0.0
 10
5.879656272338557
 20
8.397479951761765
 30
0.0
 10
5.572500398934578
 20
8.442823383528134
 30
0.0
 10
5.26199044208921
 20
8.481251650605486
 30
0.0
 10
4.949014617276116
 20
8.512652616387452
 30
0.0
 10
4.635378330708564
 20
8.536722806357751
 30
0.0
 10
4.321258752390785
 20
8.553408654059732
 30
0.0
 10
4.006912517357752
 20
8.562888350626203
 30
0.0
 10
3.69170572581513
 20
8.56517569948898
 30
0.0
 10
3.376789012102277
 20
8.56023588960832
 30
0.0
 10
3.063552724511367
 20
8.54808987712218
 30
0.0
 10
2.753258681958935
 20
8.528763387608317
 30
0.0
 10
2.444180492566618
 20
8.502237784514096
 30
0.0
 10
2.134404982311568
 20
8.468633015922823
 30
0.0
 10
1.822299431742727
 20
8.427591811706167
 30
0.0
 10
1.508778064217143
 20
8.379121312018697
 30
0.0
 10
1.194543909644153
 20
8.323223486076474
 30
0.0
 10
0.8799401032526927
 20
8.259881761744433
 30
0.0
 10
0.5657002030347478
 20
8.18909529325138
 30
0.0
 10
0.2504164153890662
 20
8.110684139282757
 30
0.0
 10
-0.06530202899992
 20
8.024614098997091
 30
0.0
 10
-0.3812354053968372
 20
7.930688554331693
 30
0.0
 10
-0.6955109052669689
 20
7.829345074034109
 30
0.0
 10
-1.008233945293426
 20
7.720458288608484
 30
0.0
 10
-1.3194827216707
 20
7.603898640131618
 30
0.0
 10
-1.629319883537595
 20
7.47952543852157
 30
0.0
 10
-1.937796755799237
 20
7.347194183049024
 30
0.0
 10
-2.244936364746576
 20
7.206735541836264
 30
0.0
 10
-2.550795590036687
 20
7.058041305270596
 30
0.0
 10
-2.855082010641085
 20
6.900813096889403
 30
0.0
 10
-3.098774261981645
 20
6.768131999275344
 30
0.0
 10
-3.240721635001595
 20
6.687501812458789
 30
0.0
 10
-3.283608161595741
 20
6.663141032983758
 30
0.0
  0
SPLINE
  5
78
330
1F
100
AcDbEntity
  8
0
  6
Continuous
 62
     7
370
    25
100
AcDbSpline
210
0.0
220
0.0
230
1.0
 70
     8
 71
     3
 72
    27
 73
    23
 74
     0
 42
0.00000001
 43
0.00000001
 40
0.0
 40
0.0
 40
0.0
 40
0.0
 40
0.0254701153603244
 40
0.0775524301901264
 40
0.1273322713201442
 40
0.179823605534041
 40
0.2342212268620458
 40
0.2887813971342547
 40
0.3434472329276297
 40
0.398155449863765
 40
0.4528228646003738
 40
0.5073788837815347
 40
0.5617604147758576
 40
0.6161121126165602
 40
0.669350566303361
 40
0.7227236447064279
 40
0.7761605575238838
 40
0.8295784536224278
 40
0.8828973502491414
 40
0.9360507944032517
 40
0.9889769622453782
 40
1.0
 40
1.0
 40
1.0
 40
1.0
 10
8.159601783791176
 20
-0.1181822601238641
 30
0.0
 10
8.19922951462443
 20
-0.0951134015571194
 30
0.0
 10
8.319889621010379
 20
-0.0248724144923265
 30
0.0
 10
8.51273727501577
 20
0.0941884375227074
 30
0.0
 10
8.739043215711634
 20
0.2428916879522245
 30
0.0
 10
8.959604931719765
 20
0.3982679386324862
 30
0.0
 10
9.177661049492698
 20
0.5628494192430207
 30
0.0
 10
9.388683361761156
 20
0.7340873877496644
 30
0.0
 10
9.589931293688213
 20
0.9099037013672666
 30
0.0
 10
9.780866495830569
 20
1.08990994114998
 30
0.0
 10
9.961000076436154
 20
1.273679622590065
 30
0.0
 10
10.12985746958436
 20
1.460788128588347
 30
0.0
 10
10.28731337137885
 20
1.650999258837227
 30
0.0
 10
10.43202162506593
 20
1.84316873248716
 30
0.0
 10
10.56410334302264
 20
2.037173309258615
 30
0.0
 10
10.68384534088083
 20
2.232869250789591
 30
0.0
 10
10.7919667693913
 20
2.431340562973981
 30
0.0
 10
10.88805238132762
 20
2.632081470584476
 30
0.0
 10
10.97220374172077
 20
2.834526722561757
 30
0.0
 10
11.04284166017092
 20
3.038293352674417
 30
0.0
 10
11.08864365655766
 20
3.188869369685865
 30
0.0
 10
11.10697604518805
 20
3.271774089067156
 30
0.0
 10
11.1101360314634
 20
3.28606452228284
 30
0.0
  0
SPLINE
  5
79
330
1F
100
AcDbEntity
  8
0
  6
Continuous
 62
     7
370
    25
100
AcDbSpline
210
0.0
220
0.0
230
1.0
 70
     8
 71
     3
 72
    18
 73
    14
 74
     0
 42
0.00000001
 43
0.00000001
 40
0.0
 40
0.0
 40
0.0
 40
0.0
 40
0.0770505811040957
 40
0.1800059904056554
 40
0.2835669779114868
 40
0.3877588183040697
 40
0.4925935309807979
 40
0.597954386966252
 40
0.7038957137517473
 40
0.8123908433353939
 40
0.9051327634638939
 40
0.9844158236357944
 40
1.0
 40
1.0
 40
1.0
 40
1.0
 10
9.248173922426504
 20
2.134004507138013
 30
0.0
 10
9.213095847378325
 20
2.089977209535351
 30
0.0
 10
9.131146255952904
 20
1.98712039526753
 30
0.0
 10
8.988896896662904
 20
1.82836018357882
 30
0.0
 10
8.823517715629995
 20
1.657138134881387
 30
0.0
 10
8.646038842724705
 20
1.488269255100396
 30
0.0
 10
8.457172269183872
 20
1.321937887114215
 30
0.0
 10
8.256932058531893
 20
1.15841536254302
 30
0.0
 10
8.044531556797379
 20
0.996842976272702
 30
0.0
 10
7.831785074823559
 20
0.8450339270568298
 30
0.0
 10
7.630022581430768
 20
0.7102099169890923
 30
0.0
 10
7.491503108758995
 20
0.6220442496859807
 30
0.0
 10
7.417147717168943
 20
0.5801755505237479
 30
0.0
 10
7.40493309409696
 20
0.5732976312788295
 30
0.0
  0
SPLINE
  5
7B
330
1F
100
AcDbEntity
  8
0
  6
Continuous
 62
     7
370
    25
100
AcDbSpline
210
0.0
220
0.0
230
1.0
 70
     8
 71
     3
 72
    14
 73
    10
 74
     0
 42
0.00000001
 43
0.00000001
 40
0.0
 40
0.0
 40
0.0
 40
0.0
 40
0.1130555795548619
 40
0.2787190962035438
 40
0.4446423052283148
 40
0.6104903623898321
 40
0.7779396495203076
 40
0.9533580904997461
 40
0.9999999999999999
 40
0.9999999999999999
 40
0.9999999999999999
 40
0.9999999999999999
 10
-0.9935341786877742
 20
-0.0232690952801352
 30
0.0
 10
-1.006420779600743
 20
-0.0146592153827114
 30
0.0
 10
-1.038190478838415
 20
0.0065669633948385
 30
0.0
 10
-1.077276143060099
 20
0.0407041765787972
 30
0.0
 10
-1.111496911044796
 20
0.0776416503407716
 30
0.0
 10
-1.134602272945604
 20
0.1117681210972641
 30
0.0
 10
-1.147113326003039
 20
0.1425186307443587
 30
0.0
 10
-1.15195847811992
 20
0.1603472095045568
 30
0.0
 10
-1.150619929037923
 20
0.172417041743694
 30
0.0
 10
-1.150338778057978
 20
0.1749522085204958
 30
0.0
  0
SPLINE
  5
7C
330
1F
100
AcDbEntity
  8
0
  6
Continuous
 62
     7
370
    25
100
AcDbSpline
210
0.0
220
0.0
230
1.0
 70
     8
 71
     3
 72
    14
 73
    10
 74
     0
 42
0.00000001
 43
0.00000001
 40
0.0
 40
0.0
 40
0.0
 40
0.0
 40
0.1025092239578889
 40
0.26681805272536
 40
0.4260213521939774
 40
0.5787278690000905
 40
0.7265791630988343
 40
0.8710526382923343
 40
1.0
 40
1.0
 40
1.0
 40
1.0
 10
0.5403081009448223
 20
0.2141973074432536
 30
0.0
 10
0.5403559027777456
 20
0.2029094482184055
 30
0.0
 10
0.5404803246735012
 20
0.173528632507136
 30
0.0
 10
0.5271547976298259
 20
0.1258357385641245
 30
0.0
 10
0.5013472141831254
 20
0.0717474909642511
 30
0.0
 10
0.4635231867703205
 20
0.0197346306267218
 30
0.0
 10
0.4148477378818727
 20
-0.0288552437556794
 30
0.0
 10
0.35876611638501
 20
-0.0723420588100856
 30
0.0
 10
0.3141725476445397
 20
-0.0970628188859535
 30
0.0
 10
0.2931418789384393
 20
-0.1087213187549435
 30
0.0
  0
LWPOLYLINE
  5
7D
330
1F
100
AcDbEntity
  8
0
  6
Continuous
 62
     7
370
    25
100
AcDbPolyline
 90
       27
 70
   128
 43
0.0
 10
-1.909501672
 20
5.571958697
 10
-1.9373041581
 20
5.613769905
 10
-1.976418529
 20
5.6504571619
 10
-2.0229074231
 20
5.6752980357
 10
-2.0756811799
 20
5.6877102775
 10
-2.1335028275
 20
5.6874029547
 10
-2.1950170752
 20
5.6743832707
 10
-2.2587820815
 20
5.648956396
 10
-2.3233032484
 20
5.6117183148
 10
-2.3870682547
 20
5.5635418563
 10
-2.4485825025
 20
5.5055562358
 10
-2.50640415
 20
5.4391205871
 10
-2.5591779068
 20
5.3657921055
 10
-2.6056668009
 20
5.2872895485
 10
-2.6447811718
 20
5.2054529494
 10
-2.675604212
 20
5.1222004888
 10
-2.6974134555
 20
5.0394835338
 10
-2.709697712
 20
4.9592408998
 10
-2.7121690491
 20
4.883353406
 10
-2.7047695406
 20
4.8135997909
 10
-2.6876726249
 20
4.7516150203
 10
-2.6612790391
 20
4.6988519646
 10
-2.6262074264
 20
4.656547345
 10
-2.5832798358
 20
4.6256927461
 10
-2.5335024536
 20
4.6070113734
 10
-2.4780420195
 20
4.6009411026
 10
-2.4711323788
 20
4.6010679139
  0
LWPOLYLINE
  5
7E
330
1F
100
AcDbEntity
  8
0
  6
Continuous
 62
     7
370
    25
100
AcDbPolyline
 90
       38
 70
   128
 43
0.0
 10
-2.2309385886
 20
4.7093873348
 10
-2.1722632902
 20
4.7490191039
 10
-2.1152759733
 20
4.7990459449
 10
-2.0616160592
 20
4.8580286766
 10
-2.0128272461
 20
4.9242704733
 10
-1.9703130991
 20
4.9958656791
 10
-1.935296673
 20
5.0707546302
 10
-1.9087853265
 20
5.1467829079
 10
-1.8915417428
 20
5.2217633171
 10
-1.8840619884
 20
5.2935388078
 10
-1.8865612423
 20
5.36004453
 10
-1.8989676054
 20
5.419367235
 10
-1.9209241692
 20
5.4698003167
 10
-1.9517992835
 20
5.5098929071
 10
-1.9907047273
 20
5.5384916154
 10
-2.036521262
 20
5.5547737088
 10
-2.0879308291
 20
5.5582707811
 10
-2.1434544692
 20
5.548882228
 10
-2.201494868
 20
5.526878141
 10
-2.2603823091
 20
5.4928915376
 10
-2.318422708
 20
5.4479001506
 10
-2.373946348
 20
5.3931983002
 10
-2.4253559151
 20
5.330359659
 10
-2.4711724498
 20
5.2611919804
 10
-2.5100778936
 20
5.1876850926
 10
-2.5409530079
 20
5.1119536548
 10
-2.5629095718
 20
5.0361763226
 10
-2.5753159349
 20
4.962533072
 10
-2.5778151887
 20
4.8931424852
 10
-2.5703354343
 20
4.830000803
 10
-2.5530918506
 20
4.7749244966
 10
-2.5265805041
 20
4.7294980111
 10
-2.491564078
 20
4.6950281838
 10
-2.4490499311
 20
4.6725066489
 10
-2.4002611179
 20
4.6625813099
 10
-2.3466012039
 20
4.6655377007
 10
-2.289613887
 20
4.6812907714
 10
-2.2309385886
 20
4.7093873348
  0
SPLINE
  5
80
330
1F
100
AcDbEntity
  8
0
  6
Continuous
 62
     7
370
    25
100
AcDbSpline
210
0.0
220
0.0
230
1.0
 70
     8
 71
     3
 72
    10
 73
     6
 74
     0
 42
0.00000001
 43
0.00000001
 40
0.0
 40
0.0
 40
0.0
 40
0.0
 40
0.3203673029103526
 40
0.6590485118562374
 40
1.0
 40
1.0
 40
1.0
 40
1.0
 10
-2.497028776086749
 20
5.022880384973078
 30
0.0
 10
-2.433150877918366
 20
5.058765063364544
 30
0.0
 10
-2.30174347976651
 20
5.132585780015373
 30
0.0
 10
-2.115792083770958
 20
5.24018483888653
 30
0.0
 10
-2.000209732397816
 20
5.308706929731459
 30
0.0
 10
-1.942225508165252
 20
5.343082422470909
 30
0.0
  0
SPLINE
  5
82
330
1F
100
AcDbEntity
  8
0
  6
Continuous
 62
     7
370
    25
100
AcDbSpline
210
0.0
220
0.0
230
1.0
 70
     8
 71
     3
 72
    10
 73
     6
 74
     0
 42
0.00000001
 43
0.00000001
 40
0.0
 40
0.0
 40
0.0
 40
0.0
 40
0.3203673023956222
 40
0.6590485110428932
 40
1.0
 40
1.0
 40
1.0
 40
1.0
 10
-1.942225508165251
 20
5.184779597931874
 30
0.0
 10
-1.996529042471578
 20
5.143369087303309
 30
0.0
 10
-2.108240391168319
 20
5.058180820063788
 30
0.0
 10
-2.293997491516796
 20
4.950469509694356
 30
0.0
 10
-2.429201140929595
 20
4.89327167488951
 30
0.0
 10
-2.497028786277176
 20
4.864577224180215
 30
0.0
  0
SPLINE
  5
84
330
1F
100
AcDbEntity
  8
0
  6
Continuous
 62
     7
370
    25
100
AcDbSpline
210
0.0
220
0.0
230
1.0
 70
     8
 71
     3
 72
    10
 73
     6
 74
     0
 42
0.00000001
 43
0.00000001
 40
0.0
 40
0.0
 40
0.0
 40
0.0
 40
0.332487308416023
 40
0.6652074887337477
 40
1.0
 40
1.0
 40
1.0
 40
1.0
 10
-2.492900453152054
 20
5.020816369566607
 30
0.0
 10
-2.427668010829839
 20
5.057639336947782
 30
0.0
 10
-2.297157437816225
 20
5.131311062271824
 30
0.0
 10
-2.113713459854485
 20
5.237215372598035
 30
0.0
 10
-2.001464078849582
 20
5.303629546250458
 30
0.0
 10
-1.94516514606744
 20
5.336939726358054
 30
0.0
  0
SPLINE
  5
86
330
1F
100
AcDbEntity
  8
0
  6
Continuous
 62
     7
370
    25
100
AcDbSpline
210
0.0
220
0.0
230
1.0
 70
     8
 71
     3
 72
    10
 73
     6
 74
     0
 42
0.00000001
 43
0.00000001
 40
0.0
 40
0.0
 40
0.0
 40
0.0
 40
0.3324803424931809
 40
0.6652039930416382
 40
1.0
 40
1.0
 40
1.0
 40
1.0
 10
-1.945165165108293
 20
5.186161041453667
 30
0.0
 10
-2.001055296851344
 20
5.143947763781783
 30
0.0
 10
-2.112876460557775
 20
5.059490316895921
 30
0.0
 10
-2.296299586681169
 20
4.953573765671524
 30
0.0
 10
-2.427231348415288
 20
4.897940617191634
 30
0.0
 10
-2.492900472192603
 20
4.870037684662043
 30
0.0
  0
SPLINE
  5
9D
330
1F
100
AcDbEntity
  8
0
  6
Continuous
 62
     7
370
    25
100
AcDbSpline
210
0.0
220
0.0
230
1.0
 70
     8
 71
     3
 72
    10
 73
     6
 74
     0
 42
0.00000001
 43
0.00000001
 40
0.0
 40
0.0
 40
0.0
 40
0.0
 40
0.4009497430842934
 40
0.8019000921527871
 40
1.0
 40
1.0
 40
1.0
 40
1.0
 10
-2.327752813936591
 20
5.016775573328434
 30
0.0
 10
-2.323416942514241
 20
5.024069003933339
 30
0.0
 10
-2.314745193116425
 20
5.038655876166239
 30
0.0
 10
-2.300189314636596
 20
5.053270373363646
 30
0.0
 10
-2.291210529601943
 20
5.059325104046435
 30
0.0
 10
-2.288241335502766
 20
5.061327342717487
 30
0.0
  0
SPLINE
  5
A4
330
1F
100
AcDbEntity
  8
0
  6
Continuous
 62
     7
370
    25
100
AcDbSpline
210
0.0
220
0.0
230
1.0
 70
     8
 71
     3
 72
     9
 73
     5
 74
     0
 42
0.00000001
 43
0.00000001
 40
0.0
 40
0.0
 40
0.0
 40
0.0
 40
0.4999972589514435
 40
1.0
 40
1.0
 40
1.0
 40
1.0
 10
-2.196504794955719
 20
5.151552189270727
 30
0.0
 10
-2.194023555317351
 20
5.142865125393634
 30
0.0
 10
-2.189061048835673
 20
5.125490902392272
 30
0.0
 10
-2.184183585735025
 20
5.10816566926954
 30
0.0
 10
-2.181744840815337
 20
5.099503005218868
 30
0.0
  0
SPLINE
  5
A6
330
1F
100
AcDbEntity
  8
0
  6
Continuous
 62
     7
370
    25
100
AcDbSpline
210
0.0
220
0.0
230
1.0
 70
     8
 71
     3
 72
    13
 73
     9
 74
     0
 42
0.00000001
 43
0.00000001
 40
0.0
 40
0.0
 40
0.0
 40
0.0
 40
0.2499955747054262
 40
0.374993207554925
 40
0.437492013673184
 40
0.4999908193652494
 40
0.7499861844582084
 40
1.0
 40
1.0
 40
1.0
 40
1.0
 10
-2.196497793657064
 20
5.053551161885496
 30
0.0
 10
-2.198641835542572
 20
5.060443471790392
 30
0.0
 10
-2.201857897045765
 20
5.070781932388126
 30
0.0
 10
-2.20564900806778
 20
5.082866080704115
 30
0.0
 10
-2.207820144729992
 20
5.0897740666768
 30
0.0
 10
-2.211082914616342
 20
5.100139549136307
 30
0.0
 10
-2.215991791405412
 20
5.115696712392958
 30
0.0
 10
-2.220413276732068
 20
5.12955870941555
 30
0.0
 10
-2.222624100972286
 20
5.136489963682216
 30
0.0
  0
SPLINE
  5
A8
330
1F
100
AcDbEntity
  8
0
  6
Continuous
 62
     7
370
    25
100
AcDbSpline
210
0.0
220
0.0
230
1.0
 70
     8
 71
     3
 72
     9
 73
     5
 74
     0
 42
0.00000001
 43
0.00000001
 40
0.0
 40
0.0
 40
0.0
 40
0.0
 40
0.4999878776911995
 40
1.0
 40
1.0
 40
1.0
 40
1.0
 10
-2.141327104273636
 20
5.183747472520309
 30
0.0
 10
-2.145569910363869
 20
5.164841318715638
 30
0.0
 10
-2.154055728279748
 20
5.127028094339132
 30
0.0
 10
-2.162832159098897
 20
5.089381579855502
 30
0.0
 10
-2.167220480899077
 20
5.070557866251014
 30
0.0
  0
SPLINE
  5
B5
330
1F
100
AcDbEntity
  8
0
  6
Continuous
 62
     7
370
    25
100
AcDbSpline
210
0.0
220
0.0
230
1.0
 70
     8
 71
     3
 72
    10
 73
     6
 74
     0
 42
0.00000001
 43
0.00000001
 40
0.0
 40
0.0
 40
0.0
 40
0.0
 40
0.3977057226797336
 40
0.7954073537843943
 40
1.0
 40
1.0
 40
1.0
 40
1.0
 10
-2.108951508449295
 20
5.142487628479392
 30
0.0
 10
-2.104801168524543
 20
5.149884972286609
 30
0.0
 10
-2.096500531373513
 20
5.164679583797566
 30
0.0
 10
-2.082463561324003
 20
5.179771853936992
 30
0.0
 10
-2.073775312240969
 20
5.186094446420908
 30
0.0
 10
-2.070824010962155
 20
5.188242160546607
 30
0.0
  0
LWPOLYLINE
  5
103
330
1F
100
AcDbEntity
  8
0
  6
Continuous
 62
     7
370
    25
100
AcDbPolyline
 90
       22
 70
   128
 43
0.0
 10
-2.1905756299
 20
5.7682758783
 10
-2.220061136
 20
5.7821883406
 10
-2.2723036134
 20
5.7944756269
 10
-2.3295431638
 20
5.7941713979
 10
-2.3904381406
 20
5.7812827846
 10
-2.4535612173
 20
5.7561118851
 10
-2.5174328423
 20
5.7192486839
 10
-2.5805559189
 20
5.6715572233
 10
-2.6414508958
 20
5.6141553507
 10
-2.6986904462
 20
5.5483885172
 10
-2.7509329236
 20
5.4757982418
 10
-2.7969538086
 20
5.398085979
 10
-2.8356744108
 20
5.3170732383
 10
-2.8661871519
 20
5.2346588898
 10
-2.8877768392
 20
5.1527746558
 10
-2.8999374287
 20
5.0733398335
 10
-2.9023838866
 20
4.9982163078
 10
-2.8950588698
 20
4.9291649103
 10
-2.8781340707
 20
4.8678041475
 10
-2.8520061921
 20
4.8155722634
 10
-2.8172876493
 20
4.7736935293
 10
-2.7804184297
 20
4.7462751583
  0
SPLINE
  5
110
330
1F
100
AcDbEntity
  8
0
  6
Continuous
 62
     7
370
    25
100
AcDbSpline
210
0.0
220
0.0
230
1.0
 70
     8
 71
     3
 72
    10
 73
     6
 74
     0
 42
0.00000001
 43
0.00000001
 40
0.0
 40
0.0
 40
0.0
 40
0.0
 40
0.2108132562292457
 40
0.6783379953068853
 40
1.0
 40
1.0
 40
1.0
 40
1.0
 10
-6.591742181547942
 20
2.205082431094384
 30
0.0
 10
-6.597974920887403
 20
2.249387399335143
 30
0.0
 10
-6.618030129864407
 20
2.391948374276349
 30
0.0
 10
-6.61991053561812
 20
2.603204904532741
 30
0.0
 10
-6.600738459598209
 20
2.769234818317908
 30
0.0
 10
-6.592924176786986
 20
2.836906399637166
 30
0.0
  0
SPLINE
  5
112
330
1F
100
AcDbEntity
  8
0
  6
Continuous
 62
     7
370
    25
100
AcDbSpline
210
0.0
220
0.0
230
1.0
 70
     8
 71
     3
 72
     9
 73
     5
 74
     0
 42
0.00000001
 43
0.00000001
 40
0.0
 40
0.0
 40
0.0
 40
0.0
 40
0.5702655659336466
 40
1.0
 40
1.0
 40
1.0
 40
1.0
 10
-6.611662902253326
 20
2.505965736710855
 30
0.0
 10
-6.613340430440035
 20
2.481258075287806
 30
0.0
 10
-6.616282091811372
 20
2.437931486941907
 30
0.0
 10
-6.611315098122819
 20
2.394677455236741
 30
0.0
 10
-6.609180609901056
 20
2.376089708400836
 30
0.0
  0
SPLINE
  5
114
330
1F
100
AcDbEntity
  8
0
  6
Continuous
 62
     7
370
    25
100
AcDbSpline
210
0.0
220
0.0
230
1.0
 70
     8
 71
     3
 72
   112
 73
   108
 74
     0
 42
0.00000001
 43
0.00000001
 40
0.0
 40
0.0
 40
0.0
 40
0.0
 40
0.0156249999999999
 40
0.0156249999999999
 40
0.0312499999999998
 40
0.0312499999999998
 40
0.0624999999999995
 40
0.0624999999999995
 40
0.0937499999999993
 40
0.0937499999999993
 40
0.1249999999999991
 40
0.1249999999999991
 40
0.140624999999999
 40
0.140624999999999
 40
0.1484374999999989
 40
0.1484374999999989
 40
0.1562499999999989
 40
0.1562499999999989
 40
0.1874999999999985
 40
0.1874999999999985
 40
0.2187499999999981
 40
0.2187499999999981
 40
0.2499999999999977
 40
0.2499999999999977
 40
0.2578124999999976
 40
0.2578124999999976
 40
0.2656249999999975
 40
0.2656249999999975
 40
0.2812499999999974
 40
0.2812499999999974
 40
0.3124999999999972
 40
0.3124999999999972
 40
0.3437499999999969
 40
0.3437499999999969
 40
0.3593749999999968
 40
0.3593749999999968
 40
0.3671874999999967
 40
0.3671874999999967
 40
0.3749999999999966
 40
0.3749999999999966
 40
0.4062499999999962
 40
0.4062499999999962
 40
0.4374999999999958
 40
0.4374999999999958
 40
0.4531249999999956
 40
0.4531249999999956
 40
0.4609374999999956
 40
0.4609374999999956
 40
0.4648437499999956
 40
0.4648437499999956
 40
0.4687499999999955
 40
0.4687499999999955
 40
0.4999999999999953
 40
0.4999999999999953
 40
0.5312499999999951
 40
0.5312499999999951
 40
0.5468749999999951
 40
0.5468749999999951
 40
0.554687499999995
 40
0.554687499999995
 40
0.562499999999995
 40
0.562499999999995
 40
0.593749999999995
 40
0.593749999999995
 40
0.624999999999995
 40
0.624999999999995
 40
0.632812499999995
 40
0.632812499999995
 40
0.6406249999999951
 40
0.6406249999999951
 40
0.6562499999999952
 40
0.6562499999999952
 40
0.6874999999999956
 40
0.6874999999999956
 40
0.7187499999999959
 40
0.7187499999999959
 40
0.7265624999999959
 40
0.7265624999999959
 40
0.734374999999996
 40
0.734374999999996
 40
0.7499999999999961
 40
0.7499999999999961
 40
0.7812499999999966
 40
0.7812499999999966
 40
0.812499999999997
 40
0.812499999999997
 40
0.8281249999999972
 40
0.8281249999999972
 40
0.8437499999999974
 40
0.8437499999999974
 40
0.874999999999998
 40
0.874999999999998
 40
0.9062499999999986
 40
0.9062499999999986
 40
0.9374999999999991
 40
0.9374999999999991
 40
0.9531249999999993
 40
0.9531249999999993
 40
0.9609374999999994
 40
0.9609374999999994
 40
0.9687499999999994
 40
0.9687499999999994
 40
0.9843749999999997
 40
0.9843749999999997
 40
0.9921874999999999
 40
0.9921874999999999
 40
1.0
 40
1.0
 40
1.0
 40
1.0
 10
-3.224377265666806
 20
6.661041295677171
 30
0.0
 10
-3.326428861309469
 20
6.602164998432838
 30
0.0
 10
-3.426877907435595
 20
6.542417109554197
 30
0.0
 10
-3.624548648794395
 20
6.421158812896323
 30
0.0
 10
-3.721819944182404
 20
6.359602948728066
 30
0.0
 10
-4.008197541037467
 20
6.17248871419921
 30
0.0
 10
-4.191489100694787
 20
6.044730987265122
 30
0.0
 10
-4.541990409889893
 20
5.782857137171193
 30
0.0
 10
-4.709203537568462
 20
5.648742163411355
 30
0.0
 10
-5.026295361526683
 20
5.37365799833032
 30
0.0
 10
-5.176180770640801
 20
5.232691180669517
 30
0.0
 10
-5.386686447408808
 20
5.015579849161282
 30
0.0
 10
-5.454464599485866
 20
4.942264539155515
 30
0.0
 10
-5.552333050270156
 20
4.830789160152983
 30
0.0
 10
-5.584346832430274
 20
4.793348806716388
 30
0.0
 10
-5.64679985359564
 20
4.718279996176434
 30
0.0
 10
-5.677269241241961
 20
4.680618786303612
 30
0.0
 10
-5.825786097184008
 20
4.491671584970705
 30
0.0
 10
-5.932369946422185
 20
4.338466233171073
 30
0.0
 10
-6.119682219780914
 20
4.027728331593008
 30
0.0
 10
-6.200422243403463
 20
3.87019620231688
 30
0.0
 10
-6.334106172218997
 20
3.550483831624121
 30
0.0
 10
-6.387056735176873
 20
3.388303182156489
 30
0.0
 10
-6.434308255816828
 20
3.182405799746827
 30
0.0
 10
-6.442807485291753
 20
3.141067301209404
 30
0.0
 10
-6.457859230432963
 20
3.058064434606337
 30
0.0
 10
-6.464417536628894
 20
3.016338389826405
 30
0.0
 10
-6.480999165808208
 20
2.891488660100258
 30
0.0
 10
-6.487980302541279
 20
2.808492829943917
 30
0.0
 10
-6.496740462202673
 20
2.56022156921511
 30
0.0
 10
-6.486360694953387
 20
2.395654531595138
 30
0.0
 10
-6.435022904398106
 20
2.068303197346784
 30
0.0
 10
-6.394055147882193
 20
1.90552542822043
 30
0.0
 10
-6.309871379782354
 20
1.662684658941753
 30
0.0
 10
-6.278013834604211
 20
1.581958818035205
 30
0.0
 10
-6.224386651014941
 20
1.461211838647959
 30
0.0
 10
-6.205536644944375
 20
1.42101983321239
 30
0.0
 10
-6.165854037475101
 20
1.34075181069247
 30
0.0
 10
-6.145011866862129
 20
1.300665971070013
 30
0.0
 10
-6.036502528425572
 20
1.10184740818141
 30
0.0
 10
-5.935494815258239
 20
0.9468696244538235
 30
0.0
 10
-5.704911968591797
 20
0.645118940393279
 30
0.0
 10
-5.575353682213077
 20
0.4983399660409811
 30
0.0
 10
-5.358114362121134
 20
0.2847475587700862
 30
0.0
 10
-5.281873724577457
 20
0.2146489277823873
 30
0.0
 10
-5.161444190650431
 20
0.1112441429378851
 30
0.0
 10
-5.120288420038858
 20
0.0770667153385013
 30
0.0
 10
-5.056983766099989
 20
0.0262516582027689
 30
0.0
 10
-5.035620299534562
 20
0.0093885088731323
 30
0.0
 10
-4.99235981495226
 20
-0.0241846249633985
 30
0.0
 10
-4.970449640613514
 20
-0.0409039237810306
 30
0.0
 10
-4.771639447150022
 20
-0.1900627851259798
 30
0.0
 10
-4.582193491781703
 20
-0.3143711450143138
 30
0.0
 10
-4.176893981594
 20
-0.5457917570000401
 30
0.0
 10
-3.960928951098559
 20
-0.6528408683190652
 30
0.0
 10
-3.617717140370217
 20
-0.8008764915874801
 30
0.0
 10
-3.500110881902765
 20
-0.8481376066556301
 30
0.0
 10
-3.318988820291192
 20
-0.9159627396906591
 30
0.0
 10
-3.25782866018272
 20
-0.9380595181586753
 30
0.0
 10
-3.133942627655644
 20
-0.9812338032377838
 30
0.0
 10
-3.071143455118859
 20
-1.002332610756397
 30
0.0
 10
-2.755490559022819
 20
-1.104572592567973
 30
0.0
 10
-2.496146232488457
 20
-1.176571630817028
 30
0.0
 10
-1.965270113563494
 20
-1.303073292029416
 30
0.0
 10
-1.693726328935664
 20
-1.357557847779872
 30
0.0
 10
-1.347150577732394
 20
-1.415404738714175
 30
0.0
 10
-1.277476818549846
 20
-1.426459292252518
 30
0.0
 10
-1.13741782718241
 20
-1.447546774381147
 30
0.0
 10
-1.067019665377404
 20
-1.457579779200796
 30
0.0
 10
-0.8557976392416914
 20
-1.486026159351062
 30
0.0
 10
-0.7146041210264852
 20
-1.502842172577506
 30
0.0
 10
-0.2899402357221959
 20
-1.547149444233253
 30
0.0
 10
-0.005389495472459
 20
-1.568516409665721
 30
0.0
 10
0.5664578634524862
 20
-1.595676772894906
 30
0.0
 10
0.8537552543666516
 20
-1.601468259553862
 30
0.0
 10
1.214591587743035
 20
-1.598986938257674
 30
0.0
 10
1.286844810727884
 20
-1.598003253952572
 30
0.0
 10
1.431523541420507
 20
-1.595058995353684
 30
0.0
 10
1.503800111376758
 20
-1.593100801367003
 30
0.0
 10
1.720002603246503
 20
-1.585800476261333
 30
0.0
 10
1.863487910425869
 20
-1.579030205888378
 30
0.0
 10
2.292044819496499
 20
-1.553154405607956
 30
0.0
 10
2.575222525748175
 20
-1.528499451383134
 30
0.0
 10
3.136719160702046
 20
-1.464956895330626
 30
0.0
 10
3.415037773583525
 20
-1.426068029528391
 30
0.0
 10
3.828909196102745
 20
-1.35716746962192
 30
0.0
 10
3.966264049520242
 20
-1.332435775928928
 30
0.0
 10
4.23976537812094
 20
-1.279432440829214
 30
0.0
 10
4.376164756599358
 20
-1.251099182117971
 30
0.0
 10
4.780249233312822
 20
-1.161496258802728
 30
0.0
 10
5.043633855703421
 20
-1.095509409827312
 30
0.0
 10
5.558842852706045
 20
-0.9515050609916907
 30
0.0
 10
5.81066461085697
 20
-0.8734846205149882
 30
0.0
 10
6.302863994169859
 20
-0.7055328605409145
 30
0.0
 10
6.543240338528821
 20
-0.6156000026079547
 30
0.0
 10
6.895071335103604
 20
-0.4716112882380203
 30
0.0
 10
7.010890957275059
 20
-0.4220984063371757
 30
0.0
 10
7.182389212027775
 20
-0.3455067116394812
 30
0.0
 10
7.239168173797152
 20
-0.3195945626299598
 30
0.0
 10
7.351631788495389
 20
-0.267151592378195
 30
0.0
 10
7.407359628963813
 20
-0.2406017048824651
 30
0.0
 10
7.57303024634755
 20
-0.1599661116542357
 30
0.0
 10
7.681464374694599
 20
-0.1048976850512585
 30
0.0
 10
7.841066164319022
 20
-0.0203069743467675
 30
0.0
 10
7.893760755560377
 20
0.0082194941895131
 30
0.0
 10
7.998133557994932
 20
0.0659341696775413
 30
0.0
 10
8.049747721455423
 20
0.0951725838587231
 30
0.0
 10
8.100962411369618
 20
0.1246561106735414
 30
0.0
  0
SPLINE
  5
116
330
1F
100
AcDbEntity
  8
0
  6
Continuous
 62
     7
370
    25
100
AcDbSpline
210
0.0
220
0.0
230
1.0
 70
     8
 71
     3
 72
   114
 73
   110
 74
     0
 42
0.00000001
 43
0.00000001
 40
0.0
 40
0.0
 40
0.0
 40
0.0
 40
0.0078125000000001
 40
0.0078125000000001
 40
0.0156250000000002
 40
0.0156250000000002
 40
0.0234375000000002
 40
0.0234375000000002
 40
0.0312500000000003
 40
0.0312500000000003
 40
0.0625000000000006
 40
0.0625000000000006
 40
0.093750000000001
 40
0.093750000000001
 40
0.1250000000000013
 40
0.1250000000000013
 40
0.1406250000000014
 40
0.1406250000000014
 40
0.1484375000000014
 40
0.1484375000000014
 40
0.1562500000000014
 40
0.1562500000000014
 40
0.1875000000000017
 40
0.1875000000000017
 40
0.2187500000000019
 40
0.2187500000000019
 40
0.250000000000002
 40
0.250000000000002
 40
0.257812500000002
 40
0.257812500000002
 40
0.2656250000000021
 40
0.2656250000000021
 40
0.2812500000000021
 40
0.2812500000000021
 40
0.3125000000000019
 40
0.3125000000000019
 40
0.3437500000000019
 40
0.3437500000000019
 40
0.3750000000000018
 40
0.3750000000000018
 40
0.3828125000000017
 40
0.3828125000000017
 40
0.3906250000000017
 40
0.3906250000000017
 40
0.4062500000000014
 40
0.4062500000000014
 40
0.4375000000000011
 40
0.4375000000000011
 40
0.4531250000000009
 40
0.4531250000000009
 40
0.4609375000000009
 40
0.4609375000000009
 40
0.4687500000000009
 40
0.4687500000000009
 40
0.5000000000000008
 40
0.5000000000000008
 40
0.5312500000000008
 40
0.5312500000000008
 40
0.5468750000000007
 40
0.5468750000000007
 40
0.5546875000000007
 40
0.5546875000000007
 40
0.5625000000000007
 40
0.5625000000000007
 40
0.5937500000000007
 40
0.5937500000000007
 40
0.6250000000000006
 40
0.6250000000000006
 40
0.6328125000000006
 40
0.6328125000000006
 40
0.6406250000000006
 40
0.6406250000000006
 40
0.6562500000000004
 40
0.6562500000000004
 40
0.6875000000000003
 40
0.6875000000000003
 40
0.7187500000000002
 40
0.7187500000000002
 40
0.7265625000000002
 40
0.7265625000000002
 40
0.7343750000000002
 40
0.7343750000000002
 40
0.7500000000000002
 40
0.7500000000000002
 40
0.7812500000000003
 40
0.7812500000000003
 40
0.8125000000000004
 40
0.8125000000000004
 40
0.8203125000000003
 40
0.8203125000000003
 40
0.8281250000000003
 40
0.8281250000000003
 40
0.8437500000000004
 40
0.8437500000000004
 40
0.8750000000000003
 40
0.8750000000000003
 40
0.9062500000000003
 40
0.9062500000000003
 40
0.9375000000000003
 40
0.9375000000000003
 40
0.9453125000000003
 40
0.9453125000000003
 40
0.9531250000000003
 40
0.9531250000000003
 40
0.9687500000000002
 40
0.9687500000000002
 40
0.9843750000000002
 40
0.9843750000000002
 40
1.0
 40
1.0
 40
1.0
 40
1.0
 10
8.100962558675262
 20
0.1246560070834817
 30
0.0
 10
8.152049995476581
 20
0.1541803160154147
 30
0.0
 10
8.202640315782446
 20
0.1839617069591899
 30
0.0
 10
8.302608931442144
 20
0.2441818076960141
 30
0.0
 10
8.352037335418725
 20
0.27458775139896
 30
0.0
 10
8.449765342109293
 20
0.3360030521938885
 30
0.0
 10
8.498065068292302
 20
0.3670123283550814
 30
0.0
 10
8.593545545127514
 20
0.4296281576138616
 30
0.0
 10
8.64075771100489
 20
0.461256627241484
 30
0.0
 10
8.873526239171454
 20
0.6205521404954619
 30
0.0
 10
9.049303098885112
 20
0.7517047120301155
 30
0.0
 10
9.380681079571485
 20
1.021193082958253
 30
0.0
 10
9.536279214950286
 20
1.159530089979213
 30
0.0
 10
9.827411388980689
 20
1.443348759145027
 30
0.0
 10
9.962951289560603
 20
1.588827820806749
 30
0.0
 10
10.1508816815826
 20
1.812523619667211
 30
0.0
 10
10.21095758578343
 20
1.888003279513859
 30
0.0
 10
10.29713826693234
 20
2.002623475400288
 30
0.0
 10
10.32523680383889
 20
2.041104038129106
 30
0.0
 10
10.37989187879498
 20
2.118232640982082
 30
0.0
 10
10.40646597390893
 20
2.156901588192297
 30
0.0
 10
10.53558846999773
 20
2.350766858832638
 30
0.0
 10
10.62691894696352
 20
2.507520842825032
 30
0.0
 10
10.78568390673604
 20
2.82435216985417
 30
0.0
 10
10.85312184400313
 20
2.984429103455184
 30
0.0
 10
10.96362736738149
 20
3.30796835979793
 30
0.0
 10
11.00669809402291
 20
3.471429899983267
 30
0.0
 10
11.04450793622776
 20
3.67798579709617
 30
0.0
 10
11.05126619105829
 20
3.719408783800039
 30
0.0
 10
11.06315161552192
 20
3.802481534628959
 30
0.0
 10
11.06828198602073
 20
3.84417746083309
 30
0.0
 10
11.08113024229099
 20
3.9689865833894
 30
0.0
 10
11.0863361323643
 20
4.051973346732864
 30
0.0
 10
11.09195985736016
 20
4.300281318897634
 30
0.0
 10
11.08240931378773
 20
4.4649504798341
 30
0.0
 10
11.03675878167495
 20
4.792555512469823
 30
0.0
 10
11.00066834785409
 20
4.95549377525095
 30
0.0
 10
10.90076527509667
 20
5.279557097626224
 30
0.0
 10
10.83697757629806
 20
5.440683915847075
 30
0.0
 10
10.7381115267022
 20
5.640844119473502
 30
0.0
 10
10.71737827867887
 20
5.680813383534291
 30
0.0
 10
10.67392555964086
 20
5.760622026296312
 30
0.0
 10
10.65129292327602
 20
5.800300159110522
 30
0.0
 10
10.58072659809281
 20
5.91851649153362
 30
0.0
 10
10.53009527167105
 20
5.996295310694175
 30
0.0
 10
10.36718216465672
 20
6.226461570390632
 30
0.0
 10
10.24393906683687
 20
6.375694299789109
 30
0.0
 10
10.03524416886423
 20
6.59268589915228
 30
0.0
 10
9.961694560824613
 20
6.663870588538437
 30
0.0
 10
9.845063346389589
 20
6.768831586222665
 30
0.0
 10
9.80513392150874
 20
6.803515561333785
 30
0.0
 10
9.723099265453936
 20
6.872256909876005
 30
0.0
 10
9.680932259604019
 20
6.906362193763276
 30
0.0
 10
9.465156562767413
 20
7.074714705185483
 30
0.0
 10
9.278738375243304
 20
7.200880578678857
 30
0.0
 10
8.878357688429427
 20
7.43619477884646
 30
0.0
 10
8.664493145696314
 20
7.545416585490194
 30
0.0
 10
8.324700600967693
 20
7.697513166823196
 30
0.0
 10
8.208253247753998
 20
7.746246840666705
 30
0.0
 10
8.028884513711017
 20
7.816448726481064
 30
0.0
 10
7.968214604295785
 20
7.839400753722953
 30
0.0
 10
7.845811403890481
 20
7.884160134138505
 30
0.0
 10
7.78414224992262
 20
7.905946958587909
 30
0.0
 10
7.4735267628762
 20
8.012002610856019
 30
0.0
 10
7.217803029538508
 20
8.08767724985782
 30
0.0
 10
6.693026996231777
 20
8.222126556607089
 30
0.0
 10
6.423966858437089
 20
8.280891673859557
 30
0.0
 10
6.079454421968759
 20
8.343966306608948
 30
0.0
 10
6.010046647688206
 20
8.356075358842942
 30
0.0
 10
5.870938445043545
 20
8.379157961591702
 30
0.0
 10
5.80125662759992
 20
8.39013047959207
 30
0.0
 10
5.591833809638668
 20
8.42136745276405
 30
0.0
 10
5.45171582819746
 20
8.439953167269445
 30
0.0
 10
5.029885471215779
 20
8.48913242546865
 30
0.0
 10
4.746701557534379
 20
8.51317030209201
 30
0.0
 10
4.176336443043958
 20
8.543450727346796
 30
0.0
 10
3.889156960243143
 20
8.549695323622288
 30
0.0
 10
3.527508716447622
 20
8.545589806765928
 30
0.0
 10
3.454961233190835
 20
8.544168210889467
 30
0.0
 10
3.310449079625803
 20
8.540157038560022
 30
0.0
 10
3.238397445994137
 20
8.537567880741166
 30
0.0
 10
3.022842150643299
 20
8.528088499179953
 30
0.0
 10
2.879937387954196
 20
8.51948833560806
 30
0.0
 10
2.453536634132722
 20
8.487084719178064
 30
0.0
 10
2.172344673319366
 20
8.456700827434762
 30
0.0
 10
1.615748234242764
 20
8.379415495821945
 30
0.0
 10
1.340345154855438
 20
8.332510626579896
 30
0.0
 10
0.9995363060351267
 20
8.264043981836812
 30
0.0
 10
0.9314875476996216
 20
8.249844698217991
 30
0.0
 10
0.7960037074874377
 20
8.220529408639232
 30
0.0
 10
0.7286955705219376
 20
8.20544194632069
 30
0.0
 10
0.5280316470900452
 20
8.158930506336617
 30
0.0
 10
0.3959352203574589
 20
8.126258557837591
 30
0.0
 10
0.0044019214301236
 20
8.023530201583489
 30
0.0
 10
-0.2502906540643206
 20
7.948772384170115
 30
0.0
 10
-0.7482470557808474
 20
7.787930308825108
 30
0.0
 10
-0.9915032789222347
 20
7.701839718855438
 30
0.0
 10
-1.467457453407996
 20
7.51919438401394
 30
0.0
 10
-1.70015203083918
 20
7.422636600780579
 30
0.0
 10
-1.984801116069149
 20
7.295776287831329
 30
0.0
 10
-2.041419661690725
 20
7.270095713569106
 30
0.0
 10
-2.15404072019026
 20
7.21812413739062
 30
0.0
 10
-2.210048857408738
 20
7.191829832116753
 30
0.0
 10
-2.376778397467784
 20
7.112225462223283
 30
0.0
 10
-2.486334057449447
 20
7.058134287541134
 30
0.0
 10
-2.702377725122062
 20
6.947988587361839
 30
0.0
 10
-2.808859732189064
 20
6.891931010413844
 30
0.0
 10
-3.018849832055337
 20
6.77791219039769
 30
0.0
 10
-3.122310046879571
 20
6.719926606331812
 30
0.0
 10
-3.224377265666815
 20
6.661041295677168
 30
0.0
  0
SPLINE
  5
117
330
1F
100
AcDbEntity
  8
0
  6
Continuous
 62
     7
370
    25
100
AcDbSpline
210
0.0
220
0.0
230
1.0
 70
     8
 71
     3
 72
   114
 73
   110
 74
     0
 42
0.00000001
 43
0.00000001
 40
0.0
 40
0.0
 40
0.0
 40
0.0
 40
0.0078125000000001
 40
0.0078125000000001
 40
0.0156250000000001
 40
0.0156250000000001
 40
0.0312500000000003
 40
0.0312500000000003
 40
0.0468750000000004
 40
0.0468750000000004
 40
0.0625000000000006
 40
0.0625000000000006
 40
0.0937500000000008
 40
0.0937500000000008
 40
0.1250000000000011
 40
0.1250000000000011
 40
0.1562500000000014
 40
0.1562500000000014
 40
0.1875000000000017
 40
0.1875000000000017
 40
0.2031250000000019
 40
0.2031250000000019
 40
0.2109375000000019
 40
0.2109375000000019
 40
0.218750000000002
 40
0.218750000000002
 40
0.2500000000000022
 40
0.2500000000000022
 40
0.2578125000000023
 40
0.2578125000000023
 40
0.2656250000000023
 40
0.2656250000000023
 40
0.2812500000000026
 40
0.2812500000000026
 40
0.3125000000000027
 40
0.3125000000000027
 40
0.343750000000003
 40
0.343750000000003
 40
0.351562500000003
 40
0.351562500000003
 40
0.359375000000003
 40
0.359375000000003
 40
0.375000000000003
 40
0.375000000000003
 40
0.4062500000000031
 40
0.4062500000000031
 40
0.4375000000000032
 40
0.4375000000000032
 40
0.4453125000000032
 40
0.4453125000000032
 40
0.4531250000000032
 40
0.4531250000000032
 40
0.4687500000000032
 40
0.4687500000000032
 40
0.5000000000000031
 40
0.5000000000000031
 40
0.515625000000003
 40
0.515625000000003
 40
0.5312500000000029
 40
0.5312500000000029
 40
0.5625000000000028
 40
0.5625000000000028
 40
0.5781250000000027
 40
0.5781250000000027
 40
0.5859375000000026
 40
0.5859375000000026
 40
0.5937500000000026
 40
0.5937500000000026
 40
0.6250000000000023
 40
0.6250000000000023
 40
0.6562500000000022
 40
0.6562500000000022
 40
0.687500000000002
 40
0.687500000000002
 40
0.7031250000000019
 40
0.7031250000000019
 40
0.7187500000000018
 40
0.7187500000000018
 40
0.7500000000000014
 40
0.7500000000000014
 40
0.7812500000000012
 40
0.7812500000000012
 40
0.7968750000000011
 40
0.7968750000000011
 40
0.8046875000000011
 40
0.8046875000000011
 40
0.812500000000001
 40
0.812500000000001
 40
0.8437500000000008
 40
0.8437500000000008
 40
0.8750000000000007
 40
0.8750000000000007
 40
0.9062500000000004
 40
0.9062500000000004
 40
0.9218750000000004
 40
0.9218750000000004
 40
0.9375000000000003
 40
0.9375000000000003
 40
0.9531250000000003
 40
0.9531250000000003
 40
0.9687500000000002
 40
0.9687500000000002
 40
0.9843750000000001
 40
0.9843750000000001
 40
0.9921875
 40
0.9921875
 40
0.9960937500000001
 40
0.9960937500000001
 40
1.0
 40
1.0
 40
1.0
 40
1.0
 10
-2.608550583425268
 20
6.378943598464239
 30
0.0
 10
-2.562855591203221
 20
6.405316319388088
 30
0.0
 10
-2.516686842660679
 20
6.431430285813816
 30
0.0
 10
-2.423800302170949
 20
6.483314503288086
 30
0.0
 10
-2.377030776579549
 20
6.509067506389227
 30
0.0
 10
-2.235809083076577
 20
6.585720259115234
 30
0.0
 10
-2.14043859275254
 20
6.636015711716289
 30
0.0
 10
-1.94717476102396
 20
6.734943147594016
 30
0.0
 10
-1.849282149260107
 20
6.783575517244279
 30
0.0
 10
-1.650877257091795
 20
6.879113342091098
 30
0.0
 10
-1.550301609070547
 20
6.926042244586678
 30
0.0
 10
-1.24582985485482
 20
7.063508738004222
 30
0.0
 10
-1.038795023546335
 20
7.15093165492102
 30
0.0
 10
-0.6160962179052246
 20
7.316799577881456
 30
0.0
 10
-0.4004265447663048
 20
7.395239982847808
 30
0.0
 10
0.0403188386844653
 20
7.542350110904633
 30
0.0
 10
0.2653838952420221
 20
7.611029393064401
 30
0.0
 10
0.7259645970942059
 20
7.737547279441709
 30
0.0
 10
0.9614789763269551
 20
7.795386465655061
 30
0.0
 10
1.323680962555187
 20
7.8728981949172
 30
0.0
 10
1.445905609482783
 20
7.897191971305291
 30
0.0
 10
1.631658745303791
 20
7.931134449499488
 30
0.0
 10
1.693879748592741
 20
7.94201245185008
 30
0.0
 10
1.818585823753004
 20
7.962813171397757
 30
0.0
 10
1.881123929506549
 20
7.97274557080503
 30
0.0
 10
2.194761905088651
 20
8.020013928978488
 30
0.0
 10
2.448707932001803
 20
8.050161815380974
 30
0.0
 10
2.77026048387253
 20
8.077449412383093
 30
0.0
 10
2.834671999557755
 20
8.082379194800998
 30
0.0
 10
2.963334635579519
 20
8.091161567855552
 30
0.0
 10
3.027640735409103
 20
8.095019818902822
 30
0.0
 10
3.220484365956745
 20
8.10501328351426
 30
0.0
 10
3.348947368952321
 20
8.10956980101935
 30
0.0
 10
3.734042040486591
 20
8.116986605299214
 30
0.0
 10
3.990375413582818
 20
8.113513079378597
 30
0.0
 10
4.502270005082465
 20
8.090172291627496
 30
0.0
 10
4.757833094071181
 20
8.070350359187389
 30
0.0
 10
5.076797985874085
 20
8.035216477599711
 30
0.0
 10
5.140393122858021
 20
8.02768607096625
 30
0.0
 10
5.266840175468611
 20
8.011669789995295
 30
0.0
 10
5.32974806564282
 20
8.00317843449307
 30
0.0
 10
5.517529493671732
 20
7.976262831336883
 30
0.0
 10
5.641462933762532
 20
7.956400168595045
 30
0.0
 10
6.009545862159879
 20
7.891119350333423
 30
0.0
 10
6.249996879981317
 20
7.840037472890297
 30
0.0
 10
6.720755599975349
 20
7.722312354522042
 30
0.0
 10
6.951073813290424
 20
7.655684696042974
 30
0.0
 10
7.231971258226947
 20
7.56164724685096
 30
0.0
 10
7.287713570351475
 20
7.542325538347649
 30
0.0
 10
7.39774603211817
 20
7.502838619291231
 30
0.0
 10
7.452118835980063
 20
7.482646023163082
 30
0.0
 10
7.613287048942928
 20
7.420706709393404
 30
0.0
 10
7.718135740260154
 20
7.377600811174157
 30
0.0
 10
8.024607351517108
 20
7.24264721547101
 30
0.0
 10
8.218232200901914
 20
7.145211859254919
 30
0.0
 10
8.490962559191344
 20
6.986671506034247
 30
0.0
 10
8.57888047166007
 20
6.93173252144471
 30
0.0
 10
8.748192784905878
 20
6.817331894142133
 30
0.0
 10
8.82861736540343
 20
6.758609015893641
 30
0.0
 10
9.057835139798362
 20
6.578439396344934
 30
0.0
 10
9.194749458991154
 20
6.452900489845883
 30
0.0
 10
9.378925069369748
 20
6.257343680888021
 30
0.0
 10
9.4367630516999
 20
6.190943448933583
 30
0.0
 10
9.51842113397723
 20
6.089598161788561
 30
0.0
 10
9.54479139858001
 20
6.055525667776928
 30
0.0
 10
9.595856395559405
 20
5.986807120934614
 30
0.0
 10
9.620574539380355
 20
5.952126361799817
 30
0.0
 10
9.739768997425456
 20
5.777694858132762
 30
0.0
 10
9.820207645522117
 20
5.636328315870519
 30
0.0
 10
9.95508815757794
 20
5.350402422744232
 30
0.0
 10
10.00951868200839
 20
5.205840978337016
 30
0.0
 10
10.09447316527276
 20
4.913755167299017
 30
0.0
 10
10.1249728475577
 20
4.766230102298439
 30
0.0
 10
10.15339435568762
 20
4.542772105098625
 30
0.0
 10
10.15995263327898
 20
4.467791855197318
 30
0.0
 10
10.16723204526329
 20
4.318426193393564
 30
0.0
 10
10.16776773497373
 20
4.243934389684563
 30
0.0
 10
10.16034593506616
 20
4.021013487557293
 30
0.0
 10
10.14337190371529
 20
3.87313877231916
 30
0.0
 10
10.08627830066107
 20
3.578806881264217
 30
0.0
 10
10.04617267094336
 20
3.432347204208825
 30
0.0
 10
9.968926547276753
 20
3.213700860284574
 30
0.0
 10
9.940330155006514
 20
3.140992306151179
 30
0.0
 10
9.893173632553742
 20
3.032187957366768
 30
0.0
 10
9.876734880557013
 20
2.99594716076132
 30
0.0
 10
9.84258994541037
 20
2.92386885088155
 30
0.0
 10
9.824867774267934
 20
2.887992579858667
 30
0.0
 10
9.73305907977599
 20
2.709412526121577
 30
0.0
 10
9.649408494327185
 20
2.569105030091355
 30
0.0
 10
9.462609095031707
 20
2.293357320061263
 30
0.0
 10
9.359435038638564
 20
2.157924642818864
 30
0.0
 10
9.13412160609716
 20
1.891778522681566
 30
0.0
 10
9.011981258936983
 20
1.761065257458575
 30
0.0
 10
8.814611506181103
 20
1.568491047878533
 30
0.0
 10
8.74636491898033
 20
1.504802975791041
 30
0.0
 10
8.60575832138002
 20
1.379143660489552
 30
0.0
 10
8.533375173078534
 20
1.317143389342807
 30
0.0
 10
8.384557043047396
 20
1.194748214042348
 30
0.0
 10
8.308122089182868
 20
1.134353300560361
 30
0.0
 10
8.151356682076575
 20
1.015088538472787
 30
0.0
 10
8.071028727245368
 20
0.9562304451753386
 30
0.0
 10
7.907018022822779
 20
0.840102842657264
 30
0.0
 10
7.823289056599516
 20
0.7827963253159015
 30
0.0
 10
7.695518963142129
 20
0.6978435599352508
 30
0.0
 10
7.652585974238318
 20
0.6696783797638483
 30
0.0
 10
7.587571131836581
 20
0.6277354710547172
 30
0.0
 10
7.565804356115805
 20
0.6137995316228764
 30
0.0
 10
7.521834457053953
 20
0.5861804907046249
 30
0.0
 10
7.499637044651926
 20
0.5724919128950865
 30
0.0
 10
7.47672613282964
 20
0.5592690434571128
 30
0.0
  0
SPLINE
  5
118
330
1F
100
AcDbEntity
  8
0
  6
Continuous
 62
     7
370
    25
100
AcDbSpline
210
0.0
220
0.0
230
1.0
 70
     8
 71
     3
 72
   115
 73
   111
 74
     0
 42
0.00000001
 43
0.00000001
 40
0.0
 40
0.0
 40
0.0
 40
0.0
 40
0.0039062499999999
 40
0.0039062499999999
 40
0.0078124999999999
 40
0.0078124999999999
 40
0.0156249999999998
 40
0.0156249999999998
 40
0.0312499999999996
 40
0.0312499999999996
 40
0.0624999999999993
 40
0.0624999999999993
 40
0.0781249999999991
 40
0.0781249999999991
 40
0.0937499999999988
 40
0.0937499999999988
 40
0.1249999999999986
 40
0.1249999999999986
 40
0.1562499999999983
 40
0.1562499999999983
 40
0.187499999999998
 40
0.187499999999998
 40
0.2031249999999979
 40
0.2031249999999979
 40
0.2109374999999979
 40
0.2109374999999979
 40
0.2187499999999978
 40
0.2187499999999978
 40
0.2499999999999978
 40
0.2499999999999978
 40
0.2812499999999977
 40
0.2812499999999977
 40
0.3124999999999977
 40
0.3124999999999977
 40
0.3281249999999977
 40
0.3281249999999977
 40
0.3359374999999978
 40
0.3359374999999978
 40
0.3437499999999978
 40
0.3437499999999978
 40
0.3749999999999979
 40
0.3749999999999979
 40
0.4062499999999981
 40
0.4062499999999981
 40
0.4218749999999982
 40
0.4218749999999982
 40
0.4296874999999983
 40
0.4296874999999983
 40
0.4374999999999983
 40
0.4374999999999983
 40
0.4687499999999986
 40
0.4687499999999986
 40
0.4843749999999987
 40
0.4843749999999987
 40
0.4999999999999988
 40
0.4999999999999988
 40
0.5078124999999988
 40
0.5078124999999988
 40
0.5156249999999988
 40
0.5156249999999988
 40
0.5312499999999988
 40
0.5312499999999988
 40
0.5624999999999989
 40
0.5624999999999989
 40
0.5781249999999989
 40
0.5781249999999989
 40
0.585937499999999
 40
0.585937499999999
 40
0.593749999999999
 40
0.593749999999999
 40
0.624999999999999
 40
0.624999999999999
 40
0.656249999999999
 40
0.656249999999999
 40
0.664062499999999
 40
0.664062499999999
 40
0.671874999999999
 40
0.671874999999999
 40
0.687499999999999
 40
0.687499999999999
 40
0.718749999999999
 40
0.718749999999999
 40
0.749999999999999
 40
0.749999999999999
 40
0.7578124999999991
 40
0.7578124999999991
 40
0.7656249999999991
 40
0.7812499999999991
 40
0.7812499999999991
 40
0.8124999999999991
 40
0.8124999999999991
 40
0.8437499999999991
 40
0.8437499999999991
 40
0.8515624999999991
 40
0.8515624999999991
 40
0.8593749999999991
 40
0.8593749999999991
 40
0.8749999999999992
 40
0.8749999999999992
 40
0.9062499999999994
 40
0.9062499999999994
 40
0.9374999999999997
 40
0.9374999999999997
 40
0.9687499999999998
 40
0.9687499999999998
 40
0.9843749999999999
 40
0.9843749999999999
 40
0.9921874999999999
 40
0.9921874999999999
 40
1.0
 40
1.0
 40
1.0
 40
1.0
 10
7.476726132829649
 20
0.559269043457109
 30
0.0
 10
7.453747468527575
 20
0.5460070711583992
 30
0.0
 10
7.430142580434953
 20
0.5332640040726845
 30
0.0
 10
7.382576924372461
 20
0.5080533373623485
 30
0.0
 10
7.358608793398747
 20
0.4955919964546479
 30
0.0
 10
7.286467229180305
 20
0.4583690451556454
 30
0.0
 10
7.238028658493276
 20
0.4337922947568648
 30
0.0
 10
7.09186934805643
 20
0.3606182595892518
 30
0.0
 10
6.993231208804812
 20
0.3126400624440822
 30
0.0
 10
6.693212857320354
 20
0.171558620227837
 30
0.0
 10
6.48767817395001
 20
0.0813531207877025
 30
0.0
 10
6.170057269739426
 20
-0.0472996955543912
 30
0.0
 10
6.062462959944834
 20
-0.0891452392414528
 30
0.0
 10
5.845304949693733
 20
-0.1701010216835011
 30
0.0
 10
5.735684430251992
 20
-0.2092419181494836
 30
0.0
 10
5.403706291790442
 20
-0.3226554793077424
 30
0.0
 10
5.178238317865283
 20
-0.3929265895323564
 30
0.0
 10
4.718944444181251
 20
-0.5226783297884511
 30
0.0
 10
4.485119211147445
 20
-0.5821598825845967
 30
0.0
 10
4.008834902908869
 20
-0.6899585466363165
 30
0.0
 10
3.766386476536146
 20
-0.738291756506744
 30
0.0
 10
3.395938426454663
 20
-0.802017283385468
 30
0.0
 10
3.271323906443202
 20
-0.8217934602530271
 30
0.0
 10
3.08264421484267
 20
-0.8491804805601574
 30
0.0
 10
3.019563961738245
 20
-0.8579133478062616
 30
0.0
 10
2.89344876855478
 20
-0.874527995547605
 30
0.0
 10
2.830350894824156
 20
-0.8824190003241622
 30
0.0
 10
2.514660368572057
 20
-0.9197941611596329
 30
0.0
 10
2.261464460183245
 20
-0.9430398081759265
 30
0.0
 10
1.753783850586529
 20
-0.9762018378325767
 30
0.0
 10
1.499298360818949
 20
-0.986108562588455
 30
0.0
 10
0.989004731472567
 20
-0.9922331904494924
 30
0.0
 10
0.7331850911694976
 20
-0.9883170333327326
 30
0.0
 10
0.3484924541402907
 20
-0.9725840424984932
 30
0.0
 10
0.2200979074200971
 20
-0.9656595771061697
 30
0.0
 10
0.0272515297493752
 20
-0.9526594294480781
 30
0.0
 10
-0.0371533262746829
 20
-0.9478812846464248
 30
0.0
 10
-0.1656467040450804
 20
-0.9374523940649683
 30
0.0
 10
-0.2296711495111902
 20
-0.9318081012282449
 30
0.0
 10
-0.5486757761378579
 20
-0.901424507842864
 30
0.0
 10
-0.8003233595428902
 20
-0.8702395707929951
 30
0.0
 10
-1.2960700921944
 20
-0.7932416007304077
 30
0.0
 10
-1.540171465234847
 20
-0.7474326040052994
 30
0.0
 10
-1.900014353824242
 20
-0.6664758119621411
 30
0.0
 10
-2.018904337969016
 20
-0.6374371303422243
 30
0.0
 10
-2.19553679300774
 20
-0.5905741308610848
 30
0.0
 10
-2.254183389550339
 20
-0.5743869439710048
 30
0.0
 10
-2.370651783774959
 20
-0.5409250500384548
 30
0.0
 10
-2.428279902282308
 20
-0.5237070853946842
 30
0.0
 10
-2.713347867292362
 20
-0.4351474474564611
 30
0.0
 10
-2.931621237454361
 20
-0.3564391817956755
 30
0.0
 10
-3.243120271940247
 20
-0.2255774933314085
 30
0.0
 10
-3.344299804028225
 20
-0.1798233486500621
 30
0.0
 10
-3.541031300013691
 20
-0.0837870724782619
 30
0.0
 10
-3.636526144666604
 20
-0.0334545062626661
 30
0.0
 10
-3.775537394095801
 20
0.0454261423144926
 30
0.0
 10
-3.821256836786342
 20
0.0723276829987246
 30
0.0
 10
-3.910686389394287
 20
0.1268464598815277
 30
0.0
 10
-3.954449194868525
 20
0.1544899253462889
 30
0.0
 10
-4.082985877287767
 20
0.2385306695484357
 30
0.0
 10
-4.165014359500751
 20
0.2960355131953866
 30
0.0
 10
-4.40069503488606
 20
0.4727583057980346
 30
0.0
 10
-4.544003454191364
 20
0.5961590049933979
 30
0.0
 10
-4.739902593484408
 20
0.7889728745241614
 30
0.0
 10
-4.802001895774433
 20
0.8545399373419648
 30
0.0
 10
-4.890416785704876
 20
0.9548089294666143
 30
0.0
 10
-4.919055732647732
 20
0.9885057883955176
 30
0.0
 10
-4.974467323068518
 20
1.056155849948572
 30
0.0
 10
-5.001276564497069
 20
1.0901501610254
 30
0.0
 10
-5.13093857802343
 20
1.260950480842203
 30
0.0
 10
-5.220709983781752
 20
1.400229827989173
 30
0.0
 10
-5.37349687115556
 20
1.683874889271155
 30
0.0
 10
-5.436484259655576
 20
1.828248544262749
 30
0.0
 10
-5.498183987504589
 20
2.011960259668837
 30
0.0
 10
-5.509683623203452
 20
2.04891901169377
 30
0.0
 10
-5.530866986571256
 20
2.122841675278631
 30
0.0
 10
-5.540555100431657
 20
2.159805593897725
 30
0.0
 10
-5.566929782745734
 20
2.270704670102655
 30
0.0
 10
-5.580928158610077
 20
2.34464736741425
 30
0.0
 10
-5.612215795651086
 20
2.566499311530612
 30
0.0
 10
-5.61879806065299
 20
2.71442694041262
 30
0.0
 10
-5.602859477402051
 20
3.010333471500598
 30
0.0
 10
-5.580541463421405
 20
3.158304404009542
 30
0.0
 10
-5.534095845857708
 20
3.343369261772145
 30
0.0
 10
-5.523863688694914
 20
3.380433561759925
 30
0.0
 10
-5.501593360415455
 20
3.45435200466199
 30
0.0
 10
-5.465546473747417
 20
3.564732952743674
 30
0.0
 10
-5.421811964363173
 20
3.673666769993003
 30
0.0
 10
-5.324681497656348
 20
3.889710537664906
 30
0.0
 10
-5.24709582093756
 20
4.031315946911191
 30
0.0
 10
-5.068928590537162
 20
4.310144718830301
 30
0.0
 10
-4.968318136749166
 20
4.44736290559232
 30
0.0
 10
-4.829272748487834
 20
4.616341981276325
 30
0.0
 10
-4.800773102460338
 20
4.650039554808077
 30
0.0
 10
-4.742587408876283
 20
4.717046218926078
 30
0.0
 10
-4.71293859453584
 20
4.750314251129462
 30
0.0
 10
-4.622383701138626
 20
4.849437086287801
 30
0.0
 10
-4.559871208547121
 20
4.914611401780594
 30
0.0
 10
-4.366314667868863
 20
5.107582129742857
 30
0.0
 10
-4.229258423735019
 20
5.232830221082583
 30
0.0
 10
-3.940822871456304
 20
5.477244159148579
 30
0.0
 10
-3.789450550648785
 20
5.596411748746726
 30
0.0
 10
-3.473592917506125
 20
5.829167811208907
 30
0.0
 10
-3.309109872683837
 20
5.942756667226535
 30
0.0
 10
-3.053227909437701
 20
6.109233950616865
 30
0.0
 10
-2.966402333155489
 20
6.164073420319899
 30
0.0
 10
-2.833919567719078
 20
6.245375695057777
 30
0.0
 10
-2.789385000395874
 20
6.272317087176074
 30
0.0
 10
-2.699565697264795
 20
6.325880899144798
 30
0.0
 10
-2.654333196532797
 20
6.352520307422139
 30
0.0
 10
-2.608550583425276
 20
6.37894359846423
 30
0.0
  0
SPLINE
  5
11A
330
1F
100
AcDbEntity
  8
0
  6
Continuous
 62
     7
370
    25
100
AcDbSpline
210
0.0
220
0.0
230
1.0
 70
     8
 71
     3
 72
    11
 73
     7
 74
     0
 42
0.00000001
 43
0.00000001
 40
0.0
 40
0.0
 40
0.0
 40
0.0
 40
0.0134622280974176
 40
0.3425947359831026
 40
0.6810671477021677
 40
1.0
 40
1.0
 40
1.0
 40
1.0
 10
-5.473978694424598
 20
2.855790634382308
 30
0.0
 10
-5.47468949555958
 20
2.851462846574019
 30
0.0
 10
-5.492778382882913
 20
2.741326744968653
 30
0.0
 10
-5.484945279388522
 20
2.521141174847023
 30
0.0
 10
-5.45023537875135
 20
2.202866099440082
 30
0.0
 10
-5.385080981699374
 20
1.993913730209528
 30
0.0
 10
-5.353472050604783
 20
1.892542812206995
 30
0.0
  0
SPLINE
  5
11B
330
1F
100
AcDbEntity
  8
0
  6
Continuous
 62
     7
370
    25
100
AcDbSpline
210
0.0
220
0.0
230
1.0
 70
     8
 71
     3
 72
    12
 73
     8
 74
     0
 42
0.00000001
 43
0.00000001
 40
0.0
 40
0.0
 40
0.0
 40
0.0
 40
0.0914199769441828
 40
0.3725102083596235
 40
0.6537891875528257
 40
0.9348671711850588
 40
1.0
 40
1.0
 40
1.0
 40
1.0
 10
9.240196728951226
 20
2.127621672017866
 30
0.0
 10
9.26294113524479
 20
2.154393749176068
 30
0.0
 10
9.355618073159608
 20
2.263482291678225
 30
0.0
 10
9.489491167975034
 20
2.462248883699294
 30
0.0
 10
9.645295466288506
 20
2.721716875905703
 30
0.0
 10
9.749533231947533
 20
2.917399669455697
 30
0.0
 10
9.790822430940082
 20
3.027792052994434
 30
0.0
 10
9.798590190447296
 20
3.048560232268441
 30
0.0
  0
SPLINE
  5
11C
330
1F
100
AcDbEntity
  8
0
  6
Continuous
 62
     7
370
    25
100
AcDbSpline
210
0.0
220
0.0
230
1.0
 70
    11
 71
     3
 72
   122
 73
   118
 74
     0
 42
0.00000001
 43
0.00000001
 40
0.0
 40
0.0
 40
0.0
 40
0.0
 40
0.015625
 40
0.015625
 40
0.0234375000000001
 40
0.0234375000000001
 40
0.0312500000000001
 40
0.0312500000000001
 40
0.0625000000000001
 40
0.0625000000000001
 40
0.0781250000000002
 40
0.0781250000000002
 40
0.0859375000000002
 40
0.0859375000000002
 40
0.0937500000000003
 40
0.0937500000000003
 40
0.1250000000000004
 40
0.1250000000000004
 40
0.1328125000000005
 40
0.1328125000000005
 40
0.1406250000000005
 40
0.1406250000000005
 40
0.1562500000000004
 40
0.1562500000000004
 40
0.1875000000000004
 40
0.1875000000000004
 40
0.2187500000000003
 40
0.2187500000000003
 40
0.2343750000000002
 40
0.2343750000000002
 40
0.2500000000000002
 40
0.2500000000000002
 40
0.2812500000000001
 40
0.2812500000000001
 40
0.2968750000000001
 40
0.2968750000000001
 40
0.3125000000000001
 40
0.3125000000000001
 40
0.34375
 40
0.34375
 40
0.359375
 40
0.359375
 40
0.3749999999999999
 40
0.3749999999999999
 40
0.4062499999999999
 40
0.4062499999999999
 40
0.4374999999999998
 40
0.4374999999999998
 40
0.4531249999999997
 40
0.4531249999999997
 40
0.4687499999999997
 40
0.4687499999999997
 40
0.4999999999999996
 40
0.4999999999999996
 40
0.5312499999999996
 40
0.5312499999999996
 40
0.5468749999999994
 40
0.5468749999999994
 40
0.5624999999999993
 40
0.5624999999999993
 40
0.5937499999999993
 40
0.5937499999999993
 40
0.6015624999999993
 40
0.6015624999999993
 40
0.6093749999999993
 40
0.6093749999999993
 40
0.6249999999999993
 40
0.6249999999999993
 40
0.6406249999999994
 40
0.6406249999999994
 40
0.6484374999999994
 40
0.6484374999999994
 40
0.6562499999999994
 40
0.6562499999999994
 40
0.6874999999999993
 40
0.6874999999999993
 40
0.7031249999999994
 40
0.7031249999999994
 40
0.7109374999999994
 40
0.7109374999999994
 40
0.7187499999999994
 40
0.7187499999999994
 40
0.7499999999999993
 40
0.7499999999999993
 40
0.7578124999999994
 40
0.7578124999999994
 40
0.7656249999999994
 40
0.7656249999999994
 40
0.7812499999999994
 40
0.7812499999999994
 40
0.8124999999999996
 40
0.8124999999999996
 40
0.8203124999999996
 40
0.8203124999999996
 40
0.8281249999999996
 40
0.8281249999999996
 40
0.8437499999999996
 40
0.8437499999999996
 40
0.8593749999999996
 40
0.8593749999999996
 40
0.8671874999999997
 40
0.8671874999999997
 40
0.8749999999999997
 40
0.8749999999999997
 40
0.9062499999999997
 40
0.9062499999999997
 40
0.9218749999999998
 40
0.9218749999999998
 40
0.9296874999999998
 40
0.9296874999999998
 40
0.9374999999999998
 40
0.9374999999999998
 40
0.9687499999999999
 40
0.9687499999999999
 40
0.984375
 40
0.984375
 40
1.0
 40
1.0
 40
1.0
 40
1.0
 10
-1.310846065094576
 20
1.097822491547806
 30
0.0
 10
-1.277632757571658
 20
1.116990903792973
 30
0.0
 10
-1.242991729948344
 20
1.135357408064556
 30
0.0
 10
-1.188902373538213
 20
1.161711893530127
 30
0.0
 10
-1.170516632953558
 20
1.170296714073109
 30
0.0
 10
-1.133027307723556
 20
1.187064552854749
 30
0.0
 10
-1.113884724990015
 20
1.195266034954146
 30
0.0
 10
-1.016949768956057
 20
1.234994100529564
 30
0.0
 10
-0.9355631335807241
 20
1.262781943643301
 30
0.0
 10
-0.8076294414390288
 20
1.298457760843473
 30
0.0
 10
-0.7639974445605159
 20
1.309334894188706
 30
0.0
 10
-0.6969971826472446
 20
1.324060779189522
 30
0.0
 10
-0.674341198980768
 20
1.328716131573705
 30
0.0
 10
-0.6289918516878608
 20
1.337381612013162
 30
0.0
 10
-0.6062632351144566
 20
1.341404419103393
 30
0.0
 10
-0.4923533998735697
 20
1.359983026358838
 30
0.0
 10
-0.4003763749841742
 20
1.369966177985447
 30
0.0
 10
-0.2843120182270465
 20
1.376014537190901
 30
0.0
 10
-0.2610438272636769
 20
1.376898022036059
 30
0.0
 10
-0.2143947200190129
 20
1.377994057168399
 30
0.0
 10
-0.1910332496682406
 20
1.378205844473509
 30
0.0
 10
-0.1216164159767209
 20
1.377812202846119
 30
0.0
 10
-0.0759477582831652
 20
1.376189262243362
 30
0.0
 10
0.0593455464555724
 20
1.367263624023013
 30
0.0
 10
0.1473374730939794
 20
1.355936037286488
 30
0.0
 10
0.3186711327469712
 20
1.321499695579794
 30
0.0
 10
0.3997710040651833
 20
1.299140386826336
 30
0.0
 10
0.5147624049548138
 20
1.258191553559026
 30
0.0
 10
0.5519684430309332
 20
1.243294648707503
 30
0.0
 10
0.6240561282564457
 20
1.210968936944465
 30
0.0
 10
0.6590046246261321
 20
1.193479552033494
 30
0.0
 10
0.7581733439432045
 20
1.138258756338004
 30
0.0
 10
0.8174896493186564
 20
1.097513417768416
 30
0.0
 10
0.8961663739911346
 20
1.030736417857165
 30
0.0
 10
0.92066494203151
 20
1.007527964417387
 30
0.0
 10
0.9660582444007025
 20
0.9591815871763575
 30
0.0
 10
0.9866199769898355
 20
0.9343951620374001
 30
0.0
 10
1.041858232099701
 20
0.8585434408616472
 30
0.0
 10
1.070263176553966
 20
0.8059038715782008
 30
0.0
 10
1.099918190326832
 20
0.7240209676737099
 30
0.0
 10
1.107642642231412
 20
0.6960936999557773
 30
0.0
 10
1.118346345829108
 20
0.6404029816709803
 30
0.0
 10
1.121382000040015
 20
0.6125507939074801
 30
0.0
 10
1.123664396508812
 20
0.529030357689552
 30
0.0
 10
1.116147999066208
 20
0.4733972802494815
 30
0.0
 10
1.082165540438673
 20
0.362511233701294
 30
0.0
 10
1.056225329975973
 20
0.3091338558882548
 30
0.0
 10
1.004449195760477
 20
0.2322860781601083
 30
0.0
 10
0.9850258445424529
 20
0.2072054614146074
 30
0.0
 10
0.9417351313479152
 20
0.1581635916164944
 30
0.0
 10
0.9177799806314115
 20
0.1341498981847415
 30
0.0
 10
0.8405626204929478
 20
0.0652721621580014
 30
0.0
 10
0.7816149031699617
 20
0.0230519108902988
 30
0.0
 10
0.6486233974877225
 20
-0.0536906952482559
 30
0.0
 10
0.5764506912529427
 20
-0.0871363352866712
 30
0.0
 10
0.4599533050052806
 20
-0.1302066724026691
 30
0.0
 10
0.419739712490955
 20
-0.1433735700934436
 30
0.0
 10
0.3364723745979439
 20
-0.1672765141084679
 30
0.0
 10
0.2940390096203417
 20
-0.1778287294189411
 30
0.0
 10
0.1647002488298402
 20
-0.2054037555641771
 30
0.0
 10
0.0756628945643036
 20
-0.2184267433641109
 30
0.0
 10
-0.0391977811192239
 20
-0.2280553961410172
 30
0.0
 10
-0.0624056860720306
 20
-0.2296487120549799
 30
0.0
 10
-0.1089157575080409
 20
-0.2321407490408039
 30
0.0
 10
-0.1321551056711621
 20
-0.233037996469032
 30
0.0
 10
-0.2018273616910524
 20
-0.2347130951832732
 30
0.0
 10
-0.2482145540416279
 20
-0.2344759388600107
 30
0.0
 10
-0.3408708378963368
 20
-0.2313871920268978
 30
0.0
 10
-0.3871399371844607
 20
-0.2285357366322039
 30
0.0
 10
-0.4564553658466523
 20
-0.2223120086197269
 30
0.0
 10
-0.4795457631685509
 20
-0.219912098501364
 30
0.0
 10
-0.5256968689191074
 20
-0.2144583660480555
 30
0.0
 10
-0.5488185867760177
 20
-0.2113947775950457
 30
0.0
 10
-0.6632868936842995
 20
-0.1945924974579033
 30
0.0
 10
-0.7515922165951295
 20
-0.1763972477022474
 30
0.0
 10
-0.879370075594669
 20
-0.1425473877024091
 30
0.0
 10
-0.9211756395447156
 20
-0.1301616915971179
 30
0.0
 10
-0.9826814979434647
 20
-0.1099312792663081
 30
0.0
 10
-1.003019242169841
 20
-0.1028966059880507
 30
0.0
 10
-1.042875457784674
 20
-0.0884225872146367
 30
0.0
 10
-1.062439709488457
 20
-0.0809696618351751
 30
0.0
 10
-1.158482884650097
 20
-0.0426652135654549
 30
0.0
 10
-1.229670482928104
 20
-0.0087189214585189
 30
0.0
 10
-1.311738483140555
 20
0.037512876221067
 30
0.0
 10
-1.327804285454824
 20
0.0469503887285969
 30
0.0
 10
-1.359230893835527
 20
0.0662068548331179
 30
0.0
 10
-1.374613060098356
 20
0.0760419593335037
 30
0.0
 10
-1.419255643360788
 20
0.1058175329860064
 30
0.0
 10
-1.447155621380271
 20
0.1261120692664347
 30
0.0
 10
-1.525485440110026
 20
0.188211869302538
 30
0.0
 10
-1.570630101024542
 20
0.2311984481857639
 30
0.0
 10
-1.618045350497797
 20
0.2868828584768441
 30
0.0
 10
-1.627075983358188
 20
0.2981520089443114
 30
0.0
 10
-1.6439623276653
 20
0.3207087003930447
 30
0.0
 10
-1.651842279436906
 20
0.3320135866648696
 30
0.0
 10
-1.673805742318154
 20
0.3660401814811732
 30
0.0
 10
-1.686208722546596
 20
0.388874681152088
 30
0.0
 10
-1.70652448862765
 20
0.434999643892955
 30
0.0
 10
-1.714435828268011
 20
0.4582884966583936
 30
0.0
 10
-1.72278064182651
 20
0.4936810177798124
 30
0.0
 10
-1.724976638011068
 20
0.5055548564118834
 30
0.0
 10
-1.728168120036603
 20
0.5294737103785858
 30
0.0
 10
-1.729163140188346
 20
0.541557036451202
 30
0.0
 10
-1.730995944743826
 20
0.6019331789258917
 30
0.0
 10
-1.722599375559086
 20
0.649919060595543
 30
0.0
 10
-1.695812193251412
 20
0.7217952342642271
 30
0.0
 10
-1.684505927879032
 20
0.7457313766603165
 30
0.0
 10
-1.663925478177634
 20
0.7816135522412793
 30
0.0
 10
-1.656444522491968
 20
0.7935904101759698
 30
0.0
 10
-1.640436575378115
 20
0.8172615585597162
 30
0.0
 10
-1.631897250563918
 20
0.8289885930478613
 30
0.0
 10
-1.586601501440172
 20
0.887094716701285
 30
0.0
 10
-1.542133908616972
 20
0.9319069061693992
 30
0.0
 10
-1.463598571359129
 20
0.9966325697123746
 30
0.0
 10
-1.435340952587758
 20
1.017842268883244
 30
0.0
 10
-1.375607751955349
 20
1.058817900208881
 30
0.0
 10
-1.344059372617493
 20
1.07865407930264
 30
0.0
 10
-1.310846065094575
 20
1.097822491547807
 30
0.0
  0
SPLINE
  5
11D
330
1F
100
AcDbEntity
  8
0
  6
Continuous
 62
     7
370
    25
100
AcDbSpline
210
0.0
220
0.0
230
1.0
 70
     8
 71
     3
 72
     9
 73
     5
 74
     0
 42
0.00000001
 43
0.00000001
 40
0.0
 40
0.0
 40
0.0
 40
0.0
 40
0.8842286887126449
 40
1.0
 40
1.0
 40
1.0
 40
1.0
 10
11.18980302776812
 20
3.714854005244363
 30
0.0
 10
11.20067305484033
 20
3.803779200319621
 30
0.0
 10
11.2129662853258
 20
3.904347295666905
 30
0.0
 10
11.21028680086564
 20
4.005057374302367
 30
0.0
 10
11.20997659343611
 20
4.016716712165843
 30
0.0
  0
SPLINE
  5
11E
330
1F
100
AcDbEntity
  8
0
  6
Continuous
 62
     7
370
    25
100
AcDbSpline
210
0.0
220
0.0
230
1.0
 70
     8
 71
     3
 72
    11
 73
     7
 74
     0
 42
0.00000001
 43
0.00000001
 40
0.0
 40
0.0
 40
0.0
 40
0.0
 40
0.1301717237461907
 40
0.5651639935533813
 40
0.9997587141438706
 40
1.0
 40
1.0
 40
1.0
 40
1.0
 10
11.18542803262864
 20
4.469200459252296
 30
0.0
 10
11.19054124370859
 20
4.43631497329854
 30
0.0
 10
11.21274117093285
 20
4.293536710579925
 30
0.0
 10
11.21305254518324
 20
4.039780577560225
 30
0.0
 10
11.20739072549505
 20
3.818915555886082
 30
0.0
 10
11.18862355588222
 20
3.709183151495456
 30
0.0
 10
11.18861314218023
 20
3.70912226215615
 30
0.0
  0
SPLINE
  5
11F
330
1F
100
AcDbEntity
  8
0
  6
Continuous
 62
     7
370
    25
100
AcDbSpline
210
0.0
220
0.0
230
1.0
 70
     8
 71
     3
 72
    12
 73
     8
 74
     0
 42
0.00000001
 43
0.00000001
 40
0.0
 40
0.0
 40
0.0
 40
0.0
 40
0.2041568486934074
 40
0.4083113398546577
 40
0.6125120589599526
 40
0.8167048428518462
 40
1.0
 40
1.0
 40
1.0
 40
1.0
 10
-0.2591711840872831
 20
0.0352811575791452
 30
0.0
 10
-0.3068049040041449
 20
0.037765382769842
 30
0.0
 10
-0.4020717937802663
 20
0.042733804464269
 30
0.0
 10
-0.5427508636462399
 20
0.0326443153093939
 30
0.0
 10
-0.6761347061723659
 20
0.0082858619947913
 30
0.0
 10
-0.7965197266289156
 20
-0.0281189806429346
 30
0.0
 10
-0.8634149421597925
 20
-0.062941920838526
 30
0.0
 10
-0.8950586857309625
 20
-0.0794143722866397
 30
0.0
  0
SPLINE
  5
120
330
1F
100
AcDbEntity
  8
0
  6
Continuous
 62
     7
370
    25
100
AcDbSpline
210
0.0
220
0.0
230
1.0
 70
     8
 71
     3
 72
     9
 73
     5
 74
     0
 42
0.00000001
 43
0.00000001
 40
0.0
 40
0.0
 40
0.0
 40
0.0
 40
0.7322207688605742
 40
1.0
 40
1.0
 40
1.0
 40
1.0
 10
-0.2591711840872831
 20
0.0352811575791452
 30
0.0
 10
-0.3541670050326402
 20
0.0997346256831548
 30
0.0
 10
-0.483903588567661
 20
0.1877592636680992
 30
0.0
 10
-0.6113826572035324
 20
0.2913691228270566
 30
0.0
 10
-0.645518904189216
 20
0.3191136912511061
 30
0.0
  0
SPLINE
  5
123
330
1F
100
AcDbEntity
  8
0
  6
Continuous
 62
     7
370
    25
100
AcDbSpline
210
0.0
220
0.0
230
1.0
 70
     8
 71
     3
 72
    15
 73
    11
 74
     0
 42
0.00000001
 43
0.00000001
 40
0.0
 40
0.0
 40
0.0
 40
0.0
 40
0.1209625626156465
 40
0.2537754477091972
 40
0.3865798974698413
 40
0.5175858740263345
 40
0.6485848106144785
 40
0.7783438583475032
 40
0.9080968528161752
 40
1.0
 40
1.0
 40
1.0
 40
1.0
 10
-1.116281933087511
 20
-0.025571251110256
 30
0.0
 10
-1.0614540418531
 20
-0.0491577241390647
 30
0.0
 10
-0.9464269430210861
 20
-0.0986413629057636
 30
0.0
 10
-0.746388477417355
 20
-0.1541624775809652
 30
0.0
 10
-0.5304277206964105
 20
-0.1940638960673937
 30
0.0
 10
-0.307886287340751
 20
-0.2125688008476005
 30
0.0
 10
-0.086323578758937
 20
-0.2103004810687859
 30
0.0
 10
0.1284010181873664
 20
-0.1852907712524003
 30
0.0
 10
0.3135391009581377
 20
-0.1458106491482222
 30
0.0
 10
0.4177392876589627
 20
-0.1069429280894817
 30
0.0
 10
0.4609428056104815
 20
-0.0908275799537129
 30
0.0
  0
SPLINE
  5
124
330
1F
100
AcDbEntity
  8
0
  6
Continuous
 62
     7
370
    25
100
AcDbSpline
210
0.0
220
0.0
230
1.0
 70
     8
 71
     3
 72
     9
 73
     5
 74
     0
 42
0.00000001
 43
0.00000001
 40
0.0
 40
0.0
 40
0.0
 40
0.0
 40
0.4849960816753275
 40
1.0
 40
1.0
 40
1.0
 40
1.0
 10
0.2992133633488447
 20
-0.1046764170682434
 30
0.0
 10
0.2661335698183361
 20
-0.1218401384744692
 30
0.0
 10
0.1979272589214713
 20
-0.1572295406876521
 30
0.0
 10
0.1147243175871934
 20
-0.1778168642436214
 30
0.0
 10
0.0718744767839024
 20
-0.1884194165427633
 30
0.0
  0
SPLINE
  5
125
330
1F
100
AcDbEntity
  8
0
  6
Continuous
 62
     7
370
    25
100
AcDbSpline
210
0.0
220
0.0
230
1.0
 70
     8
 71
     3
 72
    10
 73
     6
 74
     0
 42
0.00000001
 43
0.00000001
 40
0.0
 40
0.0
 40
0.0
 40
0.0
 40
0.0028377992923934
 40
0.5233393919636061
 40
1.0
 40
1.0
 40
1.0
 40
1.0
 10
-0.6888796361270703
 20
-0.1614347955205056
 30
0.0
 10
-0.6891419175213698
 20
-0.1613699988141341
 30
0.0
 10
-0.7375111541280048
 20
-0.1494203626983682
 30
0.0
 10
-0.8218076450583038
 20
-0.1166294681960607
 30
0.0
 10
-0.8953118322722714
 20
-0.0799792225574796
 30
0.0
 10
-0.930448092497306
 20
-0.062459777517974
 30
0.0
  0
SPLINE
  5
126
330
1F
100
AcDbEntity
  8
0
  6
Continuous
 62
     7
370
    25
100
AcDbSpline
210
0.0
220
0.0
230
1.0
 70
     8
 71
     3
 72
    15
 73
    11
 74
     0
 42
0.00000001
 43
0.00000001
 40
0.0
 40
0.0
 40
0.0
 40
0.0
 40
0.1358510966799001
 40
0.2717004909010364
 40
0.4075848852837692
 40
0.5434631334678163
 40
0.6785954614846228
 40
0.8137278987969645
 40
0.9480469701261307
 40
1.0
 40
1.0
 40
1.0
 40
1.0
 10
-0.2591711840873131
 20
0.3417737080241354
 30
0.0
 10
-0.306812360199643
 20
0.3444201046330988
 30
0.0
 10
-0.4020941153946159
 20
0.3497128646869128
 30
0.0
 10
-0.5426912726138808
 20
0.3400432376056772
 30
0.0
 10
-0.6764277843067087
 20
0.3163331504729512
 30
0.0
 10
-0.7996132677839648
 20
0.278066666540399
 30
0.0
 10
-0.9086872164253432
 20
0.2257806625879438
 30
0.0
 10
-0.9992952454499646
 20
0.1610927375148788
 30
0.0
 10
-1.059584334460404
 20
0.1024326958218631
 30
0.0
 10
-1.08156103752298
 20
0.064137897925352
 30
0.0
 10
-1.087690545395416
 20
0.0534571208992603
 30
0.0
  0
LWPOLYLINE
  5
12F
330
1F
100
AcDbEntity
  8
0
  6
Continuous
 62
     7
370
    25
100
AcDbPolyline
 90
       22
 70
   128
 43
0.0
 10
-2.1785450041
 20
5.7610124216
 10
-2.1988479325
 20
5.7699452423
 10
-2.25109041
 20
5.7822325285
 10
-2.3083299604
 20
5.7819282996
 10
-2.3692249372
 20
5.7690396863
 10
-2.4323480138
 20
5.7438687868
 10
-2.4962196389
 20
5.7070055856
 10
-2.5593427155
 20
5.659314125
 10
-2.6202376923
 20
5.6019122523
 10
-2.6774772427
 20
5.5361454189
 10
-2.7297197202
 20
5.4635551435
 10
-2.7757406052
 20
5.3858428807
 10
-2.8144612073
 20
5.30483014
 10
-2.8449739484
 20
5.2224157914
 10
-2.8665636357
 20
5.1405315575
 10
-2.8787242253
 20
5.0610967352
 10
-2.8811706831
 20
4.9859732094
 10
-2.8738456664
 20
4.916921812
 10
-2.8569208672
 20
4.8555610491
 10
-2.8307929886
 20
4.8033291651
 10
-2.7960744459
 20
4.761450431
 10
-2.7601072227
 20
4.7345558353
  0
LWPOLYLINE
  5
130
330
1F
100
AcDbEntity
  8
0
  6
Continuous
 62
     7
370
    25
100
AcDbPolyline
 90
       22
 70
   128
 43
0.0
 10
-2.147993073
 20
5.6854293343
 10
-2.175723282
 20
5.7008465124
 10
-2.2248493059
 20
5.7151279408
 10
-2.2792608735
 20
5.716705659
 10
-2.3375487536
 20
5.7055388052
 10
-2.3982033208
 20
5.6819165948
 10
-2.4596536537
 20
5.6464508307
 10
-2.520308221
 20
5.6000600576
 10
-2.5785961011
 20
5.5439457722
 10
-2.6330076687
 20
5.4795613049
 10
-2.6821336926
 20
5.4085741797
 10
-2.7247018348
 20
5.3328229258
 10
-2.7596096026
 20
5.2542694609
 10
-2.7859529032
 20
5.1749482784
 10
-2.803049459
 20
5.0969137554
 10
-2.8104564781
 20
5.0221869449
 10
-2.8079821227
 20
4.9527032322
 10
-2.7956904772
 20
4.8902622088
 10
-2.7738998888
 20
4.8364810646
 10
-2.7431747224
 20
4.7927527028
 10
-2.7043107435
 20
4.7602096651
 10
-2.6873813423
 20
4.750849477
  0
LWPOLYLINE
  5
131
330
1F
100
AcDbEntity
  8
0
  6
Continuous
 62
     7
370
    25
100
AcDbPolyline
 90
       14
 70
   128
 43
0.0
 10
-2.3340535518
 20
5.6044005321
 10
-2.3743576647
 20
5.5932719498
 10
-2.4289284873
 20
5.5676167093
 10
-2.4834993099
 20
5.5302813742
 10
-2.5362117886
 20
5.4825373548
 10
-2.5852708632
 20
5.4260105163
 10
-2.6290058857
 20
5.3626258124
 10
-2.6659275123
 20
5.2945417331
 10
-2.6947784214
 20
5.2240768002
 10
-2.7145761298
 20
5.1536306125
 10
-2.7246464504
 20
5.0856021302
 10
-2.7246464504
 20
5.0223079819
 10
-2.7145761298
 20
4.9659035738
 10
-2.7103006156
 20
4.9524899378
  0
SPLINE
  5
132
330
1F
100
AcDbEntity
  8
0
  6
Continuous
 62
     7
370
    25
100
AcDbSpline
210
0.0
220
0.0
230
1.0
 70
     8
 71
     3
 72
    45
 73
    41
 74
     0
 42
0.00000001
 43
0.00000001
 40
0.0
 40
0.0
 40
0.0
 40
0.0
 40
0.0322746275364431
 40
0.0646655764151996
 40
0.0927683553311681
 40
0.1208901860146805
 40
0.1489930317697588
 40
0.1778139878887454
 40
0.2066555243920506
 40
0.2354757376684002
 40
0.2613287354004982
 40
0.2871973744533109
 40
0.3130494773629717
 40
0.3395230447102435
 40
0.3660147341133528
 40
0.3924870156728534
 40
0.425299585533971
 40
0.458111372273612
 40
0.4915820540898597
 40
0.5250504829444038
 40
0.5527916857193207
 40
0.5805309724392763
 40
0.6088179942992342
 40
0.6371021851275196
 40
0.6587514124282835
 40
0.680420990208517
 40
0.7020664475163928
 40
0.7245951569934134
 40
0.7471519735704735
 40
0.7696846923316386
 40
0.7925252530857324
 40
0.8153893189367982
 40
0.8382335091521629
 40
0.861844012220977
 40
0.8854755089634313
 40
0.909088040299823
 40
0.93455790179152
 40
0.9600511411959481
 40
0.985520657398352
 40
0.9999999999999999
 40
0.9999999999999999
 40
0.9999999999999999
 40
0.9999999999999999
 10
8.188005150819437
 20
-0.0373924297391377
 30
0.0
 10
8.03785173288771
 20
-0.1210567063713944
 30
0.0
 10
7.737003727428819
 20
-0.2886867949812981
 30
0.0
 10
7.274432174702524
 20
-0.5095042230464665
 30
0.0
 10
6.814520545412251
 20
-0.7068205098399366
 30
0.0
 10
6.360169261172339
 20
-0.8809872445842948
 30
0.0
 10
5.886912265512663
 20
-1.042770204705337
 30
0.0
 10
5.395332406714633
 20
-1.191124402879007
 30
0.0
 10
4.886496519101575
 20
-1.325209878778806
 30
0.0
 10
4.383731732940612
 20
-1.439225851655613
 30
0.0
 10
3.889672679486318
 20
-1.534477650484033
 30
0.0
 10
3.406539473892086
 20
-1.6125285663861
 30
0.0
 10
2.91333030909267
 20
-1.677055026266125
 30
0.0
 10
2.411018758041112
 20
-1.72720301156761
 30
0.0
 10
1.900840653207428
 20
-1.762293432136116
 30
0.0
 10
1.347234024556554
 20
-1.783131146169538
 30
0.0
 10
0.7513822440124569
 20
-1.784507461820075
 30
0.0
 10
0.1115732806128848
 20
-1.760786965262918
 30
0.0
 10
-0.5280217354497476
 20
-1.710830029424818
 30
0.0
 10
-1.127548073638313
 20
-1.637940229773253
 30
0.0
 10
-1.680949671114632
 20
-1.546921434993233
 30
0.0
 10
-2.191205260768653
 20
-1.441486902250403
 30
0.0
 10
-2.690590469163098
 20
-1.314741869365231
 30
0.0
 10
-3.137505873660117
 20
-1.17752285609162
 30
0.0
 10
-3.530198643176776
 20
-1.035744649986526
 30
0.0
 10
-3.87185987007651
 20
-0.8944917312027556
 30
0.0
 10
-4.201399281154636
 20
-0.7386929760137366
 30
0.0
 10
-4.515474097987828
 20
-0.5676973651558547
 30
0.0
 10
-4.81227972551338
 20
-0.3822168163259811
 30
0.0
 10
-5.088309228008086
 20
-0.184861747830676
 30
0.0
 10
-5.342594809903053
 20
0.0233834490358614
 30
0.0
 10
-5.574965208485284
 20
0.2413369988505252
 30
0.0
 10
-5.786523117239017
 20
0.4694928463636111
 30
0.0
 10
-5.976269459078833
 20
0.7071116195110873
 30
0.0
 10
-6.14344508958695
 20
0.953392353685004
 30
0.0
 10
-6.28954167004403
 20
1.211386793731961
 30
0.0
 10
-6.412624140902532
 20
1.480612934576762
 30
0.0
 10
-6.508131785102847
 20
1.760485190718187
 30
0.0
 10
-6.569510163660182
 20
2.002369651043313
 30
0.0
 10
-6.585827876180337
 20
2.151155464626876
 30
0.0
 10
-6.591742181547942
 20
2.205082431094384
 30
0.0
  0
LWPOLYLINE
  5
133
330
1F
100
AcDbEntity
  8
0
  6
Continuous
 62
     7
370
    25
100
AcDbPolyline
 90
       44
 70
   128
 43
0.0
 10
-6.5919345253
 20
2.1814839166
 10
-6.5858422295
 20
2.1127381076
 10
-6.534071934
 20
1.853360305
 10
-6.4572432793
 20
1.5958530834
 10
-6.3558950124
 20
1.3413924508
 10
-6.226128347
 20
1.0832020691
 10
-6.0706035127
 20
0.8295577505
 10
-5.8896563588
 20
0.5818567867
 10
-5.7067405127
 20
0.3666825995
 10
-5.5033359459
 20
0.1575253305
 10
-5.2797631219
 20
-0.0444183309
 10
-5.0274936789
 20
-0.2445800033
 10
-4.7534889813
 20
-0.4352967579
 10
-4.4586160336
 20
-0.6149586147
 10
-4.1623770611
 20
-0.7729713516
 10
-3.8478441198
 20
-0.9202639348
 10
-3.3735034819
 20
-1.1099538567
 10
-2.8729783397
 20
-1.2758172336
 10
-2.3361729175
 20
-1.4215102867
 10
-1.7812712018
 20
-1.542636087
 10
-1.3178506031
 20
-1.6236752562
 10
-0.8466705183
 20
-1.6891724505
 10
-0.3702491938
 20
-1.7393685917
 10
0.1240292052
 20
-1.7753755701
 10
0.6213521859
 20
-1.7957897955
 10
1.1195040813
 20
-1.8007732916
 10
1.6079560751
 20
-1.7908144391
 10
2.0952058283
 20
-1.7663781298
 10
2.579379099
 20
-1.7277428346
 10
3.0709081595
 20
-1.6737489207
 10
3.5574122461
 20
-1.605494368
 10
4.0371317703
 20
-1.5233929317
 10
4.546783704
 20
-1.4194660334
 10
5.0466223365
 20
-1.3001439893
 10
5.5346925219
 20
-1.1660611072
 10
6.0219778037
 20
-1.0135985001
 10
6.4949616595
 20
-0.8463757899
 10
6.9516853803
 20
-0.6651059247
 10
7.2750216729
 20
-0.5237597036
 10
7.5886142225
 20
-0.3752860675
 10
7.893674528
 20
-0.2191451733
 10
8.1880034895
 20
-0.0556826786
 10
8.188005162
 20
-0.0556817088
 10
8.188005162
 20
-0.0556817088
  0
SPLINE
  5
134
330
1F
100
AcDbEntity
  8
0
  6
Continuous
 62
     7
370
    25
100
AcDbSpline
210
0.0
220
0.0
230
1.0
 70
     8
 71
     3
 72
    10
 73
     6
 74
     0
 42
0.00000001
 43
0.00000001
 40
0.0
 40
0.0
 40
0.0
 40
0.0
 40
0.23667627306124
 40
0.6183381067930037
 40
1.0
 40
1.0
 40
1.0
 40
1.0
 10
8.15770059993726
 20
-0.118039317398759
 30
0.0
 10
8.162160430953154
 20
-0.1157260106385971
 30
0.0
 10
8.173812141668877
 20
-0.1096822881141205
 30
0.0
 10
8.185215046736518
 20
-0.088250443653346
 30
0.0
 10
8.187075123520613
 20
-0.0665379543560955
 30
0.0
 10
8.188005161985123
 20
-0.0556817088615948
 30
0.0
  0
SPLINE
  5
136
330
1F
100
AcDbEntity
  8
0
  6
Continuous
 62
     7
370
    25
100
AcDbSpline
210
0.0
220
0.0
230
1.0
 70
     8
 71
     3
 72
    22
 73
    18
 74
     0
 42
0.00000001
 43
0.00000001
 40
0.0
 40
0.0
 40
0.0
 40
0.0
 40
0.0046502850189879
 40
0.0139821603010908
 40
0.0233257287906366
 40
0.0607114518437944
 40
0.1354598601598683
 40
0.2103218049151587
 40
0.2986329485594137
 40
0.3869989210800299
 40
0.4752877110197417
 40
0.5666028859003682
 40
0.6580133397548271
 40
0.7492826744920574
 40
0.83439166976175
 40
0.9200567454601631
 40
1.0
 40
1.0
 40
1.0
 40
1.0
 10
-2.516849538097526
 20
6.230276030378224
 30
0.0
 10
-2.524188533509526
 20
6.226030011727183
 30
0.0
 10
-2.5462549251136
 20
6.213263372009864
 30
0.0
 10
-2.582854060645905
 20
6.191893674480148
 30
0.0
 10
-2.670416892587446
 20
6.140367519660909
 30
0.0
 10
-2.857859598752206
 20
6.027468209486694
 30
0.0
 10
-3.137882057887967
 20
5.848774885605644
 30
0.0
 10
-3.478419832442781
 20
5.613096816533607
 30
0.0
 10
-3.81867147432347
 20
5.354335104469691
 30
0.0
 10
-4.151935490728587
 20
5.070929857021845
 30
0.0
 10
-4.46060286124557
 20
4.773593287820733
 30
0.0
 10
-4.74003835260589
 20
4.462132480226807
 30
0.0
 10
-4.98474785801141
 20
4.13704357204423
 30
0.0
 10
-5.182820435504548
 20
3.810488925698518
 30
0.0
 10
-5.331688061639932
 20
3.484085521760234
 30
0.0
 10
-5.4329594612735
 20
3.167919758013822
 30
0.0
 10
-5.460624225546742
 20
2.957409273913065
 30
0.0
 10
-5.473978694424598
 20
2.855790634382308
 30
0.0
  0
SPLINE
  5
138
330
1F
100
AcDbEntity
  8
0
  6
Continuous
 62
     7
370
    25
100
AcDbSpline
210
0.0
220
0.0
230
1.0
 70
     8
 71
     3
 72
    44
 73
    40
 74
     0
 42
0.00000001
 43
0.00000001
 40
0.0
 40
0.0
 40
0.0
 40
0.0
 40
0.0269428816449291
 40
0.0595803375880581
 40
0.0929720749852337
 40
0.1263628685556992
 40
0.1581796482009507
 40
0.1899939263295803
 40
0.2117816126458835
 40
0.2335864866394342
 40
0.2553697943725541
 40
0.2791753957541613
 40
0.3029781212512873
 40
0.3274005157892221
 40
0.3518190288154473
 40
0.3755198482060485
 40
0.3992241309156044
 40
0.4236259894516139
 40
0.4480310859030393
 40
0.4772342282931762
 40
0.5064406739221045
 40
0.5365053644685935
 40
0.5665706201803392
 40
0.5954569221065988
 40
0.6243420507769182
 40
0.6540389345565762
 40
0.6837360554214504
 40
0.7132656369847286
 40
0.7429948086701527
 40
0.7738665842211078
 40
0.8047832657101321
 40
0.8356693433943736
 40
0.8677568329989762
 40
0.8998750269225178
 40
0.9319717279618068
 40
0.9578757262713689
 40
0.9838196407255297
 40
0.996772673570548
 40
1.0
 40
1.0
 40
1.0
 40
1.0
 10
9.798590190447296
 20
3.048560232268441
 30
0.0
 10
9.838619835359696
 20
3.146359865769471
 30
0.0
 10
9.927139682228404
 20
3.362629797722962
 30
0.0
 10
10.01074872854567
 20
3.707011246144835
 30
0.0
 10
10.05629354883574
 20
4.07889082997634
 30
0.0
 10
10.05053935542994
 20
4.449405702280261
 30
0.0
 10
9.99700306786982
 20
4.81091690666057
 30
0.0
 10
9.907776684762018
 20
5.124628665517994
 30
0.0
 10
9.796535181051828
 20
5.396943605006438
 30
0.0
 10
9.67648812939344
 20
5.629045455150366
 30
0.0
 10
9.52765965729539
 20
5.863297096127855
 30
0.0
 10
9.346408218986808
 20
6.097937306377236
 30
0.0
 10
9.12708909518804
 20
6.332810695279118
 30
0.0
 10
8.8729748729215
 20
6.558788659073983
 30
0.0
 10
8.586008620570436
 20
6.771459237273752
 30
0.0
 10
8.268996118033353
 20
6.966265572858027
 30
0.0
 10
7.92381001034813
 20
7.143458194328727
 30
0.0
 10
7.550272748249548
 20
7.303596410563956
 30
0.0
 10
7.125650511067592
 20
7.456158026775052
 30
0.0
 10
6.652534695011728
 20
7.595429927438602
 30
0.0
 10
6.126391353907193
 20
7.718510367603648
 30
0.0
 10
5.578257447136581
 20
7.816982329974158
 30
0.0
 10
5.019125223560216
 20
7.889097511386599
 30
0.0
 10
4.45861375075836
 20
7.934656968439375
 30
0.0
 10
3.895374318646355
 20
7.954172740829518
 30
0.0
 10
3.325462175836787
 20
7.945711101055449
 30
0.0
 10
2.75409641113538
 20
7.909341196692746
 30
0.0
 10
2.189397335281396
 20
7.846557610957953
 30
0.0
 10
1.627867229395646
 20
7.758030097997817
 30
0.0
 10
1.071359042209221
 20
7.643951810508701
 30
0.0
 10
0.5238391213812676
 20
7.505851874993822
 30
0.0
 10
-0.0133799102789717
 20
7.345223188814938
 30
0.0
 10
-0.5386050712880809
 20
7.163090097290822
 30
0.0
 10
-1.050681500089472
 20
6.960715020458126
 30
0.0
 10
-1.511195759859382
 20
6.756174775847613
 30
0.0
 10
-1.924531252669206
 20
6.554127340371642
 30
0.0
 10
-2.2327691742265
 20
6.390760718697903
 30
0.0
 10
-2.428127208198858
 20
6.281256128897595
 30
0.0
 10
-2.502095799576984
 20
6.238753569732356
 30
0.0
 10
-2.516849538097526
 20
6.230276030378224
 30
0.0
  0
SPLINE
  5
139
330
1F
100
AcDbEntity
  8
0
  6
Continuous
 62
     7
370
    25
100
AcDbSpline
210
0.0
220
0.0
230
1.0
 70
     8
 71
     3
 72
    19
 73
    15
 74
     0
 42
0.00000001
 43
0.00000001
 40
0.0
 40
0.0
 40
0.0
 40
0.0
 40
0.0161294802897323
 40
0.1114390669663726
 40
0.2066160189158713
 40
0.3017906065247152
 40
0.3967950187461136
 40
0.4917962437406744
 40
0.586426528624814
 40
0.6810513547110687
 40
0.7752594891190884
 40
0.8694705178658351
 40
0.9638286900260118
 40
1.0
 40
1.0
 40
1.0
 40
1.0
 10
-2.88335195676387
 20
5.15278175227393
 30
0.0
 10
-2.88283984273543
 20
5.157595475989814
 30
0.0
 10
-2.879301631430131
 20
5.190853638676775
 30
0.0
 10
-2.862410644761065
 20
5.255907643641174
 30
0.0
 10
-2.832330947378467
 20
5.345003518592499
 30
0.0
 10
-2.792024141962781
 20
5.432352020694839
 30
0.0
 10
-2.743421699426894
 20
5.514884158239791
 30
0.0
 10
-2.687851119257155
 20
5.590455743444094
 30
0.0
 10
-2.626599253877173
 20
5.656566761188144
 30
0.0
 10
-2.561606462664991
 20
5.711540467726711
 30
0.0
 10
-2.494290994926373
 20
5.75356139585472
 30
0.0
 10
-2.426998340777331
 20
5.780836293623834
 30
0.0
 10
-2.374030651139969
 20
5.793380928000495
 30
0.0
 10
-2.345713283426165
 20
5.791753091810902
 30
0.0
 10
-2.33786619579143
 20
5.791301998567922
 30
0.0
  0
SPLINE
  5
13A
330
1F
100
AcDbEntity
  8
0
  6
Continuous
 62
     7
370
    25
100
AcDbSpline
210
0.0
220
0.0
230
1.0
 70
     8
 71
     3
 72
    24
 73
    20
 74
     0
 42
0.00000001
 43
0.00000001
 40
0.0
 40
0.0
 40
0.0
 40
0.0
 40
0.0000003216163966
 40
0.0526007241674845
 40
0.1052006347611285
 40
0.1580923208143709
 40
0.2109840866203363
 40
0.2810845930152873
 40
0.3512273509045379
 40
0.4213277508519092
 40
0.49302153763007
 40
0.5647609242896227
 40
0.6364530461306259
 40
0.7066332151344626
 40
0.7768585218208848
 40
0.8470360403740435
 40
0.9190156040139263
 40
0.9910479096832976
 40
1.0
 40
1.0
 40
1.0
 40
1.0
 10
8.18800516201223
 20
-0.055681812435235
 30
0.0
 10
8.188005718390826
 20
-0.0556814921293797
 30
0.0
 10
8.279002065118345
 20
-0.0032951084114222
 30
0.0
 10
8.457716955462404
 20
0.1038165333029754
 30
0.0
 10
8.715752149055666
 20
0.2706244993888656
 30
0.0
 10
8.963210279360634
 20
0.4429313709840086
 30
0.0
 10
9.225531633257718
 20
0.6401024522247941
 30
0.0
 10
9.497161974130849
 20
0.8636051853636373
 30
0.0
 10
9.77198588129296
 20
1.115102478415599
 30
0.0
 10
10.02706324955999
 20
1.376036849818369
 30
0.0
 10
10.26101019347461
 20
1.646010154131351
 30
0.0
 10
10.47259750035558
 20
1.924503102964776
 30
0.0
 10
10.6580306189951
 20
2.206862917830192
 30
0.0
 10
10.81709663482504
 20
2.492299414890855
 30
0.0
 10
10.94959454794672
 20
2.779977797592981
 30
0.0
 10
11.05789867747689
 20
3.073685152741955
 30
0.0
 10
11.13668094028094
 20
3.372914736891838
 30
0.0
 10
11.18046417111779
 20
3.587881126486643
 30
0.0
 10
11.18887345744994
 20
3.70221538964864
 30
0.0
 10
11.18980302776812
 20
3.714854005244364
 30
0.0
  0
SPLINE
  5
13B
330
1F
100
AcDbEntity
  8
0
  6
Continuous
 62
     7
370
    25
100
AcDbSpline
210
0.0
220
0.0
230
1.0
 70
     8
 71
     3
 72
    21
 73
    17
 74
     0
 42
0.00000001
 43
0.00000001
 40
0.0
 40
0.0
 40
0.0
 40
0.0
 40
0.0732114363040169
 40
0.1465237844161104
 40
0.2197828695827621
 40
0.2950572468198882
 40
0.3703884454776803
 40
0.4456660396215747
 40
0.518883166293645
 40
0.592149012332289
 40
0.6653672877538547
 40
0.7403815696270323
 40
0.8154469636175766
 40
0.8904605695811229
 40
0.9451894016532602
 40
1.0
 40
1.0
 40
1.0
 40
1.0
 10
11.18861314218023
 20
3.709122262156151
 30
0.0
 10
11.17318250683322
 20
3.606617570686132
 30
0.0
 10
11.14229996714912
 20
3.401466899249725
 30
0.0
 10
11.05859364223259
 20
3.096234826914926
 30
0.0
 10
10.94743970330165
 20
2.791099354854249
 30
0.0
 10
10.80570056583318
 20
2.48721774104736
 30
0.0
 10
10.6342254534195
 20
2.185527033628926
 30
0.0
 10
10.43675280557134
 20
1.892280002317607
 30
0.0
 10
10.21490398833412
 20
1.60809276815565
 30
0.0
 10
9.970415506612978
 20
1.333407845165679
 30
0.0
 10
9.699805140319176
 20
1.064084177668769
 30
0.0
 10
9.402997225736431
 20
0.8010869310718559
 30
0.0
 10
9.080373474896868
 20
0.5452767814960059
 30
0.0
 10
8.765833050809317
 20
0.3218607715826878
 30
0.0
 10
8.467744813878733
 20
0.1277383795042896
 30
0.0
 10
8.281298096544813
 20
0.0176785622993736
 30
0.0
 10
8.18800515081943
 20
-0.0373924236630898
 30
0.0
  0
SPLINE
  5
13C
330
1F
100
AcDbEntity
  8
0
  6
Continuous
 62
     7
370
    25
100
AcDbSpline
210
0.0
220
0.0
230
1.0
 70
     8
 71
     3
 72
    18
 73
    14
 74
     0
 42
0.00000001
 43
0.00000001
 40
0.0
 40
0.0
 40
0.0
 40
0.0
 40
0.0885256478381016
 40
0.1857279044063279
 40
0.2829035134829219
 40
0.3783284606688001
 40
0.4737456280282547
 40
0.5776309412376621
 40
0.6815471751294021
 40
0.784817603965528
 40
0.888083393682988
 40
0.9895651086271353
 40
1.0
 40
1.0
 40
1.0
 40
1.0
 10
-1.247035836621312
 20
1.030401544300179
 30
0.0
 10
-1.292016034180097
 20
1.002397599968063
 30
0.0
 10
-1.386385045154793
 20
0.9436449782936375
 30
0.0
 10
-1.49786160815499
 20
0.8429702080307732
 30
0.0
 10
-1.582310202064093
 20
0.7343842546541209
 30
0.0
 10
-1.630363080535195
 20
0.6232277816046238
 30
0.0
 10
-1.643430974261498
 20
0.5092788149764077
 30
0.0
 10
-1.615755791456016
 20
0.3944188787239102
 30
0.0
 10
-1.547121085395103
 20
0.2807098504042752
 30
0.0
 10
-1.441891834729651
 20
0.1713002645692203
 30
0.0
 10
-1.303367701966198
 20
0.0711367863615071
 30
0.0
 10
-1.192014064575535
 20
0.0045618904523082
 30
0.0
 10
-1.1227408369868
 20
-0.0230013106937887
 30
0.0
 10
-1.116281933087511
 20
-0.025571251110256
 30
0.0
  0
SPLINE
  5
13D
330
1F
100
AcDbEntity
  8
0
  6
Continuous
 62
     7
370
    25
100
AcDbSpline
210
0.0
220
0.0
230
1.0
 70
     8
 71
     3
 72
    28
 73
    24
 74
     0
 42
0.00000001
 43
0.00000001
 40
0.0
 40
0.0
 40
0.0
 40
0.0
 40
0.0095194427534516
 40
0.0542483702612382
 40
0.092030403883726
 40
0.1298126919346369
 40
0.1801560232852977
 40
0.2305009510526756
 40
0.2815197664755463
 40
0.3325407108492833
 40
0.3844985485529163
 40
0.4364596662262347
 40
0.4898687044418295
 40
0.5432837782469621
 40
0.5945343884693978
 40
0.6457904795975903
 40
0.6949605778343387
 40
0.7441176330879361
 40
0.7937227601199642
 40
0.843327394315154
 40
0.8943169112209861
 40
0.9453197729903594
 40
0.9999999999999999
 40
0.9999999999999999
 40
0.9999999999999999
 40
0.9999999999999999
 10
0.4609428056104815
 20
-0.0908275799537129
 30
0.0
 10
0.472911089330297
 20
-0.0867730038571686
 30
0.0
 10
0.5411146495007372
 20
-0.063667224345237
 30
0.0
 10
0.6414413780213444
 20
-0.0102595925707584
 30
0.0
 10
0.7593208593882226
 20
0.066564121800537
 30
0.0
 10
0.8629517832691572
 20
0.1574869844394459
 30
0.0
 10
0.9505575332654597
 20
0.2675880945055564
 30
0.0
 10
1.01143627369123
 20
0.3970458554355963
 30
0.0
 10
1.034191671095042
 20
0.5320340976210896
 30
0.0
 10
1.01924491035358
 20
0.6688754658773785
 30
0.0
 10
0.9646521182106135
 20
0.8023413058870217
 30
0.0
 10
0.8722841199619725
 20
0.9291550382873363
 30
0.0
 10
0.7426606437052901
 20
1.043311131940985
 30
0.0
 10
0.5826723531339677
 20
1.139576529481878
 30
0.0
 10
0.3988370050471008
 20
1.213586955385417
 30
0.0
 10
0.2013154019242609
 20
1.264499563548218
 30
0.0
 10
-0.0074205029683138
 20
1.291780526356478
 30
0.0
 10
-0.2224893076972387
 20
1.297588256332283
 30
0.0
 10
-0.4412887230043064
 20
1.282436854886253
 30
0.0
 10
-0.6596210442902485
 20
1.247972490526666
 30
0.0
 10
-0.8692776698660231
 20
1.19436049298513
 30
0.0
 10
-1.071425903635224
 20
1.123020643182662
 30
0.0
 10
-1.187156861472892
 20
1.0619825410351
 30
0.0
 10
-1.247035836621312
 20
1.030401544300179
 30
0.0
  0
SPLINE
  5
13E
330
1F
100
AcDbEntity
  8
0
  6
Continuous
 62
     7
370
    25
100
AcDbSpline
210
0.0
220
0.0
230
1.0
 70
     8
 71
     3
 72
    27
 73
    23
 74
     0
 42
0.00000001
 43
0.00000001
 40
0.0
 40
0.0
 40
0.0
 40
0.0
 40
0.0419201930297239
 40
0.0846247096832476
 40
0.1355365870969501
 40
0.187887604570359
 40
0.2392208257813592
 40
0.2919947141905797
 40
0.3450958105250086
 40
0.3997719810203535
 40
0.453062977416274
 40
0.5080066849633623
 40
0.5599625051373568
 40
0.6134348243157273
 40
0.6654212472334711
 40
0.7189055712601496
 40
0.7709736342843793
 40
0.824544345679922
 40
0.876453072193848
 40
0.9298641605924187
 40
0.9866311086379206
 40
1.0
 40
1.0
 40
1.0
 40
1.0
 10
-0.9366786895073186
 20
0.5820242883074952
 30
0.0
 10
-0.9074455959554365
 20
0.5978271530654107
 30
0.0
 10
-0.8484324598943228
 20
0.6297285529791464
 30
0.0
 10
-0.740213692023977
 20
0.6736476756575485
 30
0.0
 10
-0.6144510910841718
 20
0.7136216518958012
 30
0.0
 10
-0.4728202693957241
 20
0.7459719054735136
 30
0.0
 10
-0.3253748693389412
 20
0.7678584529582367
 30
0.0
 10
-0.1769214066272606
 20
0.7776487807393294
 30
0.0
 10
-0.0290449166686526
 20
0.7732837522424246
 30
0.0
 10
0.1116955203306462
 20
0.7518262409405826
 30
0.0
 10
0.2421813700857403
 20
0.7117988107127364
 30
0.0
 10
0.3548104782206323
 20
0.6561507037415665
 30
0.0
 10
0.4484691866678934
 20
0.5867083589418327
 30
0.0
 10
0.5193308155099475
 20
0.5079138405778255
 30
0.0
 10
0.5675185855400354
 20
0.4206664779285498
 30
0.0
 10
0.5908196782164955
 20
0.329616417181756
 30
0.0
 10
0.5889891885674543
 20
0.2362811539031058
 30
0.0
 10
0.5619344027207406
 20
0.1456877644736988
 30
0.0
 10
0.5104924051773767
 20
0.0588592296825451
 30
0.0
 10
0.4328550565318238
 20
-0.0207366003635832
 30
0.0
 10
0.3611631616823636
 20
-0.0767691346847935
 30
0.0
 10
0.3091313657924196
 20
-0.1002085333572673
 30
0.0
 10
0.2992133633488447
 20
-0.1046764170682434
 30
0.0
  0
SPLINE
  5
13F
330
1F
100
AcDbEntity
  8
0
  6
Continuous
 62
     7
370
    25
100
AcDbSpline
210
0.0
220
0.0
230
1.0
 70
     8
 71
     3
 72
    18
 73
    14
 74
     0
 42
0.00000001
 43
0.00000001
 40
0.0
 40
0.0
 40
0.0
 40
0.0
 40
0.0061609223181745
 40
0.1156182437537294
 40
0.2210254779401402
 40
0.329550241702835
 40
0.4334942288309144
 40
0.5403270784995237
 40
0.6450788920331821
 40
0.7529052777137906
 40
0.8560474044665446
 40
0.9621314756679812
 40
1.0
 40
1.0
 40
1.0
 40
1.0
 10
-0.930448092497306
 20
-0.062459777517974
 30
0.0
 10
-0.9326688351050663
 20
-0.0614030639021109
 30
0.0
 10
-0.9743441471571032
 20
-0.0415723687387692
 30
0.0
 10
-1.037586395421765
 20
0.0030391894091513
 30
0.0
 10
-1.11596550583334
 20
0.0692365248665426
 30
0.0
 10
-1.168338796446675
 20
0.1366570806470982
 30
0.0
 10
-1.197227585611547
 20
0.2060287826323707
 30
0.0
 10
-1.201186141298725
 20
0.2768913624344145
 30
0.0
 10
-1.18007231076945
 20
0.350357137330131
 30
0.0
 10
-1.134700961917678
 20
0.4232653419141804
 30
0.0
 10
-1.065798345415086
 20
0.4943522473929255
 30
0.0
 10
-0.9961432541777866
 20
0.546608445112261
 30
0.0
 10
-0.9490635836042342
 20
0.5746481060423657
 30
0.0
 10
-0.9366786895073186
 20
0.5820242883074952
 30
0.0
  0
SPLINE
  5
140
330
1F
100
AcDbEntity
  8
0
  6
Continuous
 62
     7
370
    25
100
AcDbSpline
210
0.0
220
0.0
230
1.0
 70
     8
 71
     3
 72
    14
 73
    10
 74
     0
 42
0.00000001
 43
0.00000001
 40
0.0
 40
0.0
 40
0.0
 40
0.0
 40
0.0773787346077388
 40
0.287449738258632
 40
0.5036701148412871
 40
0.5052903202178523
 40
0.7195160783988441
 40
0.9402056779215191
 40
1.0
 40
1.0
 40
1.0
 40
1.0
 10
-0.9033229562523861
 20
0.4856553642930989
 30
0.0
 10
-0.9152174679668973
 20
0.4785683412387292
 30
0.0
 10
-0.9594036942780799
 20
0.4522411735441609
 30
0.0
 10
-1.026129915781196
 20
0.4022225425805324
 30
0.0
 10
-1.06974948007581
 20
0.3571315930255119
 30
0.0
 10
-1.105994133927917
 20
0.3110584250452079
 30
0.0
 10
-1.133873935545882
 20
0.2639648073371874
 30
0.0
 10
-1.152640549914333
 20
0.2105522425218095
 30
0.0
 10
-1.149583260425318
 20
0.1815000566384134
 30
0.0
 10
-1.14893149917159
 20
0.1753066329659295
 30
0.0
  0
SPLINE
  5
141
330
1F
100
AcDbEntity
  8
0
  6
Continuous
 62
     7
370
    25
100
AcDbSpline
210
0.0
220
0.0
230
1.0
 70
     8
 71
     3
 72
    22
 73
    18
 74
     0
 42
0.00000001
 43
0.00000001
 40
0.0
 40
0.0
 40
0.0
 40
0.0
 40
0.0306178320913209
 40
0.1004720991784683
 40
0.172316998723472
 40
0.2416385693028
 40
0.3129438370401826
 40
0.3836119251702385
 40
0.4564340341258616
 40
0.5274001285169435
 40
0.6004530335503223
 40
0.6704602195497066
 40
0.7424279305962084
 40
0.8122474089577956
 40
0.8840941557367663
 40
0.9414903574104913
 40
1.0
 40
1.0
 40
1.0
 40
1.0
 10
0.5386540723739295
 20
0.2141887689095397
 30
0.0
 10
0.5393592262778362
 20
0.2268008381319434
 30
0.0
 10
0.5416731815166684
 20
0.268187212777268
 30
0.0
 10
0.5204412283423229
 20
0.3384510078016018
 30
0.0
 10
0.4768479054859727
 20
0.4202205310724921
 30
0.0
 10
0.4097782638500603
 20
0.4952199128509145
 30
0.0
 10
0.3236989604522773
 20
0.5597871720797684
 30
0.0
 10
0.2183701075185476
 20
0.6123671645110103
 30
0.0
 10
0.0984722786910853
 20
0.6494709619311918
 30
0.0
 10
-0.0337941803505229
 20
0.6695208812170552
 30
0.0
 10
-0.171609871967571
 20
0.6734046524350454
 30
0.0
 10
-0.3137596029043315
 20
0.6639926421856814
 30
0.0
 10
-0.4539068980782777
 20
0.6433434420905167
 30
0.0
 10
-0.591523431380869
 20
0.6122654670608909
 30
0.0
 10
-0.7123570574294277
 20
0.5742793860042575
 30
0.0
 10
-0.8178668634044757
 20
0.5317542535184259
 30
0.0
 10
-0.8746557459039809
 20
0.5011197567104105
 30
0.0
 10
-0.9033229562523861
 20
0.4856553642930989
 30
0.0
  0
LINE
  5
142
330
1F
100
AcDbEntity
  8
0
  6
Continuous
 62
     7
370
    25
100
AcDbLine
 10
-2.6615860091
 20
5.1630516764
 30
0.0
 11
-2.6996663494
 21
5.1850295616
 31
0.0
  0
LINE
  5
143
330
1F
100
AcDbEntity
  8
0
  6
Continuous
 62
     7
370
    25
100
AcDbLine
 10
-2.529886394
 20
5.4789228036
 30
0.0
 11
-2.4919041669
 21
5.457001544
 31
0.0
  0
LINE
  5
144
330
1F
100
AcDbEntity
  8
0
  6
Continuous
 62
     7
370
    25
100
AcDbLine
 10
-2.7124746144
 20
5.0152064213
 30
0.0
 11
-2.7030298666
 21
5.0097554306
 31
0.0
  0
LINE
  5
145
330
1F
100
AcDbEntity
  8
0
  6
Continuous
 62
     7
370
    25
100
AcDbLine
 10
-2.3799097604
 20
5.5695322321
 30
0.0
 11
-2.3892822844
 21
5.5749415392
 31
0.0
  0
LINE
  5
146
330
1F
100
AcDbEntity
  8
0
  6
Continuous
 62
     7
370
    25
100
AcDbLine
 10
-2.7124587866
 20
5.0150695061
 30
0.0
 11
-2.7030494676
 21
5.009638963
 31
0.0
  0
LINE
  5
147
330
1F
100
AcDbEntity
  8
0
  6
Continuous
 62
     7
370
    25
100
AcDbLine
 10
-2.1693624265
 20
5.7560327799
 30
0.0
 11
-2.1905756299
 21
5.7682758783
 31
0.0
  0
LINE
  5
148
330
1F
100
AcDbEntity
  8
0
  6
Continuous
 62
     7
370
    25
100
AcDbLine
 10
-2.7804184297
 20
4.7462751583
 30
0.0
 11
-2.7592052262
 21
4.73403206
 31
0.0
  0
LINE
  5
149
330
1F
100
AcDbEntity
  8
0
  6
Continuous
 62
     7
370
    25
100
AcDbLine
 10
-6.6154842047
 20
2.5245928941
 30
0.0
 11
-6.6154841197
 21
2.5042688373
 31
0.0
  0
LINE
  5
14A
330
1F
100
AcDbEntity
  8
0
  6
Continuous
 62
     7
370
    25
100
AcDbLine
 10
-6.591514306
 20
2.1702483392
 30
0.0
 11
-6.589535843
 21
2.1544170505
 31
0.0
  0
LINE
  5
14B
330
1F
100
AcDbEntity
  8
0
  6
Continuous
 62
     7
370
    25
100
AcDbLine
 10
11.2120787378
 20
4.0733055589
 30
0.0
 11
11.2120787971
 21
4.0928238484
 31
0.0
  0
LINE
  5
14C
330
1F
100
AcDbEntity
  8
0
  6
Continuous
 62
     7
370
    25
100
AcDbLine
 10
-0.9236241417
 20
-0.0652567494
 30
0.0
 11
-0.9630873521
 21
-0.0426923358
 31
0.0
  0
LINE
  5
14D
330
1F
100
AcDbEntity
  8
0
  6
Continuous
 62
     7
370
    25
100
AcDbLine
 10
-1.9422255082
 20
5.1847795979
 30
0.0
 11
-1.9422255082
 21
5.3430824225
 31
0.0
  0
LINE
  5
14E
330
1F
100
AcDbEntity
  8
0
  6
Continuous
 62
     7
370
    25
100
AcDbLine
 10
-2.4970287863
 20
4.8645772242
 30
0.0
 11
-2.4970287761
 21
5.022880385
 31
0.0
  0
LINE
  5
14F
330
1F
100
AcDbEntity
  8
0
  6
Continuous
 62
     7
370
    25
100
AcDbLine
 10
-2.4929004722
 20
4.8700376847
 30
0.0
 11
-2.4929004532
 21
5.0208163696
 31
0.0
  0
LINE
  5
150
330
1F
100
AcDbEntity
  8
0
  6
Continuous
 62
     7
370
    25
100
AcDbLine
 10
-1.9451651651
 20
5.1861610415
 30
0.0
 11
-1.9451651461
 21
5.3369397264
 31
0.0
  0
LINE
  5
151
330
1F
100
AcDbEntity
  8
0
  6
Continuous
 62
     7
370
    25
100
AcDbLine
 10
-2.3963494444
 20
4.9428681502
 30
0.0
 11
-2.3960936761
 21
4.9785384333
 31
0.0
  0
LINE
  5
152
330
1F
100
AcDbEntity
  8
0
  6
Continuous
 62
     7
370
    25
100
AcDbLine
 10
-2.3688955313
 20
4.9571601137
 30
0.0
 11
-2.3963494444
 21
4.9428681502
 31
0.0
  0
LINE
  5
153
330
1F
100
AcDbEntity
  8
0
  6
Continuous
 62
     7
370
    25
100
AcDbLine
 10
-2.3689111676
 20
5.0551661248
 30
0.0
 11
-2.3688955313
 21
4.9571601137
 31
0.0
  0
LINE
  5
154
330
1F
100
AcDbEntity
  8
0
  6
Continuous
 62
     7
370
    25
100
AcDbLine
 10
-2.3963673139
 20
5.0408754501
 30
0.0
 11
-2.3689111676
 21
5.0551661248
 31
0.0
  0
LINE
  5
155
330
1F
100
AcDbEntity
  8
0
  6
Continuous
 62
     7
370
    25
100
AcDbLine
 10
-2.3960983745
 20
5.0049023344
 30
0.0
 11
-2.3963673139
 21
5.0408754501
 31
0.0
  0
LINE
  5
156
330
1F
100
AcDbEntity
  8
0
  6
Continuous
 62
     7
370
    25
100
AcDbLine
 10
-2.423936561
 20
4.9908321524
 30
0.0
 11
-2.3960983745
 21
5.0049023344
 31
0.0
  0
LINE
  5
157
330
1F
100
AcDbEntity
  8
0
  6
Continuous
 62
     7
370
    25
100
AcDbLine
 10
-2.4242428515
 20
5.0268268251
 30
0.0
 11
-2.423936561
 21
4.9908321524
 31
0.0
  0
LINE
  5
158
330
1F
100
AcDbEntity
  8
0
  6
Continuous
 62
     7
370
    25
100
AcDbLine
 10
-2.4526182415
 20
5.0130666876
 30
0.0
 11
-2.4242428515
 21
5.0268268251
 31
0.0
  0
LINE
  5
159
330
1F
100
AcDbEntity
  8
0
  6
Continuous
 62
     7
370
    25
100
AcDbLine
 10
-2.4525952366
 20
4.9150564237
 30
0.0
 11
-2.4526182415
 21
5.0130666876
 31
0.0
  0
LINE
  5
15A
330
1F
100
AcDbEntity
  8
0
  6
Continuous
 62
     7
370
    25
100
AcDbLine
 10
-2.4242225346
 20
4.9288181127
 30
0.0
 11
-2.4525952366
 21
4.9150564237
 31
0.0
  0
LINE
  5
15B
330
1F
100
AcDbEntity
  8
0
  6
Continuous
 62
     7
370
    25
100
AcDbLine
 10
-2.4239311999
 20
4.9644678689
 30
0.0
 11
-2.4242225346
 21
4.9288181127
 31
0.0
  0
LINE
  5
15C
330
1F
100
AcDbEntity
  8
0
  6
Continuous
 62
     7
370
    25
100
AcDbLine
 10
-2.3960936761
 20
4.9785384333
 30
0.0
 11
-2.4239311999
 21
4.9644678689
 31
0.0
  0
LINE
  5
15D
330
1F
100
AcDbEntity
  8
0
  6
Continuous
 62
     7
370
    25
100
AcDbLine
 10
-2.2817661878
 20
5.0048186188
 30
0.0
 11
-2.3553033604
 21
4.9643838863
 31
0.0
  0
LINE
  5
15E
330
1F
100
AcDbEntity
  8
0
  6
Continuous
 62
     7
370
    25
100
AcDbLine
 10
-2.2816504289
 20
5.0311356132
 30
0.0
 11
-2.2817661878
 21
5.0048186188
 31
0.0
  0
LINE
  5
15F
330
1F
100
AcDbEntity
  8
0
  6
Continuous
 62
     7
370
    25
100
AcDbLine
 10
-2.3281952777
 20
5.0052592483
 30
0.0
 11
-2.2816504289
 21
5.0311356132
 31
0.0
  0
LINE
  5
160
330
1F
100
AcDbEntity
  8
0
  6
Continuous
 62
     7
370
    25
100
AcDbLine
 10
-2.3282009201
 20
5.0504918833
 30
0.0
 11
-2.3281952777
 21
5.0052592483
 31
0.0
  0
LINE
  5
161
330
1F
100
AcDbEntity
  8
0
  6
Continuous
 62
     7
370
    25
100
AcDbLine
 10
-2.281654637
 20
5.0763674203
 30
0.0
 11
-2.3282009201
 21
5.0504918833
 31
0.0
  0
LINE
  5
162
330
1F
100
AcDbEntity
  8
0
  6
Continuous
 62
     7
370
    25
100
AcDbLine
 10
-2.2817758753
 20
5.1028211965
 30
0.0
 11
-2.281654637
 21
5.0763674203
 31
0.0
  0
LINE
  5
163
330
1F
100
AcDbEntity
  8
0
  6
Continuous
 62
     7
370
    25
100
AcDbLine
 10
-2.3553179541
 20
5.0623892956
 30
0.0
 11
-2.2817758753
 21
5.1028211965
 31
0.0
  0
LINE
  5
164
330
1F
100
AcDbEntity
  8
0
  6
Continuous
 62
     7
370
    25
100
AcDbLine
 10
-2.3553033604
 20
4.9643838863
 30
0.0
 11
-2.3553179541
 21
5.0623892956
 31
0.0
  0
LINE
  5
165
330
1F
100
AcDbEntity
  8
0
  6
Continuous
 62
     7
370
    25
100
AcDbLine
 10
-2.2882391619
 20
5.038711399
 30
0.0
 11
-2.3277528139
 21
5.0167755733
 31
0.0
  0
LINE
  5
166
330
1F
100
AcDbEntity
  8
0
  6
Continuous
 62
     7
370
    25
100
AcDbLine
 10
-2.2882413355
 20
5.0613273427
 30
0.0
 11
-2.2882391619
 21
5.038711399
 31
0.0
  0
LINE
  5
167
330
1F
100
AcDbEntity
  8
0
  6
Continuous
 62
     7
370
    25
100
AcDbLine
 10
-2.2455539959
 20
5.123354092
 30
0.0
 11
-2.2454545308
 21
5.0516835037
 31
0.0
  0
LINE
  5
168
330
1F
100
AcDbEntity
  8
0
  6
Continuous
 62
     7
370
    25
100
AcDbLine
 10
-2.2718698565
 20
5.1084053069
 30
0.0
 11
-2.2455539959
 21
5.123354092
 31
0.0
  0
LINE
  5
169
330
1F
100
AcDbEntity
  8
0
  6
Continuous
 62
     7
370
    25
100
AcDbLine
 10
-2.2718607212
 20
5.0104030479
 30
0.0
 11
-2.2718698565
 21
5.1084053069
 31
0.0
  0
LINE
  5
16A
330
1F
100
AcDbEntity
  8
0
  6
Continuous
 62
     7
370
    25
100
AcDbLine
 10
-2.2128123501
 20
5.0441314938
 30
0.0
 11
-2.2718607212
 21
5.0104030479
 31
0.0
  0
LINE
  5
16B
330
1F
100
AcDbEntity
  8
0
  6
Continuous
 62
     7
370
    25
100
AcDbLine
 10
-2.2127339939
 20
5.070470075
 30
0.0
 11
-2.2128123501
 21
5.0441314938
 31
0.0
  0
LINE
  5
16C
330
1F
100
AcDbEntity
  8
0
  6
Continuous
 62
     7
370
    25
100
AcDbLine
 10
-2.2454545308
 20
5.0516835037
 30
0.0
 11
-2.2127339939
 21
5.070470075
 31
0.0
  0
LINE
  5
16D
330
1F
100
AcDbEntity
  8
0
  6
Continuous
 62
     7
370
    25
100
AcDbLine
 10
-2.222624101
 20
5.1364899637
 30
0.0
 11
-2.196504795
 21
5.1515521893
 31
0.0
  0
LINE
  5
16E
330
1F
100
AcDbEntity
  8
0
  6
Continuous
 62
     7
370
    25
100
AcDbLine
 10
-2.1672204809
 20
5.0705578663
 30
0.0
 11
-2.1964977937
 21
5.0535511619
 31
0.0
  0
LINE
  5
16F
330
1F
100
AcDbEntity
  8
0
  6
Continuous
 62
     7
370
    25
100
AcDbLine
 10
-2.1672283414
 20
5.1685593895
 30
0.0
 11
-2.1413271043
 21
5.1837474725
 31
0.0
  0
LINE
  5
170
330
1F
100
AcDbEntity
  8
0
  6
Continuous
 62
     7
370
    25
100
AcDbLine
 10
-2.1817448408
 20
5.0995030052
 30
0.0
 11
-2.1672283414
 21
5.1685593895
 31
0.0
  0
LINE
  5
171
330
1F
100
AcDbEntity
  8
0
  6
Continuous
 62
     7
370
    25
100
AcDbLine
 10
-2.1090333503
 20
5.1763965554
 30
0.0
 11
-2.1090284514
 21
5.1311643496
 31
0.0
  0
LINE
  5
172
330
1F
100
AcDbEntity
  8
0
  6
Continuous
 62
     7
370
    25
100
AcDbLine
 10
-2.064556101
 20
5.2034662254
 30
0.0
 11
-2.1090333503
 21
5.1763965554
 31
0.0
  0
LINE
  5
173
330
1F
100
AcDbEntity
  8
0
  6
Continuous
 62
     7
370
    25
100
AcDbLine
 10
-2.0647382962
 20
5.2299551826
 30
0.0
 11
-2.064556101
 21
5.2034662254
 31
0.0
  0
LINE
  5
174
330
1F
100
AcDbEntity
  8
0
  6
Continuous
 62
     7
370
    25
100
AcDbLine
 10
-2.1348742951
 20
5.1875574791
 30
0.0
 11
-2.0647382962
 21
5.2299551826
 31
0.0
  0
LINE
  5
175
330
1F
100
AcDbEntity
  8
0
  6
Continuous
 62
     7
370
    25
100
AcDbLine
 10
-2.1348647952
 20
5.0895550096
 30
0.0
 11
-2.1348742951
 21
5.1875574791
 31
0.0
  0
LINE
  5
176
330
1F
100
AcDbEntity
  8
0
  6
Continuous
 62
     7
370
    25
100
AcDbLine
 10
-2.0647239555
 20
5.1319499193
 30
0.0
 11
-2.1348647952
 21
5.0895550096
 31
0.0
  0
LINE
  5
177
330
1F
100
AcDbEntity
  8
0
  6
Continuous
 62
     7
370
    25
100
AcDbLine
 10
-2.0645496594
 20
5.1582331293
 30
0.0
 11
-2.0647239555
 21
5.1319499193
 31
0.0
  0
LINE
  5
178
330
1F
100
AcDbEntity
  8
0
  6
Continuous
 62
     7
370
    25
100
AcDbLine
 10
-2.1090284514
 20
5.1311643496
 30
0.0
 11
-2.0645496594
 21
5.1582331293
 31
0.0
  0
LINE
  5
179
330
1F
100
AcDbEntity
  8
0
  6
Continuous
 62
     7
370
    25
100
AcDbLine
 10
-2.070820926
 20
5.1656256908
 30
0.0
 11
-2.1089515084
 21
5.1424876285
 31
0.0
  0
LINE
  5
17A
330
1F
100
AcDbEntity
  8
0
  6
Continuous
 62
     7
370
    25
100
AcDbLine
 10
-2.070824011
 20
5.1882421605
 30
0.0
 11
-2.070820926
 21
5.1656256908
 31
0.0
  0
LINE
  5
17B
330
1F
100
AcDbEntity
  8
0
  6
Continuous
 62
     7
370
    25
100
AcDbLine
 10
-2.0304743983
 20
5.2516181177
 30
0.0
 11
-2.0179726033
 21
5.2356312067
 31
0.0
  0
LINE
  5
17C
330
1F
100
AcDbEntity
  8
0
  6
Continuous
 62
     7
370
    25
100
AcDbLine
 10
-2.0584602672
 20
5.2338660627
 30
0.0
 11
-2.0304743983
 21
5.2516181177
 31
0.0
  0
LINE
  5
17D
330
1F
100
AcDbEntity
  8
0
  6
Continuous
 62
     7
370
    25
100
AcDbLine
 10
-2.0325523224
 20
5.200942252
 30
0.0
 11
-2.0584602672
 21
5.2338660627
 31
0.0
  0
LINE
  5
17E
330
1F
100
AcDbEntity
  8
0
  6
Continuous
 62
     7
370
    25
100
AcDbLine
 10
-2.0584454171
 20
5.1358605054
 30
0.0
 11
-2.0325523224
 21
5.200942252
 31
0.0
  0
LINE
  5
17F
330
1F
100
AcDbEntity
  8
0
  6
Continuous
 62
     7
370
    25
100
AcDbLine
 10
-2.030457106
 20
5.1536111509
 30
0.0
 11
-2.0584454171
 21
5.1358605054
 31
0.0
  0
LINE
  5
180
330
1F
100
AcDbEntity
  8
0
  6
Continuous
 62
     7
370
    25
100
AcDbLine
 10
-2.0179632868
 20
5.1853088208
 30
0.0
 11
-2.030457106
 21
5.1536111509
 31
0.0
  0
LINE
  5
181
330
1F
100
AcDbEntity
  8
0
  6
Continuous
 62
     7
370
    25
100
AcDbLine
 10
-2.0060012185
 20
5.1696334105
 30
0.0
 11
-2.0179632868
 21
5.1853088208
 31
0.0
  0
LINE
  5
182
330
1F
100
AcDbEntity
  8
0
  6
Continuous
 62
     7
370
    25
100
AcDbLine
 10
-1.9790645952
 20
5.1879910325
 30
0.0
 11
-2.0060012185
 21
5.1696334105
 31
0.0
  0
LINE
  5
183
330
1F
100
AcDbEntity
  8
0
  6
Continuous
 62
     7
370
    25
100
AcDbLine
 10
-2.0033849358
 20
5.2199985651
 30
0.0
 11
-1.9790645952
 21
5.1879910325
 31
0.0
  0
LINE
  5
184
330
1F
100
AcDbEntity
  8
0
  6
Continuous
 62
     7
370
    25
100
AcDbLine
 10
-1.9790872503
 20
5.2860010944
 30
0.0
 11
-2.0033849358
 21
5.2199985651
 31
0.0
  0
LINE
  5
185
330
1F
100
AcDbEntity
  8
0
  6
Continuous
 62
     7
370
    25
100
AcDbLine
 10
-2.0060209025
 20
5.2676417576
 30
0.0
 11
-1.9790872503
 21
5.2860010944
 31
0.0
  0
LINE
  5
186
330
1F
100
AcDbEntity
  8
0
  6
Continuous
 62
     7
370
    25
100
AcDbLine
 10
-2.0179726033
 20
5.2356312067
 30
0.0
 11
-2.0060209025
 21
5.2676417576
 31
0.0
  0
LINE
  5
187
330
1F
100
AcDbEntity
  8
0
  6
Continuous
 62
     7
370
    25
100
AcDbLine
 10
-2.4941980869
 20
5.0215652926
 30
0.0
 11
-2.4929004532
 21
5.0208163696
 31
0.0
  0
LINE
  5
188
330
1F
100
AcDbEntity
  8
0
  6
Continuous
 62
     7
370
    25
100
AcDbLine
 10
-2.4553925593
 20
5.0473548708
 30
0.0
 11
-2.4941980869
 21
5.0215652926
 31
0.0
  0
LINE
  5
189
330
1F
100
AcDbEntity
  8
0
  6
Continuous
 62
     7
370
    25
100
AcDbLine
 10
-1.9464622956
 20
5.33768837
 30
0.0
 11
-1.9451651461
 21
5.3369397264
 31
0.0
  0
LINE
  5
18A
330
1F
100
AcDbEntity
  8
0
  6
Continuous
 62
     7
370
    25
100
AcDbLine
 10
-1.9429303529
 20
5.3434892202
 30
0.0
 11
-1.9429303529
 21
5.1851863957
 31
0.0
  0
LINE
  5
18B
330
1F
100
AcDbEntity
  8
0
  6
Continuous
 62
     7
370
    25
100
AcDbLine
 10
-2.4977336208
 20
4.864984016
 30
0.0
 11
-2.4674898182
 21
4.8797157742
 31
0.0
  0
LINE
  5
18C
330
1F
100
AcDbEntity
  8
0
  6
Continuous
 62
     7
370
    25
100
AcDbLine
 10
-1.9736741767
 20
5.1646770299
 30
0.0
 11
-1.9429303529
 21
5.1851863957
 31
0.0
  0
LINE
  5
18D
330
1F
100
AcDbEntity
  8
0
  6
Continuous
 62
     7
370
    25
100
AcDbLine
 10
-2.4941980869
 20
5.0215652926
 30
0.0
 11
-2.4941980869
 21
4.8707865967
 31
0.0
  0
LINE
  5
18E
330
1F
100
AcDbEntity
  8
0
  6
Continuous
 62
     7
370
    25
100
AcDbLine
 10
-2.4941980869
 20
4.8707865967
 30
0.0
 11
-2.4929004722
 21
4.8700376847
 31
0.0
  0
LINE
  5
18F
330
1F
100
AcDbEntity
  8
0
  6
Continuous
 62
     7
370
    25
100
AcDbLine
 10
-2.4525968553
 20
4.921953006
 30
0.0
 11
-2.4324622256
 21
4.9335736107
 31
0.0
  0
LINE
  5
190
330
1F
100
AcDbEntity
  8
0
  6
Continuous
 62
     7
370
    25
100
AcDbLine
 10
-2.4324622256
 20
4.9957526987
 30
0.0
 11
-2.4324622256
 21
5.0228409868
 31
0.0
  0
LINE
  5
191
330
1F
100
AcDbEntity
  8
0
  6
Continuous
 62
     7
370
    25
100
AcDbLine
 10
-2.3802451095
 20
4.9637104681
 30
0.0
 11
-2.3802451095
 21
5.049266911
 31
0.0
  0
LINE
  5
192
330
1F
100
AcDbEntity
  8
0
  6
Continuous
 62
     7
370
    25
100
AcDbLine
 10
-2.3962662988
 20
4.9544639158
 30
0.0
 11
-2.3802451095
 21
4.9637104681
 31
0.0
  0
LINE
  5
193
330
1F
100
AcDbEntity
  8
0
  6
Continuous
 62
     7
370
    25
100
AcDbLine
 10
-2.4324622256
 20
4.9693915093
 30
0.0
 11
-2.4063536675
 21
4.984459938
 31
0.0
  0
LINE
  5
194
330
1F
100
AcDbEntity
  8
0
  6
Continuous
 62
     7
370
    25
100
AcDbLine
 10
-2.4324622256
 20
4.9335736107
 30
0.0
 11
-2.4324622256
 21
4.9693915093
 31
0.0
  0
LINE
  5
195
330
1F
100
AcDbEntity
  8
0
  6
Continuous
 62
     7
370
    25
100
AcDbLine
 10
-2.4324622256
 20
4.9957526987
 30
0.0
 11
-2.423936561
 21
4.9908321524
 31
0.0
  0
LINE
  5
196
330
1F
100
AcDbEntity
  8
0
  6
Continuous
 62
     7
370
    25
100
AcDbLine
 10
-1.9429303529
 20
5.1851863957
 30
0.0
 11
-1.9422255082
 21
5.1847795979
 31
0.0
  0
LINE
  5
197
330
1F
100
AcDbEntity
  8
0
  6
Continuous
 62
     7
370
    25
100
AcDbLine
 10
-2.3802451095
 20
4.9637104681
 30
0.0
 11
-2.3688955313
 21
4.9571601137
 31
0.0
  0
LINE
  5
198
330
1F
100
AcDbEntity
  8
0
  6
Continuous
 62
     7
370
    25
100
AcDbLine
 10
-2.4324622256
 20
4.9693915093
 30
0.0
 11
-2.4239311999
 21
4.9644678689
 31
0.0
  0
LINE
  5
199
330
1F
100
AcDbEntity
  8
0
  6
Continuous
 62
     7
370
    25
100
AcDbLine
 10
-2.4063536675
 20
4.984459938
 30
0.0
 11
-2.3960936761
 21
4.9785384333
 31
0.0
  0
LINE
  5
19A
330
1F
100
AcDbEntity
  8
0
  6
Continuous
 62
     7
370
    25
100
AcDbLine
 10
-2.4324622256
 20
4.9335736107
 30
0.0
 11
-2.4242225346
 21
4.9288181127
 31
0.0
  0
LINE
  5
19B
330
1F
100
AcDbEntity
  8
0
  6
Continuous
 62
     7
370
    25
100
AcDbLine
 10
-2.2953922957
 20
5.084296044
 30
0.0
 11
-2.2953922957
 21
5.0953351726
 31
0.0
  0
LINE
  5
19C
330
1F
100
AcDbEntity
  8
0
  6
Continuous
 62
     7
370
    25
100
AcDbLine
 10
-2.3410822724
 20
5.0579262937
 30
0.0
 11
-2.2953922957
 21
5.084296044
 31
0.0
  0
LINE
  5
19D
330
1F
100
AcDbEntity
  8
0
  6
Continuous
 62
     7
370
    25
100
AcDbLine
 10
-2.3410822724
 20
5.0126969153
 30
0.0
 11
-2.3410822724
 21
5.0579262937
 31
0.0
  0
LINE
  5
19E
330
1F
100
AcDbEntity
  8
0
  6
Continuous
 62
     7
370
    25
100
AcDbLine
 10
-2.2953922957
 20
5.0126828614
 30
0.0
 11
-2.2953922957
 21
5.0234958943
 31
0.0
  0
LINE
  5
19F
330
1F
100
AcDbEntity
  8
0
  6
Continuous
 62
     7
370
    25
100
AcDbLine
 10
-2.3553054035
 20
4.9781042995
 30
0.0
 11
-2.2953922957
 21
5.0126828614
 31
0.0
  0
LINE
  5
1A0
330
1F
100
AcDbEntity
  8
0
  6
Continuous
 62
     7
370
    25
100
AcDbLine
 10
-2.3410822724
 20
5.0579262937
 30
0.0
 11
-2.3282009201
 21
5.0504918833
 31
0.0
  0
LINE
  5
1A1
330
1F
100
AcDbEntity
  8
0
  6
Continuous
 62
     7
370
    25
100
AcDbLine
 10
-2.2953922957
 20
5.084296044
 30
0.0
 11
-2.281654637
 21
5.0763674203
 31
0.0
  0
LINE
  5
1A2
330
1F
100
AcDbEntity
  8
0
  6
Continuous
 62
     7
370
    25
100
AcDbLine
 10
-2.3410822724
 20
5.0126969153
 30
0.0
 11
-2.3281952777
 21
5.0052592483
 31
0.0
  0
LINE
  5
1A3
330
1F
100
AcDbEntity
  8
0
  6
Continuous
 62
     7
370
    25
100
AcDbLine
 10
-2.3100940776
 20
5.0418889475
 30
0.0
 11
-2.3019194352
 21
5.046606903
 31
0.0
  0
LINE
  5
1A4
330
1F
100
AcDbEntity
  8
0
  6
Continuous
 62
     7
370
    25
100
AcDbLine
 10
-2.3019194352
 20
5.046606903
 30
0.0
 11
-2.2882391619
 21
5.038711399
 31
0.0
  0
LINE
  5
1A5
330
1F
100
AcDbEntity
  8
0
  6
Continuous
 62
     7
370
    25
100
AcDbLine
 10
-2.2953922957
 20
5.0126828614
 30
0.0
 11
-2.2817661878
 21
5.0048186188
 31
0.0
  0
LINE
  5
1A6
330
1F
100
AcDbEntity
  8
0
  6
Continuous
 62
     7
370
    25
100
AcDbLine
 10
-2.2718621996
 20
5.0262631433
 30
0.0
 11
-2.2268573308
 21
5.0522374868
 31
0.0
  0
LINE
  5
1A7
330
1F
100
AcDbEntity
  8
0
  6
Continuous
 62
     7
370
    25
100
AcDbLine
 10
-2.2594930284
 20
5.059785755
 30
0.0
 11
-2.2594930284
 21
5.1154359926
 31
0.0
  0
LINE
  5
1A8
330
1F
100
AcDbEntity
  8
0
  6
Continuous
 62
     7
370
    25
100
AcDbLine
 10
-2.2268573308
 20
5.0522374868
 30
0.0
 11
-2.2268573308
 21
5.0623611287
 31
0.0
  0
LINE
  5
1A9
330
1F
100
AcDbEntity
  8
0
  6
Continuous
 62
     7
370
    25
100
AcDbLine
 10
-2.2594930284
 20
5.059785755
 30
0.0
 11
-2.2454545308
 21
5.0516835037
 31
0.0
  0
LINE
  5
1AA
330
1F
100
AcDbEntity
  8
0
  6
Continuous
 62
     7
370
    25
100
AcDbLine
 10
-2.1811673541
 20
5.0786072371
 30
0.0
 11
-2.1593259865
 21
5.1731932077
 31
0.0
  0
LINE
  5
1AB
330
1F
100
AcDbEntity
  8
0
  6
Continuous
 62
     7
370
    25
100
AcDbLine
 10
-2.2007792178
 20
5.0672883443
 30
0.0
 11
-2.1811673541
 21
5.0786072371
 31
0.0
  0
LINE
  5
1AC
330
1F
100
AcDbEntity
  8
0
  6
Continuous
 62
     7
370
    25
100
AcDbLine
 10
-2.1958534181
 20
5.1076457027
 30
0.0
 11
-2.2066070192
 21
5.1457265375
 31
0.0
  0
LINE
  5
1AD
330
1F
100
AcDbEntity
  8
0
  6
Continuous
 62
     7
370
    25
100
AcDbLine
 10
-2.1958534181
 20
5.1076457027
 30
0.0
 11
-2.1817448408
 21
5.0995030052
 31
0.0
  0
LINE
  5
1AE
330
1F
100
AcDbEntity
  8
0
  6
Continuous
 62
     7
370
    25
100
AcDbLine
 10
-2.2268573308
 20
5.0522374868
 30
0.0
 11
-2.2128123501
 21
5.0441314938
 31
0.0
  0
LINE
  5
1AF
330
1F
100
AcDbEntity
  8
0
  6
Continuous
 62
     7
370
    25
100
AcDbLine
 10
-2.1811673541
 20
5.0786072371
 30
0.0
 11
-2.1672204809
 21
5.0705578663
 31
0.0
  0
LINE
  5
1B0
330
1F
100
AcDbEntity
  8
0
  6
Continuous
 62
     7
370
    25
100
AcDbLine
 10
-2.1348663243
 20
5.1053296537
 30
0.0
 11
-2.0767331218
 21
5.1388809519
 31
0.0
  0
LINE
  5
1B1
330
1F
100
AcDbEntity
  8
0
  6
Continuous
 62
     7
370
    25
100
AcDbLine
 10
-2.0767331218
 20
5.2104941344
 30
0.0
 11
-2.0767331218
 21
5.2227042263
 31
0.0
  0
LINE
  5
1B2
330
1F
100
AcDbEntity
  8
0
  6
Continuous
 62
     7
370
    25
100
AcDbLine
 10
-2.1224230985
 20
5.1841243842
 30
0.0
 11
-2.0767331218
 21
5.2104941344
 31
0.0
  0
LINE
  5
1B3
330
1F
100
AcDbEntity
  8
0
  6
Continuous
 62
     7
370
    25
100
AcDbLine
 10
-2.1224230985
 20
5.1388950058
 30
0.0
 11
-2.1224230985
 21
5.1841243842
 31
0.0
  0
LINE
  5
1B4
330
1F
100
AcDbEntity
  8
0
  6
Continuous
 62
     7
370
    25
100
AcDbLine
 10
-2.0767331218
 20
5.1388809519
 30
0.0
 11
-2.0767331218
 21
5.1508185516
 31
0.0
  0
LINE
  5
1B5
330
1F
100
AcDbEntity
  8
0
  6
Continuous
 62
     7
370
    25
100
AcDbLine
 10
-2.1224230985
 20
5.1388950058
 30
0.0
 11
-2.1090284514
 21
5.1311643496
 31
0.0
  0
LINE
  5
1B6
330
1F
100
AcDbEntity
  8
0
  6
Continuous
 62
     7
370
    25
100
AcDbLine
 10
-2.1224230985
 20
5.1841243842
 30
0.0
 11
-2.1090333503
 21
5.1763965554
 31
0.0
  0
LINE
  5
1B7
330
1F
100
AcDbEntity
  8
0
  6
Continuous
 62
     7
370
    25
100
AcDbLine
 10
-2.0767331218
 20
5.2104941344
 30
0.0
 11
-2.064556101
 21
5.2034662254
 31
0.0
  0
LINE
  5
1B8
330
1F
100
AcDbEntity
  8
0
  6
Continuous
 62
     7
370
    25
100
AcDbLine
 10
-2.0926415533
 20
5.1673906702
 30
0.0
 11
-2.0832602614
 21
5.1728049934
 31
0.0
  0
LINE
  5
1B9
330
1F
100
AcDbEntity
  8
0
  6
Continuous
 62
     7
370
    25
100
AcDbLine
 10
-2.0832602614
 20
5.1728049934
 30
0.0
 11
-2.0832602614
 21
5.1775651804
 31
0.0
  0
LINE
  5
1BA
330
1F
100
AcDbEntity
  8
0
  6
Continuous
 62
     7
370
    25
100
AcDbLine
 10
-2.0832602614
 20
5.1728049934
 30
0.0
 11
-2.070820926
 21
5.1656256908
 31
0.0
  0
LINE
  5
1BB
330
1F
100
AcDbEntity
  8
0
  6
Continuous
 62
     7
370
    25
100
AcDbLine
 10
-2.0767331218
 20
5.1388809519
 30
0.0
 11
-2.0647239555
 21
5.1319499193
 31
0.0
  0
LINE
  5
1BC
330
1F
100
AcDbEntity
  8
0
  6
Continuous
 62
     7
370
    25
100
AcDbLine
 10
-2.0122331711
 20
5.2251052815
 30
0.0
 11
-1.9899433203
 21
5.2786010492
 31
0.0
  0
LINE
  5
1BD
330
1F
100
AcDbEntity
  8
0
  6
Continuous
 62
     7
370
    25
100
AcDbLine
 10
-1.9853531686
 20
5.1916204524
 30
0.0
 11
-2.0122331711
 21
5.2251052815
 31
0.0
  0
LINE
  5
1BE
330
1F
100
AcDbEntity
  8
0
  6
Continuous
 62
     7
370
    25
100
AcDbLine
 10
-2.0113361786
 20
5.1766244831
 30
0.0
 11
-1.9853531686
 21
5.1916204524
 31
0.0
  0
LINE
  5
1BF
330
1F
100
AcDbEntity
  8
0
  6
Continuous
 62
     7
370
    25
100
AcDbLine
 10
-2.0408338545
 20
5.1596000414
 30
0.0
 11
-2.0277795755
 21
5.1909742446
 31
0.0
  0
LINE
  5
1C0
330
1F
100
AcDbEntity
  8
0
  6
Continuous
 62
     7
370
    25
100
AcDbLine
 10
-2.0514346898
 20
5.1534818203
 30
0.0
 11
-2.0408338545
 21
5.1596000414
 31
0.0
  0
LINE
  5
1C1
330
1F
100
AcDbEntity
  8
0
  6
Continuous
 62
     7
370
    25
100
AcDbLine
 10
-2.0277795755
 20
5.2412912535
 30
0.0
 11
-2.034170288
 21
5.2492737332
 31
0.0
  0
LINE
  5
1C2
330
1F
100
AcDbEntity
  8
0
  6
Continuous
 62
     7
370
    25
100
AcDbLine
 10
-2.0277795755
 20
5.2412912535
 30
0.0
 11
-2.0179726033
 21
5.2356312067
 31
0.0
  0
LINE
  5
1C3
330
1F
100
AcDbEntity
  8
0
  6
Continuous
 62
     7
370
    25
100
AcDbLine
 10
-2.0122331711
 20
5.2251052815
 30
0.0
 11
-2.0033849358
 21
5.2199985651
 31
0.0
  0
LINE
  5
1C4
330
1F
100
AcDbEntity
  8
0
  6
Continuous
 62
     7
370
    25
100
AcDbLine
 10
-2.0408338545
 20
5.1596000414
 30
0.0
 11
-2.030457106
 21
5.1536111509
 31
0.0
  0
LINE
  5
1C5
330
1F
100
AcDbEntity
  8
0
  6
Continuous
 62
     7
370
    25
100
AcDbLine
 10
-2.0277795755
 20
5.1909742446
 30
0.0
 11
-2.0179632868
 21
5.1853088208
 31
0.0
  0
LINE
  5
1C6
330
1F
100
AcDbEntity
  8
0
  6
Continuous
 62
     7
370
    25
100
AcDbLine
 10
-1.9853531686
 20
5.1916204524
 30
0.0
 11
-1.9790645952
 21
5.1879910325
 31
0.0
  0
LINE
  5
1C7
330
1F
100
AcDbEntity
  8
0
  6
Continuous
 62
     7
370
    25
100
AcDbLine
 10
-2.1693624265
 20
5.7560327799
 30
0.0
 11
-2.1785450041
 21
5.7610124216
 31
0.0
  0
LINE
  5
1C8
330
1F
100
AcDbEntity
  8
0
  6
Continuous
 62
     7
370
    25
100
AcDbLine
 10
-2.5556671742
 20
5.3900615922
 30
0.0
 11
-2.5910225133
 21
5.410466756
 31
0.0
  0
LINE
  5
1C9
330
1F
100
AcDbEntity
  8
0
  6
Continuous
 62
     7
370
    25
100
AcDbLine
 10
-2.5221172785
 20
5.4187160877
 30
0.0
 11
-2.5910225133
 21
5.410466756
 31
0.0
  0
LINE
  5
1CA
330
1F
100
AcDbEntity
  8
0
  6
Continuous
 62
     7
370
    25
100
AcDbLine
 10
-2.5416379129
 20
5.3917411747
 30
0.0
 11
-2.5556671742
 21
5.3900615922
 31
0.0
  0
LINE
  5
1CB
330
1F
100
AcDbEntity
  8
0
  6
Continuous
 62
     7
370
    25
100
AcDbLine
 10
-2.6657610104
 20
5.2782827986
 30
0.0
 11
-2.6382057745
 21
5.2206209075
 31
0.0
  0
LINE
  5
1CC
330
1F
100
AcDbEntity
  8
0
  6
Continuous
 62
     7
370
    25
100
AcDbLine
 10
-2.6657610104
 20
5.2782827986
 30
0.0
 11
-2.6304056713
 21
5.2578776347
 31
0.0
  0
LINE
  5
1CD
330
1F
100
AcDbEntity
  8
0
  6
Continuous
 62
     7
370
    25
100
AcDbLine
 10
-2.6304056713
 20
5.2578776347
 30
0.0
 11
-2.6256279414
 21
5.2478797909
 31
0.0
  0
LINE
  5
1CE
330
1F
100
AcDbEntity
  8
0
  6
Continuous
 62
     7
370
    25
100
AcDbLine
 10
-2.6507135616
 20
5.1911364403
 30
0.0
 11
-2.6908931886
 21
5.2143259187
 31
0.0
  0
LINE
  5
1CF
330
1F
100
AcDbEntity
  8
0
  6
Continuous
 62
     7
370
    25
100
AcDbLine
 10
-2.5515868989
 20
5.4562926281
 30
0.0
 11
-2.5391417503
 21
5.4491099705
 31
0.0
  0
LINE
  5
1D0
330
1F
100
AcDbEntity
  8
0
  6
Continuous
 62
     7
370
    25
100
AcDbLine
 10
-2.5391417503
 20
5.4491099705
 30
0.0
 11
-2.4921097205
 21
5.4567541203
 31
0.0
  0
LINE
  5
1D1
330
1F
100
AcDbEntity
  8
0
  6
Continuous
 62
     7
370
    25
100
AcDbLine
 10
8.1880051508
 20
-0.0373924297
 30
0.0
 11
8.188005162
 21
-0.0556818124
 31
0.0
  0
LINE
  5
1D2
330
1F
100
AcDbEntity
  8
0
  6
Continuous
 62
     7
370
    25
100
AcDbLine
 10
-6.5993040182
 20
2.2646416907
 30
0.0
 11
-6.5919345253
 21
2.1814839166
 31
0.0
  0
LINE
  5
1D3
330
1F
100
AcDbEntity
  8
0
  6
Continuous
 62
     7
370
    25
100
AcDbLine
 10
-2.5772919883
 20
5.4121105739
 30
0.0
 11
-2.5775812679
 21
5.4255968296
 31
0.0
  0
LINE
  5
1D4
330
1F
100
AcDbEntity
  8
0
  6
Continuous
 62
     7
370
    25
100
AcDbLine
 10
-0.2591711841
 20
0.0352811576
 30
0.0
 11
-0.2591711841
 21
0.341773708
 31
0.0
  0
LINE
  5
1D5
330
1F
100
AcDbEntity
  8
0
  6
Continuous
 62
     7
370
    25
100
AcDbLine
 10
-2.6777190663
 20
5.1154394881
 30
0.0
 11
-2.7103382571
 21
5.1342654972
 31
0.0
  0
LINE
  5
1D6
330
1F
100
AcDbEntity
  8
0
  6
Continuous
 62
     7
370
    25
100
AcDbLine
 10
-2.7056341167
 20
5.1609298623
 30
0.0
 11
-2.6696939714
 21
5.1401871803
 31
0.0
  0
LINE
  5
1D7
330
1F
100
AcDbEntity
  8
0
  6
Continuous
 62
     7
370
    25
100
AcDbLine
 10
-2.4761475646
 20
5.4754714415
 30
0.0
 11
-2.5117781824
 21
5.4960354813
 31
0.0
  0
LINE
  5
1D8
330
1F
100
AcDbEntity
  8
0
  6
Continuous
 62
     7
370
    25
100
AcDbLine
 10
-2.4918851251
 20
5.5139350859
 30
0.0
 11
-2.4587286781
 21
5.494799002
 31
0.0
  0
LINE
  5
1D9
330
1F
100
AcDbEntity
  8
0
  6
Continuous
 62
     7
370
    25
100
AcDbLine
 10
-2.7129757357
 20
5.0195412799
 30
0.0
 11
-2.7024003621
 21
5.0134377539
 31
0.0
  0
LINE
  5
1DA
330
1F
100
AcDbEntity
  8
0
  6
Continuous
 62
     7
370
    25
100
AcDbLine
 10
-2.3827788789
 20
5.5671494453
 30
0.0
 11
-2.3937329943
 21
5.5734715603
 31
0.0
  0
LINE
  5
1DB
330
1F
100
AcDbEntity
  8
0
  6
Continuous
 62
     7
370
    25
100
AcDbLine
 10
-2.6636266629
 20
5.1574703007
 30
0.0
 11
-2.701392175
 21
5.1792664844
 31
0.0
  0
LINE
  5
1DC
330
1F
100
AcDbEntity
  8
0
  6
Continuous
 62
     7
370
    25
100
AcDbLine
 10
-2.5254402172
 20
5.4831245432
 30
0.0
 11
-2.4880865031
 21
5.4615660268
 31
0.0
  0
ARC
  5
1DD
330
1F
100
AcDbEntity
  8
0
  6
Continuous
 62
     7
370
    25
100
AcDbCircle
 10
-2.8653195173
 20
5.5130150001
 30
0.0
 40
0.3323789832896977
100
AcDbArc
 50
348.9149709899
 51
352.9888298061
  0
ARC
  5
1DE
330
1F
100
AcDbEntity
  8
0
  6
Continuous
 62
     7
370
    25
100
AcDbCircle
 10
-3.0277933168
 20
5.570246471
 30
0.0
 40
0.4650915790409909
100
AcDbArc
 50
321.1152988423
 51
339.1728941896
  0
ARC
  5
1DF
330
1F
100
AcDbEntity
  8
0
  6
Continuous
 62
     7
370
    25
100
AcDbCircle
 10
-2.9919701388
 20
5.5495318297
 30
0.0
 40
0.4645331350721966
100
AcDbArc
 50
321.1087879648
 51
339.9224677319
  0
ARC
  5
1E0
330
1F
100
AcDbEntity
  8
0
  6
Continuous
 62
     7
370
    25
100
AcDbCircle
 10
7.9738776387
 20
-0.0480075286
 30
0.0
 40
0.2143904656449031
100
AcDbArc
 50
2.8380419768
 51
53.6459988361
  0
ARC
  5
1E1
330
1F
100
AcDbEntity
  8
0
  6
Continuous
 62
     7
370
    25
100
AcDbCircle
 10
-2.6950722913
 20
6.22296005
 30
0.0
 40
0.1783728492048305
100
AcDbArc
 50
2.3506515482
 51
60.9835326936
  0
ARC
  5
1E2
330
1F
100
AcDbEntity
  8
0
  6
Continuous
 62
     7
370
    25
100
AcDbCircle
 10
-3.254987557
 20
6.6064394429
 30
0.0
 40
0.0625967432319907
100
AcDbArc
 50
60.7246165926
 51
116.1713209404
  0
ARC
  5
1E3
330
1F
100
AcDbEntity
  8
0
  6
Continuous
 62
     7
370
    25
100
AcDbCircle
 10
7.4345488477
 20
0.5111559435
 30
0.0
 40
0.0639827614502629
100
AcDbArc
 50
48.7612913535
 51
114.3429759847
  0
ENDSEC
  0
SECTION
  2
OBJECTS
  0
DICTIONARY
  5
C
330
0
100
AcDbDictionary
281
     1
  3
ACAD_GROUP
350
D
  3
ACAD_LAYOUT
350
1A
  3
ACAD_MLINESTYLE
350
17
  3
ACAD_PLOTSETTINGS
350
19
  3
ACAD_PLOTSTYLENAME
350
E
  3
ACAD_SCALELIST
350
47
  3
DWGPROPS
350
1E4
  0
DICTIONARY
  5
D
102
{ACAD_REACTORS
330
C
102
}
330
C
100
AcDbDictionary
281
     1
  0
DICTIONARY
  5
1A
102
{ACAD_REACTORS
330
C
102
}
330
C
100
AcDbDictionary
281
     1
  3
Layout1
350
1E
  3
Layout2
350
26
  3
Model
350
22
  0
DICTIONARY
  5
17
102
{ACAD_REACTORS
330
C
102
}
330
C
100
AcDbDictionary
281
     1
  3
Standard
350
18
  0
DICTIONARY
  5
19
102
{ACAD_REACTORS
330
C
102
}
330
C
100
AcDbDictionary
281
     1
  0
ACDBDICTIONARYWDFLT
  5
E
102
{ACAD_REACTORS
330
C
102
}
330
C
100
AcDbDictionary
281
     1
  3
Normal
350
F
100
AcDbDictionaryWithDefault
340
F
  0
DICTIONARY
  5
47
102
{ACAD_REACTORS
330
C
102
}
330
C
100
AcDbDictionary
281
     1
  3
A0
350
48
  3
A1
350
49
  3
A2
350
4A
  3
A3
350
4B
  3
A4
350
4C
  3
A5
350
4D
  3
A6
350
4E
  3
A7
350
4F
  3
A8
350
50
  3
A9
350
51
  3
B1
350
52
  3
B2
350
53
  3
B3
350
54
  3
B4
350
55
  3
B5
350
56
  3
B6
350
57
  3
B7
350
58
  0
XRECORD
  5
1E4
102
{ACAD_REACTORS
330
C
102
}
330
C
100
AcDbXrecord
280
     1
  1
DWGPROPS COOKIE
  2

  3

  4

  6

  7

  8
Alan Ramirez
  9

300
=
301
=
302
=
303
=
304
=
305
=
306
=
307
=
308
=
309
=
 40
0.0
 41
2460517.662670266
 42
2460517.66271206
  1

 90
        0
  0
LAYOUT
  5
1E
102
{ACAD_REACTORS
330
1A
102
}
330
1A
100
AcDbPlotSettings
  1

  2
none_device
  4

  6

 40
0.0
 41
0.0
 42
0.0
 43
0.0
 44
0.0
 45
0.0
 46
0.0
 47
0.0
 48
0.0
 49
0.0
140
0.0
141
0.0
142
1.0
143
1.0
 70
   688
 72
     0
 73
     0
 74
     5
  7

 75
    16
147
1.0
148
0.0
149
0.0
100
AcDbLayout
  1
Layout1
 70
     1
 71
     1
 10
0.0
 20
0.0
 11
12.0
 21
9.0
 12
0.0
 22
0.0
 32
0.0
 14
1.0000000000E+20
 24
1.0000000000E+20
 34
1.0000000000E+20
 15
-1.0000000000E+20
 25
-1.0000000000E+20
 35
-1.0000000000E+20
146
0.0
 13
0.0
 23
0.0
 33
0.0
 16
1.0
 26
0.0
 36
0.0
 17
0.0
 27
1.0
 37
0.0
 76
     0
330
1B
  0
LAYOUT
  5
26
102
{ACAD_REACTORS
330
1A
102
}
330
1A
100
AcDbPlotSettings
  1

  2
none_device
  4

  6

 40
0.0
 41
0.0
 42
0.0
 43
0.0
 44
0.0
 45
0.0
 46
0.0
 47
0.0
 48
0.0
 49
0.0
140
0.0
141
0.0
142
1.0
143
1.0
 70
   688
 72
     0
 73
     0
 74
     5
  7

 75
    16
147
1.0
148
0.0
149
0.0
100
AcDbLayout
  1
Layout2
 70
     1
 71
     2
 10
0.0
 20
0.0
 11
0.0
 21
0.0
 12
0.0
 22
0.0
 32
0.0
 14
0.0
 24
0.0
 34
0.0
 15
0.0
 25
0.0
 35
0.0
146
0.0
 13
0.0
 23
0.0
 33
0.0
 16
1.0
 26
0.0
 36
0.0
 17
0.0
 27
1.0
 37
0.0
 76
     0
330
23
  0
LAYOUT
  5
22
102
{ACAD_REACTORS
330
1A
102
}
330
1A
100
AcDbPlotSettings
  1

  2
none_device
  4
ANSI_A_(11.00_x_8.50_Inches)
  6

 40
6.35
 41
19.05
 42
6.35000508
 43
19.05000254
 44
279.4
 45
215.9
 46
97.7049284513
 47
40.9535653885
 48
0.0
 49
0.0
140
0.0
141
0.0
142
0.6108010207
143
1.0
 70
  1696
 72
     0
 73
     0
 74
     0
  7

 75
     0
147
0.5913241897
148
-39.4088153714
149
0.0
100
AcDbLayout
  1
Model
 70
     1
 71
     0
 10
0.0
 20
0.0
 11
12.0
 21
9.0
 12
0.0
 22
0.0
 32
0.0
 14
-6.6169680295
 24
-2.3756495706
 34
0.0
 15
11.2120787971
 25
8.5565654236
 35
0.0
146
0.0
 13
0.0
 23
0.0
 33
0.0
 16
1.0
 26
0.0
 36
0.0
 17
0.0
 27
1.0
 37
0.0
 76
     0
330
1F
331
29
  0
MLINESTYLE
  5
18
102
{ACAD_REACTORS
330
17
102
}
330
17
100
AcDbMlineStyle
  2
Standard
 70
     0
  3

 62
   256
 51
90.0
 52
90.0
 71
     2
 49
0.5
 62
   256
  6
BYLAYER
 49
-0.5
 62
   256
  6
BYLAYER
  0
ACDBPLACEHOLDER
  5
F
102
{ACAD_REACTORS
330
E
102
}
330
E
  0
SCALE
  5
48
102
{ACAD_REACTORS
330
47
102
}
330
47
100
AcDbScale
 70
     0
300
1:1
140
1.0
141
1.0
290
     1
  0
SCALE
  5
49
102
{ACAD_REACTORS
330
47
102
}
330
47
100
AcDbScale
 70
     0
300
1/128" = 1'-0"
140
0.0078125
141
12.0
290
     0
  0
SCALE
  5
4A
102
{ACAD_REACTORS
330
47
102
}
330
47
100
AcDbScale
 70
     0
300
1/64" = 1'-0"
140
0.015625
141
12.0
290
     0
  0
SCALE
  5
4B
102
{ACAD_REACTORS
330
47
102
}
330
47
100
AcDbScale
 70
     0
300
1/32" = 1'-0"
140
0.03125
141
12.0
290
     0
  0
SCALE
  5
4C
102
{ACAD_REACTORS
330
47
102
}
330
47
100
AcDbScale
 70
     0
300
1/16" = 1'-0"
140
0.0625
141
12.0
290
     0
  0
SCALE
  5
4D
102
{ACAD_REACTORS
330
47
102
}
330
47
100
AcDbScale
 70
     0
300
3/32" = 1'-0"
140
0.09375
141
12.0
290
     0
  0
SCALE
  5
4E
102
{ACAD_REACTORS
330
47
102
}
330
47
100
AcDbScale
 70
     0
300
1/8" = 1'-0"
140
0.125
141
12.0
290
     0
  0
SCALE
  5
4F
102
{ACAD_REACTORS
330
47
102
}
330
47
100
AcDbScale
 70
     0
300
3/16" = 1'-0"
140
0.1875
141
12.0
290
     0
  0
SCALE
  5
50
102
{ACAD_REACTORS
330
47
102
}
330
47
100
AcDbScale
 70
     0
300
1/4" = 1'-0"
140
0.25
141
12.0
290
     0
  0
SCALE
  5
51
102
{ACAD_REACTORS
330
47
102
}
330
47
100
AcDbScale
 70
     0
300
3/8" = 1'-0"
140
0.375
141
12.0
290
     0
  0
SCALE
  5
52
102
{ACAD_REACTORS
330
47
102
}
330
47
100
AcDbScale
 70
     0
300
1/2" = 1'-0"
140
0.5
141
12.0
290
     0
  0
SCALE
  5
53
102
{ACAD_REACTORS
330
47
102
}
330
47
100
AcDbScale
 70
     0
300
3/4" = 1'-0"
140
0.75
141
12.0
290
     0
  0
SCALE
  5
54
102
{ACAD_REACTORS
330
47
102
}
330
47
100
AcDbScale
 70
     0
300
1" = 1'-0"
140
1.0
141
12.0
290
     0
  0
SCALE
  5
55
102
{ACAD_REACTORS
330
47
102
}
330
47
100
AcDbScale
 70
     0
300
1-1/2" = 1'-0"
140
1.5
141
12.0
290
     0
  0
SCALE
  5
56
102
{ACAD_REACTORS
330
47
102
}
330
47
100
AcDbScale
 70
     0
300
3" = 1'-0"
140
3.0
141
12.0
290
     0
  0
SCALE
  5
57
102
{ACAD_REACTORS
330
47
102
}
330
47
100
AcDbScale
 70
     0
300
6" = 1'-0"
140
6.0
141
12.0
290
     0
  0
SCALE
  5
58
102
{ACAD_REACTORS
330
47
102
}
330
47
100
AcDbScale
 70
     0
300
1'-0" = 1'-0"
140
12.0
141
12.0
290
     0
  0
ENDSEC
  0
EOF
