  0
SECTION
  2
HEADER
  9
$ACADVER
  1
AC1015
  9
$ACADMAINTVER
 70
     6
  9
$DWGCODEPAGE
  3
ANSI_1252
  9
$INSBASE
 10
0.0
 20
0.0
 30
0.0
  9
$EXTMIN
 10
-227.8410444223
 20
-65.2034853253
 30
0.0
  9
$EXTMAX
 10
204.6444788269
 20
222.7436196105
 30
0.0
  9
$LIMMIN
 10
0.0
 20
0.0
  9
$LIMMAX
 10
420.0
 20
297.0
  9
$ORTHOMODE
 70
     0
  9
$REGENMODE
 70
     1
  9
$FILLMODE
 70
     1
  9
$QTEXTMODE
 70
     0
  9
$MIRRTEXT
 70
     1
  9
$LTSCALE
 40
1.0
  9
$ATTMODE
 70
     1
  9
$TEXTSIZE
 40
3.5
  9
$TRACEWID
 40
1.0
  9
$TEXTSTYLE
  7
Standard
  9
$CLAYER
  8
0
  9
$CELTYPE
  6
ByLayer
  9
$CECOLOR
 62
   256
  9
$CELTSCALE
 40
1.0
  9
$DISPSILH
 70
     0
  9
$DIMSCALE
 40
1.0
  9
$DIMASZ
 40
3.302
  9
$DIMEXO
 40
0.0
  9
$DIMDLI
 40
3.75
  9
$DIMRND
 40
0.0
  9
$DIMDLE
 40
0.0
  9
$DIMEXE
 40
1.0
  9
$DIMTP
 40
0.0
  9
$DIMTM
 40
0.0
  9
$DIMTXT
 40
3.5
  9
$DIMCEN
 40
2.5
  9
$DIMTSZ
 40
0.0
  9
$DIMTOL
 70
     0
  9
$DIMLIM
 70
     0
  9
$DIMTIH
 70
     1
  9
$DIMTOH
 70
     1
  9
$DIMSE1
 70
     0
  9
$DIMSE2
 70
     0
  9
$DIMTAD
 70
     1
  9
$DIMZIN
 70
     1
  9
$DIMBLK
  1

  9
$DIMASO
 70
     1
  9
$DIMSHO
 70
     1
  9
$DIMPOST
  1

  9
$DIMAPOST
  1

  9
$DIMALT
 70
     0
  9
$DIMALTD
 70
     3
  9
$DIMALTF
 40
0.0393700787
  9
$DIMLFAC
 40
1.0
  9
$DIMTOFL
 70
     1
  9
$DIMTVP
 40
0.0
  9
$DIMTIX
 70
     0
  9
$DIMSOXD
 70
     0
  9
$DIMSAH
 70
     0
  9
$DIMBLK1
  1

  9
$DIMBLK2
  1

  9
$DIMSTYLE
  2
ISO-25
  9
$DIMCLRD
 70
     0
  9
$DIMCLRE
 70
     0
  9
$DIMCLRT
 70
     0
  9
$DIMTFAC
 40
1.0
  9
$DIMGAP
 40
1.524
  9
$DIMJUST
 70
     0
  9
$DIMSD1
 70
     0
  9
$DIMSD2
 70
     0
  9
$DIMTOLJ
 70
     0
  9
$DIMTZIN
 70
     1
  9
$DIMALTZ
 70
     0
  9
$DIMALTTZ
 70
     0
  9
$DIMUPT
 70
     0
  9
$DIMDEC
 70
     2
  9
$DIMTDEC
 70
     2
  9
$DIMALTU
 70
     2
  9
$DIMALTTD
 70
     3
  9
$DIMTXSTY
  7
Standard
  9
$DIMAUNIT
 70
     0
  9
$DIMADEC
 70
     2
  9
$DIMALTRND
 40
0.0
  9
$DIMAZIN
 70
     0
  9
$DIMDSEP
 70
    44
  9
$DIMATFIT
 70
     3
  9
$DIMFRAC
 70
     0
  9
$DIMLDRBLK
  1

  9
$DIMLUNIT
 70
     2
  9
$DIMLWD
 70
    -2
  9
$DIMLWE
 70
    -2
  9
$DIMTMOVE
 70
     0
  9
$LUNITS
 70
     2
  9
$LUPREC
 70
     2
  9
$SKETCHINC
 40
1.0
  9
$FILLETRAD
 40
0.0
  9
$AUNITS
 70
     0
  9
$AUPREC
 70
     2
  9
$MENU
  1
.
  9
$ELEVATION
 40
0.0
  9
$PELEVATION
 40
0.0
  9
$THICKNESS
 40
0.0
  9
$LIMCHECK
 70
     0
  9
$CHAMFERA
 40
0.0
  9
$CHAMFERB
 40
0.0
  9
$CHAMFERC
 40
0.0
  9
$CHAMFERD
 40
0.0
  9
$SKPOLY
 70
     0
  9
$TDCREATE
 40
2460517.422694873
  9
$TDUCREATE
 40
2460517.672694873
  9
$TDUPDATE
 40
2460517.422723785
  9
$TDUUPDATE
 40
2460517.672723785
  9
$TDINDWG
 40
0.0000000116
  9
$TDUSRTIMER
 40
0.0000000116
  9
$USRTIMER
 70
     1
  9
$ANGBASE
 50
0.0
  9
$ANGDIR
 70
     0
  9
$PDMODE
 70
     0
  9
$PDSIZE
 40
-1.0
  9
$PLINEWID
 40
0.0
  9
$SPLFRAME
 70
     0
  9
$SPLINETYPE
 70
     6
  9
$SPLINESEGS
 70
     8
  9
$HANDSEED
  5
B4
  9
$SURFTAB1
 70
     6
  9
$SURFTAB2
 70
     6
  9
$SURFTYPE
 70
     6
  9
$SURFU
 70
     6
  9
$SURFV
 70
     6
  9
$UCSBASE
  2

  9
$UCSNAME
  2

  9
$UCSORG
 10
0.0
 20
0.0
 30
0.0
  9
$UCSXDIR
 10
1.0
 20
0.0
 30
0.0
  9
$UCSYDIR
 10
0.0
 20
1.0
 30
0.0
  9
$UCSORTHOREF
  2

  9
$UCSORTHOVIEW
 70
     0
  9
$UCSORGTOP
 10
0.0
 20
0.0
 30
0.0
  9
$UCSORGBOTTOM
 10
0.0
 20
0.0
 30
0.0
  9
$UCSORGLEFT
 10
0.0
 20
0.0
 30
0.0
  9
$UCSORGRIGHT
 10
0.0
 20
0.0
 30
0.0
  9
$UCSORGFRONT
 10
0.0
 20
0.0
 30
0.0
  9
$UCSORGBACK
 10
0.0
 20
0.0
 30
0.0
  9
$PUCSBASE
  2

  9
$PUCSNAME
  2

  9
$PUCSORG
 10
0.0
 20
0.0
 30
0.0
  9
$PUCSXDIR
 10
1.0
 20
0.0
 30
0.0
  9
$PUCSYDIR
 10
0.0
 20
1.0
 30
0.0
  9
$PUCSORTHOREF
  2

  9
$PUCSORTHOVIEW
 70
     0
  9
$PUCSORGTOP
 10
0.0
 20
0.0
 30
0.0
  9
$PUCSORGBOTTOM
 10
0.0
 20
0.0
 30
0.0
  9
$PUCSORGLEFT
 10
0.0
 20
0.0
 30
0.0
  9
$PUCSORGRIGHT
 10
0.0
 20
0.0
 30
0.0
  9
$PUCSORGFRONT
 10
0.0
 20
0.0
 30
0.0
  9
$PUCSORGBACK
 10
0.0
 20
0.0
 30
0.0
  9
$USERI1
 70
     0
  9
$USERI2
 70
     0
  9
$USERI3
 70
     0
  9
$USERI4
 70
     0
  9
$USERI5
 70
     0
  9
$USERR1
 40
0.0
  9
$USERR2
 40
0.0
  9
$USERR3
 40
0.0
  9
$USERR4
 40
0.0
  9
$USERR5
 40
0.0
  9
$WORLDVIEW
 70
     1
  9
$SHADEDGE
 70
     3
  9
$SHADEDIF
 70
    70
  9
$TILEMODE
 70
     1
  9
$MAXACTVP
 70
    64
  9
$PINSBASE
 10
0.0
 20
0.0
 30
0.0
  9
$PLIMCHECK
 70
     0
  9
$PEXTMIN
 10
1.0000000000E+20
 20
1.0000000000E+20
 30
1.0000000000E+20
  9
$PEXTMAX
 10
-1.0000000000E+20
 20
-1.0000000000E+20
 30
-1.0000000000E+20
  9
$PLIMMIN
 10
0.0
 20
0.0
  9
$PLIMMAX
 10
420.0
 20
297.0
  9
$UNITMODE
 70
     0
  9
$VISRETAIN
 70
     1
  9
$PLINEGEN
 70
     0
  9
$PSLTSCALE
 70
     1
  9
$TREEDEPTH
 70
  3020
  9
$CMLSTYLE
  2
Standard
  9
$CMLJUST
 70
     0
  9
$CMLSCALE
 40
20.0
  9
$PROXYGRAPHICS
 70
     1
  9
$MEASUREMENT
 70
     1
  9
$CELWEIGHT
370
    -1
  9
$ENDCAPS
280
     0
  9
$JOINSTYLE
280
     0
  9
$LWDISPLAY
290
     1
  9
$INSUNITS
 70
     4
  9
$HYPERLINKBASE
  1

  9
$STYLESHEET
  1

  9
$XEDIT
290
     1
  9
$CEPSNTYPE
380
     0
  9
$PSTYLEMODE
290
     1
  9
$FINGERPRINTGUID
  2
{c7c45396-6f8e-4f88-8c65-0515249e1759}
  9
$VERSIONGUID
  2
{FAEB1C32-E019-11D5-929B-00C0DF256EC4}
  9
$EXTNAMES
290
     1
  9
$PSVPSCALE
 40
0.0
  9
$OLESTARTUP
290
     0
  0
ENDSEC
  0
SECTION
  2
CLASSES
  0
CLASS
  1
ACDBDICTIONARYWDFLT
  2
AcDbDictionaryWithDefault
  3
ObjectDBX Classes
 90
        0
280
     0
281
     0
  0
CLASS
  1
VISUALSTYLE
  2
AcDbVisualStyle
  3
ObjectDBX Classes
 90
     4095
280
     0
281
     0
  0
CLASS
  1
MATERIAL
  2
AcDbMaterial
  3
ObjectDBX Classes
 90
     1153
280
     0
281
     0
  0
CLASS
  1
SCALE
  2
AcDbScale
  3
ObjectDBX Classes
 90
     1153
280
     0
281
     0
  0
CLASS
  1
TABLESTYLE
  2
AcDbTableStyle
  3
ObjectDBX Classes
 90
     4095
280
     0
281
     0
  0
CLASS
  1
MLEADERSTYLE
  2
AcDbMLeaderStyle
  3
ACDB_MLEADERSTYLE_CLASS
 90
     4095
280
     0
281
     0
  0
CLASS
  1
SUN
  2
AcDbSun
  3
SCENEOE
 90
     1153
280
     0
281
     0
  0
CLASS
  1
ACDBPLACEHOLDER
  2
AcDbPlaceHolder
  3
ObjectDBX Classes
 90
        0
280
     0
281
     0
  0
CLASS
  1
LAYOUT
  2
AcDbLayout
  3
ObjectDBX Classes
 90
        0
280
     0
281
     0
  0
ENDSEC
  0
SECTION
  2
TABLES
  0
TABLE
  2
VPORT
  5
8
330
0
100
AcDbSymbolTable
 70
     1
  0
VPORT
  5
29
330
8
100
AcDbSymbolTableRecord
100
AcDbViewportTableRecord
  2
*Active
 70
     0
 10
0.0
 20
0.0
 11
1.0
 21
1.0
 12
-11.5982827977
 22
78.7700671426
 13
0.0
 23
0.0
 14
10.0
 24
10.0
 15
10.0
 25
10.0
 16
0.0
 26
0.0
 36
1.0
 17
0.0
 27
0.0
 37
0.0
 40
293.7060470345
 41
1.5019617
 42
50.0
 43
0.0
 44
0.0
 50
0.0
 51
0.0
 71
     0
 72
   100
 73
     1
 74
     3
 75
     0
 76
     0
 77
     0
 78
     0
281
     0
 65
     1
110
0.0
120
0.0
130
0.0
111
1.0
121
0.0
131
0.0
112
0.0
122
1.0
132
0.0
 79
     0
146
0.0
  0
ENDTAB
  0
TABLE
  2
LTYPE
  5
5
330
0
100
AcDbSymbolTable
 70
     6
  0
LTYPE
  5
14
330
5
100
AcDbSymbolTableRecord
100
AcDbLinetypeTableRecord
  2
ByBlock
 70
     0
  3

 72
    65
 73
     0
 40
0.0
  0
LTYPE
  5
15
330
5
100
AcDbSymbolTableRecord
100
AcDbLinetypeTableRecord
  2
ByLayer
 70
     0
  3

 72
    65
 73
     0
 40
0.0
  0
LTYPE
  5
16
330
5
100
AcDbSymbolTableRecord
100
AcDbLinetypeTableRecord
  2
Continuous
 70
     0
  3
Solid line
 72
    65
 73
     0
 40
0.0
  0
LTYPE
  5
5E
330
5
100
AcDbSymbolTableRecord
100
AcDbLinetypeTableRecord
  2
HIDDEN
 70
     0
  3
Hidden __ __ __ __ __ __ __ __ __ __ __ __ __ __
 72
    65
 73
     2
 40
1.905
 49
1.27
 74
     0
 49
-0.635
 74
     0
  0
LTYPE
  5
5F
330
5
100
AcDbSymbolTableRecord
100
AcDbLinetypeTableRecord
  2
PHANTOM
 70
     0
  3
Phantom ______  __  __  ______  __  __  ______
 72
    65
 73
     6
 40
12.7
 49
6.35
 74
     0
 49
-1.27
 74
     0
 49
1.27
 74
     0
 49
-1.27
 74
     0
 49
1.27
 74
     0
 49
-1.27
 74
     0
  0
LTYPE
  5
60
330
5
100
AcDbSymbolTableRecord
100
AcDbLinetypeTableRecord
  2
CENTER
 70
     0
  3
Center ____ _ ____ _ ____ _ ____ _ ____ _ ____
 72
    65
 73
     4
 40
10.16
 49
6.35
 74
     0
 49
-1.27
 74
     0
 49
1.27
 74
     0
 49
-1.27
 74
     0
  0
LTYPE
  5
61
330
5
100
AcDbSymbolTableRecord
100
AcDbLinetypeTableRecord
  2
CENTERX2
 70
     0
  3
Center (2x) ________  __  ________  __  _____
 72
    65
 73
     4
 40
20.32
 49
12.7
 74
     0
 49
-2.54
 74
     0
 49
2.54
 74
     0
 49
-2.54
 74
     0
  0
LTYPE
  5
62
330
5
100
AcDbSymbolTableRecord
100
AcDbLinetypeTableRecord
  2
DOT2
 70
     0
  3
Dot (.5x) ........................................
 72
    65
 73
     2
 40
0.635
 49
0.0
 74
     0
 49
-0.635
 74
     0
  0
ENDTAB
  0
TABLE
  2
LAYER
  5
2
330
0
100
AcDbSymbolTable
 70
     1
  0
LAYER
  5
10
330
2
100
AcDbSymbolTableRecord
100
AcDbLayerTableRecord
  2
0
 70
     0
 62
     7
  6
Continuous
370
    -3
390
F
  0
ENDTAB
  0
TABLE
  2
STYLE
  5
3
330
0
100
AcDbSymbolTable
 70
     1
  0
STYLE
  5
11
330
3
100
AcDbSymbolTableRecord
100
AcDbTextStyleTableRecord
  2
Standard
 70
     0
 40
0.0
 41
1.0
 50
0.0
 71
     0
 42
3.5
  3
txt
  4

  0
ENDTAB
  0
TABLE
  2
VIEW
  5
6
330
0
100
AcDbSymbolTable
 70
     0
  0
ENDTAB
  0
TABLE
  2
UCS
  5
7
330
0
100
AcDbSymbolTable
 70
     0
  0
ENDTAB
  0
TABLE
  2
APPID
  5
9
330
0
100
AcDbSymbolTable
 70
     1
  0
APPID
  5
12
330
9
100
AcDbSymbolTableRecord
100
AcDbRegAppTableRecord
  2
ACAD
 70
     0
  0
ENDTAB
  0
TABLE
  2
DIMSTYLE
  5
A
330
0
100
AcDbSymbolTable
 70
     1
100
AcDbDimStyleTable
  0
DIMSTYLE
105
27
330
A
100
AcDbSymbolTableRecord
100
AcDbDimStyleTableRecord
  2
ISO-25
 70
     0
 41
2.5
 42
0.625
 43
3.75
 44
1.25
 73
     0
 74
     0
 77
     1
 78
     8
140
2.5
141
2.5
143
0.0393700787
147
0.625
171
     3
172
     1
178
     0
271
     2
272
     2
274
     3
278
    44
283
     0
284
     8
340
11
  0
ENDTAB
  0
TABLE
  2
BLOCK_RECORD
  5
1
330
0
100
AcDbSymbolTable
 70
     1
  0
BLOCK_RECORD
  5
1F
330
1
100
AcDbSymbolTableRecord
100
AcDbBlockTableRecord
  2
*Model_Space
340
22
  0
BLOCK_RECORD
  5
1B
330
1
100
AcDbSymbolTableRecord
100
AcDbBlockTableRecord
  2
*Paper_Space
340
1E
  0
BLOCK_RECORD
  5
23
330
1
100
AcDbSymbolTableRecord
100
AcDbBlockTableRecord
  2
*Paper_Space0
340
26
  0
ENDTAB
  0
ENDSEC
  0
SECTION
  2
BLOCKS
  0
BLOCK
  5
20
330
1F
100
AcDbEntity
  8
0
100
AcDbBlockBegin
  2
*Model_Space
 70
     0
 10
0.0
 20
0.0
 30
0.0
  3
*Model_Space
  1

  0
ENDBLK
  5
21
330
1F
100
AcDbEntity
  8
0
100
AcDbBlockEnd
  0
BLOCK
  5
1C
330
1B
100
AcDbEntity
 67
     1
  8
0
100
AcDbBlockBegin
  2
*Paper_Space
 70
     0
 10
0.0
 20
0.0
 30
0.0
  3
*Paper_Space
  1

  0
ENDBLK
  5
1D
330
1B
100
AcDbEntity
 67
     1
  8
0
100
AcDbBlockEnd
  0
BLOCK
  5
24
330
23
100
AcDbEntity
  8
0
100
AcDbBlockBegin
  2
*Paper_Space0
 70
     0
 10
0.0
 20
0.0
 30
0.0
  3
*Paper_Space0
  1

  0
ENDBLK
  5
25
330
23
100
AcDbEntity
  8
0
100
AcDbBlockEnd
  0
ENDSEC
  0
SECTION
  2
ENTITIES
  0
SPLINE
  5
63
330
1F
100
AcDbEntity
  8
0
  6
Continuous
 62
     7
370
    25
100
AcDbSpline
210
0.0
220
0.0
230
1.0
 70
     8
 71
     3
 72
    27
 73
    23
 74
     0
 42
0.00000001
 43
0.00000001
 40
0.0
 40
0.0
 40
0.0
 40
0.0
 40
0.0558219935453466
 40
0.1145471846506754
 40
0.1603663708097473
 40
0.193165855086288
 40
0.2271654525693894
 40
0.2621262721978134
 40
0.3012935623384244
 40
0.3482310390527359
 40
0.4045309872119138
 40
0.4631171990514283
 40
0.5117603876628615
 40
0.583265990685687
 40
0.6572162206600056
 40
0.7296323398742267
 40
0.7576619546676548
 40
0.7854644439470638
 40
0.8171219733186073
 40
0.8630304727190699
 40
0.9238972714359188
 40
1.0
 40
1.0
 40
1.0
 40
1.0
 10
-180.4338915461712
 20
185.5463843185597
 30
0.0
 10
-181.3498054269648
 20
184.802842982465
 30
0.0
 10
-183.2292681577638
 20
183.2770901149709
 30
0.0
 10
-185.7894764586793
 20
181.0791598325076
 30
0.0
 10
-187.9540523568821
 20
179.1651902233839
 30
0.0
 10
-189.7064753463544
 20
177.5706700471504
 30
0.0
 10
-191.3035276342185
 20
176.0825595580376
 30
0.0
 10
-192.9834044572589
 20
174.4763616352462
 30
0.0
 10
-194.8384829819432
 20
172.6520981544401
 30
0.0
 10
-196.9952478660119
 20
170.4587837006325
 30
0.0
 10
-199.3975658337653
 20
167.9113164663626
 30
0.0
 10
-201.7606816621695
 20
165.2812324052541
 30
0.0
 10
-204.2787838045395
 20
162.3442219345335
 30
0.0
 10
-206.9437844526983
 20
159.0618297077502
 30
0.0
 10
-209.8121183577377
 20
155.2751600018899
 30
0.0
 10
-212.0072643942266
 20
152.1559410597367
 30
0.0
 10
-213.5661849798419
 20
149.8204495983633
 30
0.0
 10
-214.6079455863864
 20
148.2116428528507
 30
0.0
 10
-215.8364383836496
 20
146.2510868881628
 30
0.0
 10
-217.4011077123179
 20
143.6373935903885
 30
0.0
 10
-219.3799548379465
 20
140.1360901649404
 30
0.0
 10
-220.734541868687
 20
137.4549548724092
 30
0.0
 10
-221.4871747437748
 20
135.9652679656815
 30
0.0
  0
SPLINE
  5
64
330
1F
100
AcDbEntity
  8
0
  6
Continuous
 62
     7
370
    25
100
AcDbSpline
210
0.0
220
0.0
230
1.0
 70
     8
 71
     3
 72
    58
 73
    54
 74
     0
 42
0.00000001
 43
0.00000001
 40
0.0
 40
0.0
 40
0.0
 40
0.0
 40
0.0145273392587658
 40
0.029208618253391
 40
0.0440503658307073
 40
0.0590578553103441
 40
0.0742300455990942
 40
0.0895591283070652
 40
0.1050366358832437
 40
0.1205497365736838
 40
0.1378997717549799
 40
0.1553556377791769
 40
0.1729060557225924
 40
0.1905273069228635
 40
0.2060946110155279
 40
0.222627028744065
 40
0.2387320645573443
 40
0.254387778421099
 40
0.2695643725735347
 40
0.2842538869909128
 40
0.2985011872038094
 40
0.3125849271800971
 40
0.3267853575819338
 40
0.3410382792203392
 40
0.3552674342854577
 40
0.3693976034339846
 40
0.3834250666661607
 40
0.3976052666238815
 40
0.4122363112515562
 40
0.4272985164317432
 40
0.4427685416918278
 40
0.4586038505164655
 40
0.4748048139466232
 40
0.4919334982891898
 40
0.5096592396615508
 40
0.5280314051666859
 40
0.5471453225288551
 40
0.5671070548465119
 40
0.5880394099228295
 40
0.6100901932620088
 40
0.6334461617481169
 40
0.6583815444299272
 40
0.6849270036575127
 40
0.7124400204694717
 40
0.7411611009101658
 40
0.77129920001965
 40
0.8031324361476992
 40
0.8370615002167101
 40
0.8740370209830497
 40
0.9108921462911826
 40
0.9462971587329526
 40
0.9804844192300061
 40
1.0
 40
1.0
 40
1.0
 40
1.0
 10
172.5689825124028
 20
63.9360776239698
 30
0.0
 10
172.0941296344464
 20
62.74631498538222
 30
0.0
 10
171.1393920743403
 20
60.35418232408404
 30
0.0
 10
169.3228918102765
 20
56.768679378827
 30
0.0
 10
167.2186123741448
 20
53.17455842994424
 30
0.0
 10
164.8007610482094
 20
49.58323326301295
 30
0.0
 10
162.0797172997609
 20
46.00663382472769
 30
0.0
 10
159.060516366192
 20
42.45630292106711
 30
0.0
 10
155.7485861224945
 20
38.95815068640102
 30
0.0
 10
152.0514062955711
 20
35.37412340702487
 30
0.0
 10
147.9816009031284
 20
31.73108604730859
 30
0.0
 10
143.5050826367616
 20
28.04206325945133
 30
0.0
 10
138.7744079209985
 20
24.4448951860049
 30
0.0
 10
134.00092081762
 20
21.08824716469816
 30
0.0
 10
129.132044331785
 20
17.91725422522988
 30
0.0
 10
124.2092587081547
 20
14.97510642658972
 30
0.0
 10
119.0807759354318
 20
12.17353130599311
 30
0.0
 10
113.9115489722957
 20
9.604715110429678
 30
0.0
 10
108.7280736994897
 20
7.274775656164286
 30
0.0
 10
103.5504478541533
 20
5.184927075992732
 30
0.0
 10
98.35965747031402
 20
3.325542322188429
 30
0.0
 10
93.11019421654872
 20
1.662848275643142
 30
0.0
 10
87.76027673325642
 20
0.1782792856256932
 30
0.0
 10
82.30832259604327
 20
-1.127322405569647
 30
0.0
 10
76.7981955556784
 20
-2.241776830706421
 30
0.0
 10
71.26703966299075
 20
-3.157022928553341
 30
0.0
 10
65.7096726954488
 20
-3.872003427312531
 30
0.0
 10
60.07260532384895
 20
-4.403883299225586
 30
0.0
 10
54.30112030180716
 20
-4.758580255656786
 30
0.0
 10
48.37694796204142
 20
-4.932502181910256
 30
0.0
 10
42.32635817810637
 20
-4.919695887550576
 30
0.0
 10
36.17366375522688
 20
-4.713389920300501
 30
0.0
 10
29.86567394722257
 20
-4.30890619162877
 30
0.0
 10
23.38519330582012
 20
-3.705097494989859
 30
0.0
 10
16.71369767512759
 20
-2.886539940533228
 30
0.0
 10
9.888990458660565
 20
-1.851202258184137
 30
0.0
 10
2.893858359511051
 20
-0.5901424305667508
 30
0.0
 10
-4.297730094617605
 20
0.9078454614672715
 30
0.0
 10
-11.71766749546789
 20
2.656579886154225
 30
0.0
 10
-19.40692557425829
 20
4.673288798269143
 30
0.0
 10
-27.42340800102521
 20
6.98150167582151
 30
0.0
 10
-35.81177411829932
 20
9.600731509474173
 30
0.0
 10
-44.51108524710433
 20
12.53483175014382
 30
0.0
 10
-53.46384478599037
 20
15.77911910217014
 30
0.0
 10
-62.637156696265
 20
19.32994198492847
 30
0.0
 10
-72.09774693506918
 20
23.22030365934043
 30
0.0
 10
-81.92632892531363
 20
27.49233814667709
 30
0.0
 10
-92.28268329155719
 20
32.22173211392266
 30
0.0
 10
-102.9703040660454
 20
37.32618229857426
 30
0.0
 10
-113.5906464016054
 20
42.66892978276108
 30
0.0
 10
-123.7108897513845
 20
48.0479007343485
 30
0.0
 10
-131.9948932624773
 20
52.68710676065105
 30
0.0
 10
-136.8655296237649
 20
55.56676751669262
 30
0.0
 10
-138.6355159981786
 20
56.61323453312579
 30
0.0
  0
SPLINE
  5
65
330
1F
100
AcDbEntity
  8
0
  6
Continuous
 62
     7
370
    25
100
AcDbSpline
210
0.0
220
0.0
230
1.0
 70
     8
 71
     3
 72
    18
 73
    14
 74
     0
 42
0.00000001
 43
0.00000001
 40
0.0
 40
0.0
 40
0.0
 40
0.0
 40
0.0727990291168278
 40
0.1901957735740394
 40
0.2997498144091525
 40
0.4032603156719499
 40
0.5127487266060732
 40
0.6168496918101235
 40
0.7166167131559309
 40
0.8008114866140672
 40
0.8813466207393779
 40
0.9667203525084699
 40
1.0
 40
1.0
 40
1.0
 40
1.0
 10
-138.6355159981786
 20
56.61323453312579
 30
0.0
 10
-140.1627652999148
 20
57.53308491198509
 30
0.0
 10
-144.1528784361485
 20
59.93629902763978
 30
0.0
 10
-150.2915010062198
 20
63.81972071251666
 30
0.0
 10
-156.8670200716965
 20
68.21772620664044
 30
0.0
 10
-163.0685202638791
 20
72.63636583123996
 30
0.0
 10
-168.9248509546231
 20
77.11266518695561
 30
0.0
 10
-174.4418901180204
 20
81.67561316073481
 30
0.0
 10
-179.2466650779178
 20
85.99955260080047
 30
0.0
 10
-183.4264713671589
 20
90.07285106651983
 30
0.0
 10
-187.112133672731
 20
94.02697484852688
 30
0.0
 10
-189.8893765683345
 20
97.23970675910856
 30
0.0
 10
-191.3503081466993
 20
99.21677100950633
 30
0.0
 10
-191.7600671290408
 20
99.77129378611284
 30
0.0
  0
SPLINE
  5
66
330
1F
100
AcDbEntity
  8
0
  6
Continuous
 62
     7
370
    25
100
AcDbSpline
210
0.0
220
0.0
230
1.0
 70
     8
 71
     3
 72
    81
 73
    77
 74
     0
 42
0.00000001
 43
0.00000001
 40
0.0
 40
0.0
 40
0.0
 40
0.0
 40
0.0167287822665585
 40
0.0341278936419411
 40
0.0512868809264126
 40
0.067707830565499
 40
0.078119602468916
 40
0.0880701270498261
 40
0.0975418958348004
 40
0.1063546463243282
 40
0.114724733266325
 40
0.124438103572749
 40
0.1352912348893249
 40
0.1465150585319476
 40
0.156512937517248
 40
0.1653234320443945
 40
0.1733866722574821
 40
0.1810036489419747
 40
0.1885674447822802
 40
0.1968819551568892
 40
0.2066611283818444
 40
0.2174482644267617
 40
0.2279707137846631
 40
0.2381402615419914
 40
0.2478596114335356
 40
0.2683473447954095
 40
0.2898332446241601
 40
0.3139098401501245
 40
0.3365547115633445
 40
0.3589827545299676
 40
0.3814155315311554
 40
0.3991366340484147
 40
0.4174364930009234
 40
0.4357124686112359
 40
0.4520474366470756
 40
0.468250246134888
 40
0.4855577933383822
 40
0.5169727768708479
 40
0.5473023870599557
 40
0.577340874511001
 40
0.607358639161273
 40
0.62080520685615
 40
0.634279082346964
 40
0.6482600529978836
 40
0.6629676294625082
 40
0.6777069330190335
 40
0.68649602581163
 40
0.6945591877874462
 40
0.7018743737973121
 40
0.7084485204995806
 40
0.7155939881041885
 40
0.7240842657998328
 40
0.7375363935182515
 40
0.7508820374146692
 40
0.7636553798171045
 40
0.7758377555124207
 40
0.7878866471754683
 40
0.807950796802862
 40
0.8283425139882458
 40
0.8491974924594712
 40
0.8611735595527844
 40
0.8734943745875238
 40
0.8861021854516443
 40
0.8926457115321572
 40
0.8980118496684654
 40
0.9022016496407983
 40
0.9061813695739808
 40
0.911640002865756
 40
0.9180794099293786
 40
0.9262755426960589
 40
0.936715145484576
 40
0.946645107002875
 40
0.9579502680973832
 40
0.9706128515834669
 40
0.9846290925976323
 40
1.0
 40
1.0
 40
1.0
 40
1.0
 10
-221.4871978001074
 20
135.9652210005482
 30
0.0
 10
-222.4714864830928
 20
133.7737115004767
 30
0.0
 10
-224.4795046968895
 20
129.3028778234041
 30
0.0
 10
-226.4108757389688
 20
122.8123712899902
 30
0.0
 10
-227.6122974938162
 20
116.3213990914135
 30
0.0
 10
-227.9592111529719
 20
110.7298507581241
 30
0.0
 10
-227.8086208295896
 20
106.0814154964265
 30
0.0
 10
-227.4170887589488
 20
102.3346315597953
 30
0.0
 10
-226.8092658133344
 20
98.81577362841709
 30
0.0
 10
-226.0298179490264
 20
95.52189319760988
 30
0.0
 10
-225.0521681793617
 20
92.22530553837116
 30
0.0
 10
-223.7964752372233
 20
88.73175115260068
 30
0.0
 10
-222.173809345713
 20
84.95740871401938
 30
0.0
 10
-220.286616488081
 20
81.22119970487735
 30
0.0
 10
-218.3101820560632
 20
77.79050915621461
 30
0.0
 10
-216.3871783013528
 20
74.77780459669196
 30
0.0
 10
-214.5147135946604
 20
72.07814997864327
 30
0.0
 10
-212.6370947810323
 20
69.55547208805206
 30
0.0
 10
-210.6472610432766
 20
67.0448081211202
 30
0.0
 10
-208.3743947843538
 20
64.3474289955657
 30
0.0
 10
-205.6941369514532
 20
61.3653855605139
 30
0.0
 10
-202.6694303897128
 20
58.21981917798129
 30
0.0
 10
-199.4724152577991
 20
55.10074706306038
 30
0.0
 10
-196.2670132138574
 20
52.14766181826099
 30
0.0
 10
-191.8724882797034
 20
48.30190644429813
 30
0.0
 10
-185.998099474067
 20
43.5144872522048
 30
0.0
 10
-178.1126927442235
 20
37.62647521245895
 30
0.0
 10
-169.5929633846504
 20
31.77893597669339
 30
0.0
 10
-160.6390521894457
 20
26.06248464757212
 30
0.0
 10
-151.6331721225216
 20
20.6657585783476
 30
0.0
 10
-143.0725857348694
 20
15.81625790582934
 30
0.0
 10
-134.9258112589462
 20
11.40054261190809
 30
0.0
 10
-127.2429928330011
 20
7.387854949169325
 30
0.0
 10
-119.6532030647415
 20
3.559170545750876
 30
0.0
 10
-112.2809435125256
 20
-0.0503187948747846
 30
0.0
 10
-104.9755573495022
 20
-3.530872506722751
 30
0.0
 10
-95.35113190079485
 20
-7.974034478128493
 30
0.0
 10
-83.42760439233575
 20
-13.20976574531254
 30
0.0
 10
-69.24832158106828
 20
-18.98702193964327
 30
0.0
 10
-54.91479773183048
 20
-24.32079822218449
 30
0.0
 10
-42.93340701618668
 20
-28.32330976525235
 30
0.0
 10
-33.44512237704646
 20
-31.18663494876666
 30
0.0
 10
-26.53404320139181
 20
-33.12945894434773
 30
0.0
 10
-19.30859812810041
 20
-35.00390128363073
 30
0.0
 10
-11.75224387887706
 20
-36.78073930040686
 30
0.0
 10
-4.994031046063373
 20
-38.19219787979011
 30
0.0
 10
0.6593359675686394
 20
-39.24700187901141
 30
0.0
 10
5.022498694768839
 20
-39.98911188481831
 30
0.0
 10
9.017205571844888
 20
-40.6066269887293
 30
0.0
 10
12.87164247555861
 20
-41.14720874640351
 30
0.0
 10
16.96858074293199
 20
-41.6627725408157
 30
0.0
 10
22.37398543907545
 20
-42.25142822084693
 30
0.0
 10
28.99722164619149
 20
-42.81031214776362
 30
0.0
 10
36.5042346204148
 20
-43.20859423388964
 30
0.0
 10
43.83453969304801
 20
-43.36313271950481
 30
0.0
 10
50.96256698209836
 20
-43.29026609966968
 30
0.0
 10
59.53102215434575
 20
-42.92652672759395
 30
0.0
 10
69.71692790220116
 20
-42.04902503145843
 30
0.0
 10
81.55597545704852
 20
-40.33087313612054
 30
0.0
 10
91.6965609682636
 20
-38.22689393831116
 30
0.0
 10
100.1342760736939
 20
-36.03128310764896
 30
0.0
 10
106.911909336163
 20
-33.99492885799576
 30
0.0
 10
112.569830927565
 20
-32.05563471640729
 30
0.0
 10
116.8933285764246
 20
-30.42961113984848
 30
0.0
 10
119.6966740581543
 20
-29.31629507979643
 30
0.0
 10
122.028642267728
 20
-28.35034992800028
 30
0.0
 10
124.3545903868683
 20
-27.35246874926136
 30
0.0
 10
127.0341071425255
 20
-26.15665705201775
 30
0.0
 10
130.3757730558198
 20
-24.59254473459337
 30
0.0
 10
134.4673355687499
 20
-22.56523210236538
 30
0.0
 10
139.0123585658762
 20
-20.15294396829311
 30
0.0
 10
143.9065076924136
 20
-17.36206851744981
 30
0.0
 10
148.9817979607976
 20
-14.25622771805692
 30
0.0
 10
154.4599687228377
 20
-10.63771280628852
 30
0.0
 10
160.2924714763497
 20
-6.489940861865218
 30
0.0
 10
164.1296351151436
 20
-3.464262059306167
 30
0.0
 10
166.1366582581734
 20
-1.881684939394932
 30
0.0
  0
SPLINE
  5
67
330
1F
100
AcDbEntity
  8
0
  6
Continuous
 62
     7
370
    25
100
AcDbSpline
210
0.0
220
0.0
230
1.0
 70
     8
 71
     3
 72
    79
 73
    75
 74
     0
 42
0.00000001
 43
0.00000001
 40
0.0
 40
0.0
 40
0.0
 40
0.0
 40
0.0026329985929162
 40
0.0207551544542875
 40
0.0280196644520299
 40
0.0356524474451646
 40
0.0444156081168716
 40
0.054915926143847
 40
0.0656781587825991
 40
0.0740840636476709
 40
0.0805418857409237
 40
0.0868327127032059
 40
0.0926361914068215
 40
0.0997208154690493
 40
0.1085902182362621
 40
0.118242410508229
 40
0.1258048316569938
 40
0.1312249104138151
 40
0.137226547774194
 40
0.1457795650547973
 40
0.1561678701166618
 40
0.1657681618538255
 40
0.1738075017104461
 40
0.1803835414275692
 40
0.1895894409736465
 40
0.2007902941831325
 40
0.212854303606502
 40
0.2229533243202723
 40
0.2310948272736836
 40
0.2396834428011867
 40
0.249571563150304
 40
0.2620128566003931
 40
0.2740765852035803
 40
0.2857336349195644
 40
0.2984821588301924
 40
0.313758804472056
 40
0.331498061006825
 40
0.3730146773904972
 40
0.4115302553396868
 40
0.4460097982460399
 40
0.4780573557998873
 40
0.5075147040505702
 40
0.5337356792541271
 40
0.5569881799254093
 40
0.5775443787135697
 40
0.588488879976191
 40
0.5986166252929168
 40
0.6088428600239958
 40
0.6212926925249282
 40
0.6360088051645917
 40
0.6517689442166679
 40
0.6669690712514389
 40
0.6816910985110369
 40
0.6999239383098652
 40
0.7206082033981165
 40
0.7431600751803429
 40
0.7665649423828702
 40
0.7885843692146405
 40
0.808549172072515
 40
0.8263377556650455
 40
0.8415310055367787
 40
0.8517910710383932
 40
0.8619413883215246
 40
0.8738177615933015
 40
0.8875854243717105
 40
0.9034713323833063
 40
0.9202592257799357
 40
0.9362667627648456
 40
0.9499833747552072
 40
0.9559399173883233
 40
0.963643867507831
 40
0.9734924792256606
 40
0.9855729333652578
 40
1.0
 40
1.0
 40
1.0
 40
1.0
 10
-164.1067506158061
 20
28.33835131163766
 30
0.0
 10
-163.9065346232269
 20
28.11163979337
 30
0.0
 10
-162.3282907679586
 20
26.32453949226439
 30
0.0
 10
-160.1195888417736
 20
24.05038724514213
 30
0.0
 10
-157.5104555791094
 20
21.40689747796323
 30
0.0
 10
-155.6222426386634
 20
19.54821035307013
 30
0.0
 10
-153.4632277557693
 20
17.47662963565792
 30
0.0
 10
-151.0302558134249
 20
15.21339719926875
 30
0.0
 10
-148.5936974876907
 20
13.02016764227218
 30
0.0
 10
-146.4641204748926
 20
11.15841860133091
 30
0.0
 10
-144.7014226879972
 20
9.651194318915742
 30
0.0
 10
-143.1510342531274
 20
8.350009858585222
 30
0.0
 10
-141.5439331277121
 20
7.024533436041508
 30
0.0
 10
-139.7175521761285
 20
5.545472792479002
 30
0.0
 10
-137.5524148022528
 20
3.830535787066533
 30
0.0
 10
-135.3241673921042
 20
2.109677902544918
 30
0.0
 10
-133.373840603513
 20
0.637847653250291
 30
0.0
 10
-131.7367579832995
 20
-0.5765900192305842
 30
0.0
 10
-130.023599739429
 20
-1.828804186500589
 30
0.0
 10
-127.8752259196328
 20
-3.37036461393999
 30
0.0
 10
-125.3970306838594
 20
-5.107032505348635
 30
0.0
 10
-122.9390925223273
 20
-6.787893944504103
 30
0.0
 10
-120.8012132411325
 20
-8.219180858133328
 30
0.0
 10
-118.6919563203684
 20
-9.607062490143987
 30
0.0
 10
-116.3124287510437
 20
-11.14428178126046
 30
0.0
 10
-113.4406678181696
 20
-12.95722743655507
 30
0.0
 10
-110.4680556657732
 20
-14.78639567030938
 30
0.0
 10
-107.7442239641383
 20
-16.42307001570664
 30
0.0
 10
-105.3248951835721
 20
-17.84913063991762
 30
0.0
 10
-102.9298278283026
 20
-19.23681886082984
 30
0.0
 10
-100.1423303478953
 20
-20.82233534925252
 30
0.0
 10
-97.02470433612737
 20
-22.55742373551698
 30
0.0
 10
-93.73240469957798
 20
-24.34794846490311
 30
0.0
 10
-90.3838226023129
 20
-26.12991272950341
 30
0.0
 10
-86.79184957632104
 20
-28.00045942493724
 30
0.0
 10
-82.72201099788913
 20
-30.07000408244611
 30
0.0
 10
-76.13376956624589
 20
-33.33000945198646
 30
0.0
 10
-67.26010381083825
 20
-37.53089101319117
 30
0.0
 10
-56.49504871780012
 20
-42.27994911229678
 30
0.0
 10
-46.27870251047449
 20
-46.4535484093729
 30
0.0
 10
-36.64038628829411
 20
-50.07474845992581
 30
0.0
 10
-27.56578536328281
 20
-53.17898227742301
 30
0.0
 10
-19.23135822193918
 20
-55.74920131496437
 30
0.0
 10
-11.70564120140634
 20
-57.82933583145799
 30
0.0
 10
-5.74384703587601
 20
-59.29817014232565
 30
0.0
 10
-1.179909044495913
 20
-60.31962268111884
 30
0.0
 10
2.263705731483579
 20
-61.03740656213572
 30
0.0
 10
5.873826701218026
 20
-61.7354267242608
 30
0.0
 10
9.996167855033693
 20
-62.46227207356408
 30
0.0
 10
14.7623624602324
 20
-63.20290021817818
 30
0.0
 10
19.88515246064487
 20
-63.8741521646625
 30
0.0
 10
25.06229216607416
 20
-64.41896429225882
 30
0.0
 10
30.56871033013159
 20
-64.85539556622405
 30
0.0
 10
36.75020603783508
 20
-65.16170172543157
 30
0.0
 10
43.90165401451096
 20
-65.25246812016444
 30
0.0
 10
51.70726897455909
 20
-65.01181442496068
 30
0.0
 10
59.66026722827464
 20
-64.37601097332995
 30
0.0
 10
67.35739203289478
 20
-63.36221175304732
 30
0.0
 10
74.3890836801048
 20
-62.07645311742854
 30
0.0
 10
80.56949577816627
 20
-60.64554004427605
 30
0.0
 10
85.56133351960021
 20
-59.26719888580955
 30
0.0
 10
89.63027510898223
 20
-57.99900447327729
 30
0.0
 10
93.28837575520774
 20
-56.75192669386617
 30
0.0
 10
97.30260621240886
 20
-55.25360621429367
 30
0.0
 10
101.8941518739023
 20
-53.36229484660031
 30
0.0
 10
106.9203752733105
 20
-51.0618717140781
 30
0.0
 10
112.0479003198904
 20
-48.45013298145081
 30
0.0
 10
116.8110464593119
 20
-45.77109688923701
 30
0.0
 10
120.3702260462232
 20
-43.59471391574902
 30
0.0
 10
123.0526056072571
 20
-41.86649648421442
 30
0.0
 10
125.3371140143828
 20
-40.34221518094446
 30
0.0
 10
128.1712750508287
 20
-38.36400008791279
 30
0.0
 10
131.583952760208
 20
-35.86287437697568
 30
0.0
 10
133.9879755978506
 20
-33.9579839326416
 30
0.0
 10
135.2963966292013
 20
-32.92122226766935
 30
0.0
  0
LWPOLYLINE
  5
68
330
1F
100
AcDbEntity
  8
0
  6
Continuous
 62
     7
370
    25
100
AcDbPolyline
 90
        3
 70
   128
 43
0.0
 10
30.0371307093
 20
200.7297208968
 10
29.8947649642
 20
200.7841169635
 10
29.7524029452
 20
200.8385116585
  0
SPLINE
  5
69
330
1F
100
AcDbEntity
  8
0
  6
Continuous
 62
     7
370
    25
100
AcDbSpline
210
0.0
220
0.0
230
1.0
 70
     8
 71
     3
 72
    46
 73
    42
 74
     0
 42
0.00000001
 43
0.00000001
 40
0.0
 40
0.0
 40
0.0
 40
0.0
 40
0.0250428248557076
 40
0.0446252198379259
 40
0.0588284657553441
 40
0.0677288671148133
 40
0.0754872325071144
 40
0.0851903734956214
 40
0.0968281550783663
 40
0.1159173398195563
 40
0.1349103878575404
 40
0.1514785158400098
 40
0.1656490028907919
 40
0.1887392554462885
 40
0.2127667778957495
 40
0.23955406186605
 40
0.2686874408245027
 40
0.3017246690239835
 40
0.3319899854427933
 40
0.364957291242575
 40
0.3989961574901703
 40
0.4327657239841127
 40
0.4631428617011266
 40
0.4894413775833474
 40
0.5157757417132316
 40
0.545236209994774
 40
0.5791461682328841
 40
0.6174713756317215
 40
0.6592134319251698
 40
0.7039210332398639
 40
0.7321716464073217
 40
0.7613973707173233
 40
0.7886814151148025
 40
0.8126673996542
 40
0.8336468919148428
 40
0.8547743038499975
 40
0.8819847694154322
 40
0.915259077340499
 40
0.9545691572822552
 40
0.9999071537616361
 40
1.0
 40
1.0
 40
1.0
 40
1.0
 10
184.8919996931199
 20
106.7779796255492
 30
0.0
 10
183.8829870432101
 20
107.9048984770359
 30
0.0
 10
182.0849705821715
 20
109.9130186382738
 30
0.0
 10
179.6256815157165
 20
112.4998105777638
 30
0.0
 10
177.8118740080826
 20
114.3511844505504
 30
0.0
 10
176.4865854084224
 20
115.6732276503888
 30
0.0
 10
175.3597454309761
 20
116.7800037138971
 30
0.0
 10
174.112588228672
 20
117.9853958212183
 30
0.0
 10
172.368770774911
 20
119.6388028204618
 30
0.0
 10
170.1994723599045
 20
121.6409439291258
 30
0.0
 10
167.7785670583746
 20
123.804507712811
 30
0.0
 10
165.5495297811739
 20
125.7395253821322
 30
0.0
 10
163.1197504785718
 20
127.7979708946507
 30
0.0
 10
160.3404299890632
 20
130.0860167086694
 30
0.0
 10
156.9649509104957
 20
132.7720833927171
 30
0.0
 10
153.2826057874732
 20
135.600366995684
 30
0.0
 10
149.1367335211772
 20
138.6683687953301
 30
0.0
 10
144.7739063157011
 20
141.771998312257
 30
0.0
 10
140.2115456900133
 20
144.8981155237376
 30
0.0
 10
135.5731371712465
 20
147.9676713984417
 30
0.0
 10
130.7262127496143
 20
151.0675250578846
 30
0.0
 10
125.9647767705013
 20
154.0132239673132
 30
0.0
 10
121.5462071011392
 20
156.666636265408
 30
0.0
 10
117.4688850523576
 20
159.0545629543917
 30
0.0
 10
113.4262851593024
 20
161.37021977849
 30
0.0
 10
108.9989925547157
 20
163.8502501306719
 30
0.0
 10
103.9532108268266
 20
166.6102618026306
 30
0.0
 10
98.26116298375335
 20
169.6439167207661
 30
0.0
 10
91.9776912444434
 20
172.9024117103772
 30
0.0
 10
86.15155731425321
 20
175.8408225406004
 30
0.0
 10
80.92743005110654
 20
178.4184718881213
 30
0.0
 10
76.56998547146185
 20
180.5336042509965
 30
0.0
 10
72.42263673740678
 20
182.5135252513236
 30
0.0
 10
68.6938071734911
 20
184.2655185315151
 30
0.0
 10
65.30292635644952
 20
185.8357794706585
 30
0.0
 10
61.6910449026004
 20
187.4852112221493
 30
0.0
 10
57.38410398462866
 20
189.4184064937685
 30
0.0
 10
52.06230862478154
 20
191.7574417970499
 30
0.0
 10
45.69014410249583
 20
194.4634223263767
 30
0.0
 10
41.08689949454538
 20
196.3933407730946
 30
0.0
 10
38.56985281416087
 20
197.3811124279056
 30
0.0
 10
38.56470876879253
 20
197.3831311199884
 30
0.0
  0
SPLINE
  5
6D
330
1F
100
AcDbEntity
  8
0
  6
Continuous
 62
     7
370
    25
100
AcDbSpline
210
0.0
220
0.0
230
1.0
 70
     8
 71
     3
 72
    19
 73
    15
 74
     0
 42
0.00000001
 43
0.00000001
 40
0.0
 40
0.0
 40
0.0
 40
0.0
 40
0.1430034035580807
 40
0.2624031514422629
 40
0.3590764770815026
 40
0.435357028476514
 40
0.5038325110982912
 40
0.591029681770501
 40
0.6678689978998936
 40
0.7330757657334267
 40
0.7902116502843477
 40
0.8721335295895848
 40
0.9806456900667161
 40
1.0
 40
1.0
 40
1.0
 40
1.0
 10
135.2962626307165
 20
-32.92133039032815
 30
0.0
 10
136.6654777605885
 20
-31.79553188595671
 30
0.0
 10
139.1779100254257
 20
-29.72975535137185
 30
0.0
 10
142.4981689920597
 20
-26.76600094878847
 30
0.0
 10
145.1431336763145
 20
-24.28219490390639
 30
0.0
 10
147.2911746121106
 20
-22.16841123107982
 30
0.0
 10
149.3176640650879
 20
-20.09451934192406
 30
0.0
 10
151.3074420921986
 20
-17.96767175787539
 30
0.0
 10
153.2258248945689
 20
-15.81788073398655
 30
0.0
 10
154.8570923492362
 20
-13.91043628107971
 30
0.0
 10
156.5038796621054
 20
-11.91325825020897
 30
0.0
 10
158.4487233716049
 20
-9.438455233448321
 30
0.0
 10
160.052009993311
 20
-7.309461902299661
 30
0.0
 10
160.9768870804821
 20
-5.97127184336433
 30
0.0
 10
161.1168796660117
 20
-5.768718781039676
 30
0.0
  0
SPLINE
  5
6E
330
1F
100
AcDbEntity
  8
0
  6
Continuous
 62
     7
370
    25
100
AcDbSpline
210
0.0
220
0.0
230
1.0
 70
     8
 71
     3
 72
    31
 73
    27
 74
     0
 42
0.00000001
 43
0.00000001
 40
0.0
 40
0.0
 40
0.0
 40
0.0
 40
0.0543547989685738
 40
0.1030103010385571
 40
0.1459527690665211
 40
0.1842299417692446
 40
0.2188615511191324
 40
0.2499092765166011
 40
0.2829049354607496
 40
0.3274653487873405
 40
0.3700109198785994
 40
0.4049082951211356
 40
0.4401798100425636
 40
0.4801966628903878
 40
0.5193933800265359
 40
0.5737413278271741
 40
0.6304193145934646
 40
0.6902520643125222
 40
0.7524381694819651
 40
0.7885190789581332
 40
0.824836313261797
 40
0.8614191885799226
 40
0.8983547292288403
 40
0.9356460603712499
 40
0.9701652668108213
 40
0.9999999999999999
 40
0.9999999999999999
 40
0.9999999999999999
 40
0.9999999999999999
 10
166.1366579374144
 20
-1.881685197909128
 30
0.0
 10
168.2499093609329
 20
-0.1341846444315176
 30
0.0
 10
172.2548301671466
 20
3.177584720824508
 30
0.0
 10
177.510718281121
 20
8.06023353872666
 30
0.0
 10
181.9104542699124
 20
12.51321356851259
 30
0.0
 10
185.5740898434955
 20
16.57852516098049
 30
0.0
 10
188.6362265698088
 20
20.29713893917796
 30
0.0
 10
191.3366053732611
 20
23.88537535839789
 30
0.0
 10
194.0773171021694
 20
27.89572987699744
 30
0.0
 10
196.7788253360705
 20
32.40461333451918
 30
0.0
 10
199.1187741426811
 20
37.05370553291429
 30
0.0
 10
200.9326295182199
 20
41.39537322924664
 30
0.0
 10
202.3882002330192
 20
45.67492051444155
 30
0.0
 10
203.537850771192
 20
50.14509646987101
 30
0.0
 10
204.4147279439554
 20
55.37104698447469
 30
0.0
 10
204.8018539234373
 20
61.24625016059943
 30
0.0
 10
204.4267940955371
 20
67.83437929226262
 30
0.0
 10
203.1828733987571
 20
74.58307616560994
 30
0.0
 10
201.3454703015527
 20
80.3997048233212
 30
0.0
 10
199.3171697256856
 20
85.23306763311953
 30
0.0
 10
197.4176482230091
 20
89.07482618396728
 30
0.0
 10
195.2527778669053
 20
92.86911675044435
 30
0.0
 10
192.8324915096596
 20
96.6258020328449
 30
0.0
 10
190.2405015138982
 20
100.2092384034362
 30
0.0
 10
187.6281421633683
 20
103.5768393842848
 30
0.0
 10
185.7586851767322
 20
105.7640039499616
 30
0.0
 10
184.8919977489431
 20
106.7779818297035
 30
0.0
  0
SPLINE
  5
6F
330
1F
100
AcDbEntity
  8
0
  6
Continuous
 62
     7
370
    25
100
AcDbSpline
210
0.0
220
0.0
230
1.0
 70
     8
 71
     3
 72
    18
 73
    14
 74
     0
 42
0.00000001
 43
0.00000001
 40
0.0
 40
0.0
 40
0.0
 40
0.0
 40
0.039299797273034
 40
0.1507380978907114
 40
0.2628721718630296
 40
0.3720843910037239
 40
0.4787090275683439
 40
0.5831518663057275
 40
0.6858052389536172
 40
0.7870502182215507
 40
0.88725891527278
 40
0.9865508406356507
 40
1.0
 40
1.0
 40
1.0
 40
1.0
 10
-46.4246114739835
 20
-47.85085671378072
 30
0.0
 10
-45.73478278078422
 20
-48.16212670712806
 30
0.0
 10
-43.08887943525621
 20
-49.35603227365439
 30
0.0
 10
-38.27700458232426
 20
-51.25674505312325
 30
0.0
 10
-32.05371805085949
 20
-53.52882824710724
 30
0.0
 10
-25.73115880786646
 20
-55.56714420492723
 30
0.0
 10
-19.39634184254469
 20
-57.36763363084066
 30
0.0
 10
-13.03935732810544
 20
-58.93438803854604
 30
0.0
 10
-6.653096396359935
 20
-60.27308303442971
 30
0.0
 10
-0.2324346120210546
 20
-61.39692795943922
 30
0.0
 10
6.235258134041003
 20
-62.28109121361901
 30
0.0
 10
10.86185236861755
 20
-62.81916265153114
 30
0.0
 10
13.35360134953017
 20
-62.99053227212661
 30
0.0
 10
13.65084817149691
 20
-63.0109753727334
 30
0.0
  0
SPLINE
  5
70
330
1F
100
AcDbEntity
  8
0
  6
Continuous
 62
     7
370
    25
100
AcDbSpline
210
0.0
220
0.0
230
1.0
 70
     8
 71
     3
 72
     9
 73
     5
 74
     0
 42
0.00000001
 43
0.00000001
 40
0.0
 40
0.0
 40
0.0
 40
0.0
 40
0.5524152717949017
 40
1.0
 40
1.0
 40
1.0
 40
1.0
 10
-63.14896354728933
 20
-39.28672845653072
 30
0.0
 10
-62.17404431863623
 20
-39.87656504378162
 30
0.0
 10
-60.40921398459172
 20
-40.9443063198952
 30
0.0
 10
-58.53115635263558
 20
-41.92667283921843
 30
0.0
 10
-57.69056643788296
 20
-42.36636509076752
 30
0.0
  0
SPLINE
  5
71
330
1F
100
AcDbEntity
  8
0
  6
Continuous
 62
     7
370
    25
100
AcDbSpline
210
0.0
220
0.0
230
1.0
 70
     8
 71
     3
 72
    10
 73
     6
 74
     0
 42
0.00000001
 43
0.00000001
 40
0.0
 40
0.0
 40
0.0
 40
0.0
 40
0.1136771452997913
 40
0.7884039589356202
 40
1.0
 40
1.0
 40
1.0
 40
1.0
 10
-48.85180486814127
 20
-45.34603920899441
 30
0.0
 10
-48.80075023075299
 20
-45.40003160686128
 30
0.0
 10
-48.44666253675965
 20
-45.7744940383237
 30
0.0
 10
-48.0619302893363
 20
-46.27519187865636
 30
0.0
 10
-47.81778764222562
 20
-46.67036919430436
 30
0.0
 10
-47.75950231503403
 20
-46.76471174122859
 30
0.0
  0
SPLINE
  5
74
330
1F
100
AcDbEntity
  8
0
  6
Continuous
 62
     7
370
    25
100
AcDbSpline
210
0.0
220
0.0
230
1.0
 70
     8
 71
     3
 72
    13
 73
     9
 74
     0
 42
0.00000001
 43
0.00000001
 40
0.0
 40
0.0
 40
0.0
 40
0.0
 40
0.1169282728403254
 40
0.3181114929333452
 40
0.5122553141508714
 40
0.6977772380820302
 40
0.8776026344328711
 40
0.9999999999999999
 40
0.9999999999999999
 40
0.9999999999999999
 40
0.9999999999999999
 10
20.75248239717533
 20
4.826024352942028
 30
0.0
 10
20.79026015382252
 20
4.545782191818399
 30
0.0
 10
20.89303716638577
 20
3.783363915276817
 30
0.0
 10
20.71929416340468
 20
2.498120627195024
 30
0.0
 10
20.25685743598123
 20
0.9838452698854652
 30
0.0
 10
19.47292486203412
 20
-0.5156667617634767
 30
0.0
 10
18.55613626797915
 20
-1.834862447280504
 30
0.0
 10
17.78419871580163
 20
-2.627179351859708
 30
0.0
 10
17.47157129432862
 20
-2.948060218672506
 30
0.0
  0
SPLINE
  5
75
330
1F
100
AcDbEntity
  8
0
  6
Continuous
 62
     7
370
    25
100
AcDbSpline
210
0.0
220
0.0
230
1.0
 70
     8
 71
     3
 72
    27
 73
    23
 74
     0
 42
0.00000001
 43
0.00000001
 40
0.0
 40
0.0
 40
0.0
 40
0.0
 40
0.0515299806891315
 40
0.1030047627583252
 40
0.1545017972958029
 40
0.2060948709464227
 40
0.2578013199917784
 40
0.3096074515970979
 40
0.3614831299630163
 40
0.413389865640896
 40
0.4652826914330119
 40
0.5171062509434273
 40
0.568818892398154
 40
0.6203843423783338
 40
0.6717779585274227
 40
0.7229979179173536
 40
0.7740844263133801
 40
0.8251348499397885
 40
0.8763104162117563
 40
0.9279624913778544
 40
0.9806655583030132
 40
0.9999999999999999
 40
0.9999999999999999
 40
0.9999999999999999
 40
0.9999999999999999
 10
-17.16837916026311
 20
4.118602272603425
 30
0.0
 10
-16.66625024952259
 20
4.567139365402685
 30
0.0
 10
-15.66253030565247
 20
5.463733080638466
 30
0.0
 10
-13.85015180660755
 20
6.704544420264864
 30
0.0
 10
-11.84599040247514
 20
7.836887219063601
 30
0.0
 10
-9.654391733924431
 20
8.834996754682349
 30
0.0
 10
-7.313027193684677
 20
9.682395966469839
 30
0.0
 10
-4.855049230412339
 20
10.36335420365336
 30
0.0
 10
-2.318423210969744
 20
10.86578167614842
 30
0.0
 10
0.257625825189625
 20
11.18095131847158
 30
0.0
 10
2.832517917592619
 20
11.30391018989327
 30
0.0
 10
5.365506356515725
 20
11.23367883143635
 30
0.0
 10
7.816496219834421
 20
10.97337785828668
 30
0.0
 10
10.14702573869973
 20
10.53023833400644
 30
0.0
 10
12.32103820575522
 20
9.915603172673142
 30
0.0
 10
14.30577344902548
 20
9.14476645188942
 30
0.0
 10
16.07350966942229
 20
8.236664169422419
 30
0.0
 10
17.59997530071777
 20
7.213074005389869
 30
0.0
 10
18.87579544610677
 20
6.097440913503879
 30
0.0
 10
19.87201626017832
 20
4.908412176431155
 30
0.0
 10
20.49665601691182
 20
3.940117137238866
 30
0.0
 10
20.69794783806516
 20
3.364120029822872
 30
0.0
 10
20.75197337357589
 20
3.209525809340017
 30
0.0
  0
SPLINE
  5
76
330
1F
100
AcDbEntity
  8
0
  6
Continuous
 62
     7
370
    25
100
AcDbSpline
210
0.0
220
0.0
230
1.0
 70
     8
 71
     3
 72
   112
 73
   108
 74
     0
 42
0.00000001
 43
0.00000001
 40
0.0
 40
0.0
 40
0.0
 40
0.0
 40
0.0078125000000001
 40
0.0078125000000001
 40
0.0156250000000003
 40
0.0156250000000003
 40
0.0234375000000004
 40
0.0234375000000004
 40
0.0312500000000005
 40
0.0312500000000005
 40
0.0625000000000011
 40
0.0625000000000011
 40
0.0781250000000013
 40
0.0781250000000013
 40
0.0859375000000014
 40
0.0859375000000014
 40
0.0937500000000015
 40
0.0937500000000015
 40
0.125000000000002
 40
0.125000000000002
 40
0.1406250000000023
 40
0.1406250000000023
 40
0.1562500000000025
 40
0.1562500000000025
 40
0.1601562500000025
 40
0.1601562500000025
 40
0.1640625000000026
 40
0.1640625000000026
 40
0.1718750000000026
 40
0.1718750000000026
 40
0.1875000000000026
 40
0.1875000000000026
 40
0.2187500000000027
 40
0.2187500000000027
 40
0.2343750000000027
 40
0.2343750000000027
 40
0.2500000000000027
 40
0.2500000000000027
 40
0.2812500000000026
 40
0.2812500000000026
 40
0.3125000000000026
 40
0.3125000000000026
 40
0.3203125000000026
 40
0.3203125000000026
 40
0.3281250000000026
 40
0.3281250000000026
 40
0.3437500000000025
 40
0.3437500000000025
 40
0.3750000000000022
 40
0.3750000000000022
 40
0.4375000000000018
 40
0.4375000000000018
 40
0.4687500000000016
 40
0.4687500000000016
 40
0.4843750000000014
 40
0.4843750000000014
 40
0.5000000000000013
 40
0.5000000000000013
 40
0.5625000000000009
 40
0.5625000000000009
 40
0.5937500000000007
 40
0.5937500000000007
 40
0.6250000000000004
 40
0.6250000000000004
 40
0.6875000000000001
 40
0.6875000000000001
 40
0.7187499999999999
 40
0.7187499999999999
 40
0.7343749999999998
 40
0.7343749999999998
 40
0.7421874999999998
 40
0.7421874999999998
 40
0.7499999999999998
 40
0.7499999999999998
 40
0.7812499999999993
 40
0.7812499999999993
 40
0.8124999999999989
 40
0.8124999999999989
 40
0.820312499999999
 40
0.820312499999999
 40
0.828124999999999
 40
0.828124999999999
 40
0.843749999999999
 40
0.843749999999999
 40
0.8749999999999991
 40
0.8749999999999991
 40
0.8906249999999992
 40
0.8906249999999992
 40
0.8984374999999992
 40
0.8984374999999992
 40
0.9062499999999992
 40
0.9062499999999992
 40
0.9374999999999996
 40
0.9374999999999996
 40
0.9531249999999998
 40
0.9531249999999998
 40
0.9609374999999998
 40
0.9609374999999998
 40
0.9687499999999998
 40
0.9687499999999998
 40
0.984375
 40
0.984375
 40
0.9921875
 40
0.9921875
 40
0.99609375
 40
0.99609375
 40
1.0
 40
1.0
 40
1.0
 40
1.0
 10
150.1667632505645
 20
26.17289640243696
 30
0.0
 10
149.1410701164437
 20
25.3489062797458
 30
0.0
 10
148.1036999232469
 20
24.52912284461059
 30
0.0
 10
145.9989033398691
 20
22.90630428638601
 30
0.0
 10
144.9311435562639
 20
22.10375777050919
 30
0.0
 10
142.7643188677311
 20
20.5157379500482
 30
0.0
 10
141.6654328127592
 20
19.7300023441862
 30
0.0
 10
139.4349984237507
 20
18.17606180441078
 30
0.0
 10
138.3031237073669
 20
17.40785928197101
 30
0.0
 10
132.578702937848
 20
13.62746619602589
 30
0.0
 10
127.7767197198385
 20
10.78440605440002
 30
0.0
 10
120.1798428537768
 20
6.840706406003038
 30
0.0
 10
117.5820710065051
 20
5.579500778612495
 30
0.0
 10
113.5789322227675
 20
3.774446420849675
 30
0.0
 10
112.2268367560849
 20
3.187191522247099
 30
0.0
 10
109.4852895063717
 20
2.043132479774598
 30
0.0
 10
108.0996036093206
 20
1.487939157691659
 30
0.0
 10
101.1378146577646
 20
-1.18658934388996
 30
0.0
 10
95.4222455029806
 20
-3.018058297996992
 30
0.0
 10
86.6270265938315
 20
-5.297223897184525
 30
0.0
 10
83.65759674296643
 20
-5.977530407720256
 30
0.0
 10
77.64528108921984
 20
-7.18310660123711
 30
0.0
 10
74.60265032646664
 20
-7.708930048149175
 30
0.0
 10
70.75193988720305
 20
-8.26623651328403
 30
0.0
 10
69.97943744654859
 20
-8.372610210977564
 30
0.0
 10
68.43775636411789
 20
-8.57436171355843
 30
0.0
 10
67.66755827961941
 20
-8.669910960376164
 30
0.0
 10
65.35885452014836
 20
-8.940942725552285
 30
0.0
 10
63.82223944756607
 20
-9.100833709620385
 30
0.0
 10
59.21966258765117
 20
-9.520533297087761
 30
0.0
 10
56.16096571351771
 20
-9.720323495581905
 30
0.0
 10
47.01168785722994
 20
-10.09813171680762
 30
0.0
 10
40.94798749408501
 20
-10.0542057470728
 30
0.0
 10
31.8984200842791
 20
-9.60837337758296
 30
0.0
 10
28.88284077684974
 20
-9.394679055177928
 30
0.0
 10
22.93087134264892
 20
-8.85533517327885
 30
0.0
 10
19.987737565668
 20
-8.529299974017073
 30
0.0
 10
11.24538462771175
 20
-7.401801946322887
 30
0.0
 10
5.532590033847337
 20
-6.452027232720924
 30
0.0
 10
-5.706132103143593
 20
-4.231880584336406
 30
0.0
 10
-11.23226469390387
 20
-2.961833727285299
 30
0.0
 10
-18.04439831101588
 20
-1.210349377203129
 30
0.0
 10
-19.40236823713422
 20
-0.8516953651393211
 30
0.0
 10
-22.10245604939437
 20
-0.1208303470806998
 30
0.0
 10
-23.4453911206406
 20
0.2516469175548458
 30
0.0
 10
-27.45382565005858
 20
1.389234892405736
 30
0.0
 10
-30.09895866070754
 20
2.174487546989692
 30
0.0
 10
-37.96045748533668
 20
4.603344758522851
 30
0.0
 10
-43.10288855616106
 20
6.320076402401634
 30
0.0
 10
-58.29641103582515
 20
11.70183411042428
 30
0.0
 10
-68.11366194098153
 20
15.59817743235814
 30
0.0
 10
-82.50949946744421
 20
21.76935542503373
 30
0.0
 10
-87.25316583791329
 20
23.88077450334693
 30
0.0
 10
-94.29694091936705
 20
27.11889854386803
 30
0.0
 10
-96.63337951952317
 20
28.21032385319639
 30
0.0
 10
-101.278693226201
 20
30.4123827818869
 30
0.0
 10
-103.588212467146
 20
31.52330298241676
 30
0.0
 10
-115.0757582265042
 20
37.12319749388654
 30
0.0
 10
-124.0742469122429
 20
41.7473517662488
 30
0.0
 10
-137.1765636615512
 20
48.98139460583562
 30
0.0
 10
-141.4783298813574
 20
51.44224758295223
 30
0.0
 10
-149.9213242569116
 20
56.48479264004401
 30
0.0
 10
-154.0661954934588
 20
59.06942347312329
 30
0.0
 10
-166.1540106655596
 20
66.99567057550018
 30
0.0
 10
-173.7662968251906
 20
72.51942305811968
 30
0.0
 10
-184.199544938011
 20
81.33396339387623
 30
0.0
 10
-187.5110047633404
 20
84.36143853832486
 30
0.0
 10
-192.1661101506015
 20
89.07020244669539
 30
0.0
 10
-193.6656451575713
 20
90.66781075901561
 30
0.0
 10
-195.826454539754
 20
93.11172477321873
 30
0.0
 10
-196.531964419069
 20
93.93428828236702
 30
0.0
 10
-197.9114877976634
 20
95.59632917233138
 30
0.0
 10
-198.585682443225
 20
96.43615304161234
 30
0.0
 10
-201.8557838837791
 20
100.6572372023898
 30
0.0
 10
-204.162548246906
 20
104.1215082135473
 30
0.0
 10
-208.0415004372082
 20
111.2577340298461
 30
0.0
 10
-209.6135376084519
 20
114.9297313892868
 30
0.0
 10
-211.0236680450874
 20
119.6765931036192
 30
0.0
 10
-211.2777938309522
 20
120.6338515814508
 30
0.0
 10
-211.7273667534617
 20
122.5649452126355
 30
0.0
 10
-211.9226404945315
 20
123.5389574760009
 30
0.0
 10
-212.4120621228542
 20
126.4582087508866
 30
0.0
 10
-212.6122066184205
 20
128.4099361213311
 30
0.0
 10
-212.8278813522734
 20
134.2820214210477
 30
0.0
 10
-212.4583115402525
 20
138.2193185027415
 30
0.0
 10
-211.1058409081911
 20
144.1603470417949
 30
0.0
 10
-210.5215117400147
 20
146.1465440466233
 30
0.0
 10
-209.4408179606306
 20
149.1347901803304
 30
0.0
 10
-209.0461140314592
 20
150.1328528787532
 30
0.0
 10
-208.1980328180117
 20
152.1104199329658
 30
0.0
 10
-207.7437467737618
 20
153.0926580547945
 30
0.0
 10
-205.326543952923
 20
157.9722711371051
 30
0.0
 10
-202.9269463824049
 20
161.7750764267638
 30
0.0
 10
-198.7212570180005
 20
167.3480592824729
 30
0.0
 10
-197.2180864752321
 20
169.1838213273854
 30
0.0
 10
-194.8201639069751
 20
171.9064011324409
 30
0.0
 10
-193.997001258139
 20
172.8087618929675
 30
0.0
 10
-192.3046015496404
 20
174.6035076672612
 30
0.0
 10
-191.4344227694926
 20
175.496790200374
 30
0.0
 10
-188.7692518128793
 20
178.1507176652322
 30
0.0
 10
-186.916969133587
 20
179.8881981766402
 30
0.0
 10
-184.0361951685184
 20
182.4513238973462
 30
0.0
 10
-183.0593528593976
 20
183.2987705389906
 30
0.0
 10
-181.5696377022007
 20
184.559520846029
 30
0.0
 10
-181.0690339877962
 20
184.9780052344136
 30
0.0
 10
-180.0595010239277
 20
185.8117138226541
 30
0.0
 10
-179.5494721016451
 20
186.2278190404302
 30
0.0
 10
-179.0379577453449
 20
186.6402308995338
 30
0.0
  0
SPLINE
  5
77
330
1F
100
AcDbEntity
  8
0
  6
Continuous
 62
     7
370
    25
100
AcDbSpline
210
0.0
220
0.0
230
1.0
 70
     8
 71
     3
 72
   201
 73
   197
 74
     0
 42
0.00000001
 43
0.00000001
 40
0.0
 40
0.0
 40
0.0
 40
0.0
 40
0.0035193979271141
 40
0.0070353300702792
 40
0.010546941770634
 40
0.014053380042691
 40
0.0156250000000002
 40
0.0156250000000002
 40
0.0179810265387578
 40
0.0219039352801504
 40
0.0258228618841181
 40
0.029738622726542
 40
0.0312500000000003
 40
0.0312500000000003
 40
0.0375634986303762
 40
0.0453861878894163
 40
0.0532158705145174
 40
0.0610630509927245
 40
0.0625000000000006
 40
0.0625000000000006
 40
0.0649970354180948
 40
0.0689341188735286
 40
0.0703125000000006
 40
0.0703125000000006
 40
0.0728671892963378
 40
0.0767892097944609
 40
0.0781250000000006
 40
0.0781250000000006
 40
0.0806986752814929
 40
0.0845996458336868
 40
0.0884935460435499
 40
0.0923818553523481
 40
0.0937500000000006
 40
0.0937500000000006
 40
0.1001478290733703
 40
0.1079125386935793
 40
0.115691642545147
 40
0.1235015800957935
 40
0.1250000000000006
 40
0.1250000000000006
 40
0.127422224751516
 40
0.1313473255937359
 40
0.1328125000000006
 40
0.1328125000000006
 40
0.135268842689919
 40
0.1391787141248879
 40
0.1406250000000007
 40
0.1406250000000007
 40
0.1430755780557049
 40
0.1469648476982149
 40
0.1508485878580911
 40
0.1547288049405078
 40
0.1562500000000008
 40
0.1562500000000008
 40
0.1624860104683781
 40
0.1702515332733446
 40
0.1780388659779708
 40
0.1858605339171567
 40
0.187500000000001
 40
0.187500000000001
 40
0.1897856956723407
 40
0.1937140961745917
 40
0.1976397067071655
 40
0.2015564086587669
 40
0.203125000000001
 40
0.203125000000001
 40
0.2054633541936104
 40
0.2093647724881949
 40
0.2132620413106202
 40
0.2171564539795117
 40
0.2187500000000011
 40
0.2187500000000011
 40
0.224940580903593
 40
0.2327250198074454
 40
0.2405167524758695
 40
0.2483217855724066
 40
0.2500000000000013
 40
0.2500000000000013
 40
0.2561488345387195
 40
0.2639998719926444
 40
0.2656250000000013
 40
0.2656250000000013
 40
0.2718695528439579
 40
0.2797518889502202
 40
0.2812500000000013
 40
0.2812500000000013
 40
0.2876271819265526
 40
0.29548303077575
 40
0.3033235843294516
 40
0.3111525145712069
 40
0.3125000000000013
 40
0.3125000000000013
 40
0.3267852840184347
 40
0.3423989770969876
 40
0.3580076685105206
 40
0.3736219173428479
 40
0.3750000000000012
 40
0.3750000000000012
 40
0.3892485330826172
 40
0.4048924881259964
 40
0.4205580067765784
 40
0.436247912964754
 40
0.4375000000000012
 40
0.4375000000000012
 40
0.4519684565212293
 40
0.4677170286290639
 40
0.4834816578110442
 40
0.4992497292523379
 40
0.5000000000000011
 40
0.5000000000000011
 40
0.515004279904653
 40
0.5307373763731624
 40
0.5464499475822693
 40
0.562143545794782
 40
0.5625000000000011
 40
0.5625000000000011
 40
0.5778196986466947
 40
0.5934803684540465
 40
0.6091292320661338
 40
0.6247713565370006
 40
0.6250000000000011
 40
0.6250000000000011
 40
0.6404125600066211
 40
0.6560607337537092
 40
0.6717276440922717
 40
0.687428597365564
 40
0.687500000000001
 40
0.687500000000001
 40
0.6953023713287528
 40
0.7031897313718434
 40
0.7110768279938985
 40
0.718750000000001
 40
0.718750000000001
 40
0.7189502514099155
 40
0.7268022466904058
 40
0.734635684603099
 40
0.7424539231791222
 40
0.7500000000000009
 40
0.7500000000000009
 40
0.7502609543946992
 40
0.7580608179780822
 40
0.7658584708379166
 40
0.7736605211381407
 40
0.7812500000000009
 40
0.7812500000000009
 40
0.7814746006410797
 40
0.789310809433002
 40
0.7971584056780167
 40
0.8049952719889066
 40
0.8125000000000009
 40
0.8125000000000009
 40
0.812800507871368
 40
0.8205721070730675
 40
0.8283292358867202
 40
0.8360847683170343
 40
0.8437500000000008
 40
0.8437500000000008
 40
0.8438527526054589
 40
0.8516540691629364
 40
0.8594801269710862
 40
0.8673015803701967
 40
0.8750000000000008
 40
0.8750000000000008
 40
0.8750895143618757
 40
0.8818721808768963
 40
0.888644116182205
 40
0.8954160675682672
 40
0.9021984895874972
 40
0.9055969474592912
 40
0.9062500000000007
 40
0.9062500000000007
 40
0.9090017414334507
 40
0.9124140182813226
 40
0.9140625000000007
 40
0.9140625000000007
 40
0.9158349016798552
 40
0.9192665026254335
 40
0.9218750000000006
 40
0.9218750000000006
 40
0.922705834036275
 40
0.9261463094991285
 40
0.9295812977960888
 40
0.9296875000000006
 40
0.9296875000000006
 40
0.9375000000000004
 40
0.9375000000000004
 40
0.9383905994696091
 40
0.9471713175979536
 40
0.9559393046259743
 40
0.964708228421898
 40
0.9687500000000002
 40
0.9687500000000002
 40
0.9734895896210366
 40
0.9822932428666662
 40
0.9911276844717107
 40
1.0
 40
1.0
 40
1.0
 40
1.0
 10
-179.0379623214031
 20
186.6402275641583
 30
0.0
 10
-179.5020056582891
 20
186.2661065026496
 30
0.0
 10
-180.4224077715427
 20
185.515999767394
 30
0.0
 10
-181.781073683219
 20
184.3842270563781
 30
0.0
 10
-183.1174867701701
 20
183.2460397739388
 30
0.0
 10
-184.1908865275809
 20
182.3111188224013
 30
0.0
 10
-184.8186476309641
 20
181.7552992591149
 30
0.0
 10
-185.302580321511
 20
181.3246324062893
 30
0.0
 10
-186.0720469047156
 20
180.634412784211
 30
0.0
 10
-187.3034154492894
 20
179.5057856848582
 30
0.0
 10
-188.6959969239814
 20
178.1933087281186
 30
0.0
 10
-189.7808629881992
 20
177.1408978834189
 30
0.0
 10
-190.4017225789707
 20
176.5260203081098
 30
0.0
 10
-191.2931897070437
 20
175.6379653041181
 30
0.0
 10
-192.8759975185222
 20
174.0220934951354
 30
0.0
 10
-195.2341435989151
 20
171.4692467725628
 30
0.0
 10
-197.6295558296625
 20
168.6857234773944
 30
0.0
 10
-199.275771096835
 20
166.6183739179523
 30
0.0
 10
-200.1355349605155
 20
165.4832945865718
 30
0.0
 10
-200.4976401401422
 20
165.0014282824096
 30
0.0
 10
-201.0835143913555
 20
164.2107939639382
 30
0.0
 10
-201.7739594574542
 20
163.2439368479607
 30
0.0
 10
-202.2310207585629
 20
162.5832116986425
 30
0.0
 10
-202.5667139077011
 20
162.0938299038495
 30
0.0
 10
-203.1117305194771
 20
161.2866352205383
 30
0.0
 10
-203.7447864726903
 20
160.3094153837341
 30
0.0
 10
-204.1570364147109
 20
159.6502077591948
 30
0.0
 10
-204.4609290951349
 20
159.1597862772211
 30
0.0
 10
-204.9560519002274
 20
158.3464242033291
 30
0.0
 10
-205.7157600454513
 20
157.0392900086209
 30
0.0
 10
-206.5262000980219
 20
155.5602371797455
 30
0.0
 10
-207.1248444550158
 20
154.3970473262295
 30
0.0
 10
-207.4545575319739
 20
153.7270126617803
 30
0.0
 10
-207.936204770064
 20
152.736388873541
 30
0.0
 10
-208.7679760809249
 20
150.9236899137005
 30
0.0
 10
-209.8936275459329
 20
148.0946240785047
 30
0.0
 10
-210.8967881400065
 20
145.0597764423437
 30
0.0
 10
-211.4844003322173
 20
142.8221876452376
 30
0.0
 10
-211.7557981831344
 20
141.5978320808593
 30
0.0
 10
-211.8667936024423
 20
141.0817712234823
 30
0.0
 10
-212.0377264657465
 20
140.2455341096978
 30
0.0
 10
-212.2197185875667
 20
139.2151908256859
 30
0.0
 10
-212.328519124938
 20
138.5049793189434
 30
0.0
 10
-212.4043485063112
 20
137.9885192895273
 30
0.0
 10
-212.5183396838874
 20
137.150950300057
 30
0.0
 10
-212.6293222823435
 20
136.1264605875494
 30
0.0
 10
-212.6888034908779
 20
135.4266071929828
 30
0.0
 10
-212.7288211794969
 20
134.9179685573791
 30
0.0
 10
-212.7850563250847
 20
134.0915319457813
 30
0.0
 10
-212.8390297299568
 20
132.7633197410484
 30
0.0
 10
-212.8498991209746
 20
131.255691260131
 30
0.0
 10
-212.8187665295681
 20
130.0594891872067
 30
0.0
 10
-212.7847608312298
 20
129.3656871726875
 30
0.0
 10
-212.7295280648616
 20
128.3701225457112
 30
0.0
 10
-212.5825043163076
 20
126.579161537051
 30
0.0
 10
-212.1916519397514
 20
123.8132682807121
 30
0.0
 10
-211.58416366386
 20
120.8715705945715
 30
0.0
 10
-211.0001705286817
 20
118.7199082247428
 30
0.0
 10
-210.6359361594636
 20
117.5460831517743
 30
0.0
 10
-210.4816876526552
 20
117.0595572111146
 30
0.0
 10
-210.2306538449498
 20
116.290697428535
 30
0.0
 10
-209.7914881353708
 20
115.0430539643068
 30
0.0
 10
-209.2402947523916
 20
113.606901414546
 30
0.0
 10
-208.7681333826719
 20
112.4700026429057
 30
0.0
 10
-208.4807337981176
 20
111.8126177755459
 30
0.0
 10
-208.2735996422958
 20
111.345517662867
 30
0.0
 10
-207.9368554564793
 20
110.6017381810348
 30
0.0
 10
-207.3645243755597
 20
109.4029151655963
 30
0.0
 10
-206.6690002061166
 20
108.0334556635125
 30
0.0
 10
-206.0832786138875
 20
106.9447606277034
 30
0.0
 10
-205.729822280411
 20
106.3123588602304
 30
0.0
 10
-205.2240258412969
 20
105.4170739091564
 30
0.0
 10
-204.2848776198803
 20
103.8215740118858
 30
0.0
 10
-202.7170683208388
 20
101.3764929296504
 30
0.0
 10
-200.9135973953876
 20
98.79553031741706
 30
0.0
 10
-199.4975306988891
 20
96.92047371252552
 30
0.0
 10
-198.6938488167567
 20
95.90118636133518
 30
0.0
 10
-198.0267310232178
 20
95.06136001994858
 30
0.0
 10
-196.8078583914167
 20
93.56803163469746
 30
0.0
 10
-195.3859402334582
 20
91.92422535391742
 30
0.0
 10
-194.5001867641342
 20
90.93691436345716
 30
0.0
 10
-193.7613172411577
 20
90.11835739791053
 30
0.0
 10
-192.4120717874044
 20
88.65819587998908
 30
0.0
 10
-190.8670358416975
 20
87.06755094750332
 30
0.0
 10
-189.9207733889873
 20
86.12295523946007
 30
0.0
 10
-189.1238961875045
 20
85.33132941916205
 30
0.0
 10
-187.6663121269097
 20
83.91270196455567
 30
0.0
 10
-185.3484877913845
 20
81.75251099953273
 30
0.0
 10
-182.8150453753091
 20
79.49441998914136
 30
0.0
 10
-180.9398724104847
 20
77.89095824646256
 30
0.0
 10
-179.9161733248364
 20
77.03511568649255
 30
0.0
 10
-178.1691300094368
 20
75.5792993248687
 30
0.0
 10
-174.7649833010695
 20
72.83844482723234
 30
0.0
 10
-169.3998964116565
 20
68.79422390287314
 30
0.0
 10
-163.6995867413029
 20
64.75583979388519
 30
0.0
 10
-159.620786607832
 20
62.02205865422147
 30
0.0
 10
-157.4670831469358
 20
60.61646216229778
 30
0.0
 10
-155.4844333727781
 20
59.32525990326881
 30
0.0
 10
-151.6505176838955
 20
56.88372703342146
 30
0.0
 10
-145.6843848444096
 20
53.24727597034128
 30
0.0
 10
-139.4071673636764
 20
49.57968282974545
 30
0.0
 10
-134.9744948719797
 20
47.08823901257961
 30
0.0
 10
-132.651675063491
 20
45.80718555037134
 30
0.0
 10
-130.4949801484128
 20
44.61940413765278
 30
0.0
 10
-126.3177342286327
 20
42.3559690608196
 30
0.0
 10
-119.870942343001
 20
38.97242871992156
 30
0.0
 10
-113.1577858805449
 20
35.55646760429748
 30
0.0
 10
-108.5252593814012
 20
33.26595414892154
 30
0.0
 10
-106.1441259443642
 20
32.10482121969574
 30
0.0
 10
-103.8726309627403
 20
30.99784772768248
 30
0.0
 10
-99.42148630253564
 20
28.85576964419369
 30
0.0
 10
-92.62969284846785
 20
25.67811221264624
 30
0.0
 10
-85.66372780911418
 20
22.5202211321963
 30
0.0
 10
-80.91688163693334
 20
20.44097054160324
 30
0.0
 10
-78.5035428083267
 20
19.40374233700415
 30
0.0
 10
-76.14610545347668
 20
18.39096929243433
 30
0.0
 10
-71.45990126082636
 20
16.41403314554563
 30
0.0
 10
-64.31490253057737
 20
13.52137391887175
 30
0.0
 10
-57.01813373569599
 20
10.70142126727464
 30
0.0
 10
-52.04490724907302
 20
8.876144952942894
 30
0.0
 10
-49.52014653601755
 20
7.975834910686916
 30
0.0
 10
-47.03161211138079
 20
7.088814061866428
 30
0.0
 10
-42.05079828618371
 20
5.362567440668431
 30
0.0
 10
-34.4227714000336
 20
2.887052076054788
 30
0.0
 10
-26.59368392131939
 20
0.5345418037968341
 30
0.0
 10
-21.24380660572507
 20
-0.935819183095335
 30
0.0
 10
-18.52807793764913
 20
-1.644989511725384
 30
0.0
 10
-17.17227741893732
 20
-1.998952575846855
 30
0.0
 10
-14.45219969199194
 20
-2.690498389983115
 30
0.0
 10
-10.31528500089625
 20
-3.683055561824272
 30
0.0
 10
-6.157857110211957
 20
-4.618522466560263
 30
0.0
 10
-3.374761126686998
 20
-5.202209225224602
 30
0.0
 10
-1.961500324284663
 20
-5.487493557089287
 30
0.0
 10
-0.5159894527767741
 20
-5.778995089285768
 30
0.0
 10
2.347803479906061
 20
-6.333240832079992
 30
0.0
 10
6.621416468898834
 20
-7.08960841331159
 30
0.0
 10
10.87706365894469
 20
-7.769876369112631
 30
0.0
 10
13.72126297021046
 20
-8.175049802054629
 30
0.0
 10
15.17313787765502
 20
-8.36904895552961
 30
0.0
 10
16.67245462663347
 20
-8.568932173811515
 30
0.0
 10
19.63706162395313
 20
-8.936447842193184
 30
0.0
 10
24.05648564421772
 20
-9.400317502633557
 30
0.0
 10
28.48329410746236
 20
-9.77738624461235
 30
0.0
 10
31.45399264787194
 20
-9.970327068691851
 30
0.0
 10
32.97069384905202
 20
-10.05314345513491
 30
0.0
 10
34.53558938807829
 20
-10.13810420514615
 30
0.0
 10
37.64537544911543
 20
-10.27239798342407
 30
0.0
 10
42.28717423036199
 20
-10.36988117260717
 30
0.0
 10
46.88955754958102
 20
-10.36135835566675
 30
0.0
 10
49.94003971733816
 20
-10.28479090019026
 30
0.0
 10
51.49073990744849
 20
-10.22741661430542
 30
0.0
 10
53.09450923368047
 20
-10.16732882181894
 30
0.0
 10
56.24202581455607
 20
-10.00984156850514
 30
0.0
 10
60.87871196165106
 20
-9.66193673613138
 30
0.0
 10
65.50053906430796
 20
-9.19602733312954
 30
0.0
 10
68.57943500342819
 20
-8.804306693200086
 30
0.0
 10
70.13128681425695
 20
-8.58586157278659
 30
0.0
 10
71.7103682453266
 20
-8.36328829905724
 30
0.0
 10
74.85943650197126
 20
-7.874235076265161
 30
0.0
 10
79.54482995954086
 20
-7.01358525492439
 30
0.0
 10
84.17274350492497
 20
-6.029760742676388
 30
0.0
 10
87.20646073319037
 20
-5.294836687824531
 30
0.0
 10
88.71360677297626
 20
-4.906599966755687
 30
0.0
 10
90.0434134110883
 20
-4.563813010527815
 30
0.0
 10
92.6653507092349
 20
-3.852532535054437
 30
0.0
 10
96.51765148369617
 20
-2.703896814595069
 30
0.0
 10
100.3161074560172
 20
-1.467585143560629
 30
0.0
 10
103.4391883243882
 20
-0.3642950426761549
 30
0.0
 10
105.4134264957278
 20
0.3749221495512323
 30
0.0
 10
106.1485045222274
 20
0.6564080215382823
 30
0.0
 10
106.765810869395
 20
0.8936444929236176
 30
0.0
 10
107.8800614784309
 20
1.328339713907459
 30
0.0
 10
109.2828832305303
 20
1.893971338047806
 30
0.0
 10
110.1865876754469
 20
2.268123633106953
 30
0.0
 10
110.7963544598828
 20
2.522736451893548
 30
0.0
 10
111.7223801140968
 20
2.912966002159303
 30
0.0
 10
113.1049306186876
 20
3.511192350411835
 30
0.0
 10
114.1657793219979
 20
3.984141529012677
 30
0.0
 10
114.7676435470653
 20
4.255886682595883
 30
0.0
 10
115.514172153597
 20
4.594303076795924
 30
0.0
 10
116.8520534653061
 20
5.213319643010125
 30
0.0
 10
118.0485514411197
 20
5.785031791434775
 30
0.0
 10
118.6507218831793
 20
6.077490840983482
 30
0.0
 10
119.9969599558528
 20
6.731644356589516
 30
0.0
 10
121.3045883035609
 20
7.389812393644391
 30
0.0
 10
122.7393673737141
 20
8.136540297503005
 30
0.0
 10
124.3309877632773
 20
8.968052635143788
 30
0.0
 10
127.3083552052489
 20
10.58863068240931
 30
0.0
 10
131.4172384053111
 20
12.98750891574192
 30
0.0
 10
134.6772528179206
 20
15.02046253966728
 30
0.0
 10
136.568058922881
 20
16.25412612400628
 30
0.0
 10
137.854779064012
 20
17.10536456320956
 30
0.0
 10
139.822278589817
 20
18.42843862718552
 30
0.0
 10
142.9951446305112
 20
20.6615736935329
 30
0.0
 10
146.6394821963845
 20
23.37587737193901
 30
0.0
 10
149.0008242551352
 20
25.23237243486659
 30
0.0
 10
150.1667574508965
 20
26.17290441707954
 30
0.0
  0
SPLINE
  5
78
330
1F
100
AcDbEntity
  8
0
  6
Continuous
 62
     7
370
    25
100
AcDbSpline
210
0.0
220
0.0
230
1.0
 70
     8
 71
     3
 72
   104
 73
   100
 74
     0
 42
0.00000001
 43
0.00000001
 40
0.0
 40
0.0
 40
0.0
 40
0.0
 40
0.015625
 40
0.015625
 40
0.0312500000000001
 40
0.0312500000000001
 40
0.0625000000000001
 40
0.0625000000000001
 40
0.0703125000000001
 40
0.0703125000000001
 40
0.0781250000000001
 40
0.0781250000000001
 40
0.0937500000000001
 40
0.0937500000000001
 40
0.1015625
 40
0.1015625
 40
0.109375
 40
0.109375
 40
0.125
 40
0.125
 40
0.15625
 40
0.15625
 40
0.171875
 40
0.171875
 40
0.1796875000000001
 40
0.1796875000000001
 40
0.1875000000000002
 40
0.1875000000000002
 40
0.2187500000000002
 40
0.2187500000000002
 40
0.2500000000000003
 40
0.2500000000000003
 40
0.2578125000000004
 40
0.2578125000000004
 40
0.2656250000000004
 40
0.2656250000000004
 40
0.2812500000000005
 40
0.2812500000000005
 40
0.3125000000000004
 40
0.3125000000000004
 40
0.3750000000000002
 40
0.3750000000000002
 40
0.40625
 40
0.40625
 40
0.4374999999999998
 40
0.4374999999999998
 40
0.4999999999999996
 40
0.4999999999999996
 40
0.5156249999999994
 40
0.5156249999999994
 40
0.5312499999999993
 40
0.5312499999999993
 40
0.5624999999999992
 40
0.5624999999999992
 40
0.6249999999999989
 40
0.6249999999999989
 40
0.6562499999999986
 40
0.6562499999999986
 40
0.6718749999999986
 40
0.6718749999999986
 40
0.6874999999999984
 40
0.6874999999999984
 40
0.7187499999999982
 40
0.7187499999999982
 40
0.7499999999999982
 40
0.7499999999999982
 40
0.7656249999999982
 40
0.7656249999999982
 40
0.7734374999999983
 40
0.7734374999999983
 40
0.7812499999999984
 40
0.7812499999999984
 40
0.7968749999999987
 40
0.7968749999999987
 40
0.8124999999999988
 40
0.8124999999999988
 40
0.8281249999999989
 40
0.8281249999999989
 40
0.843749999999999
 40
0.843749999999999
 40
0.8593749999999992
 40
0.8593749999999992
 40
0.8749999999999993
 40
0.8749999999999993
 40
0.9062499999999996
 40
0.9062499999999996
 40
0.9140624999999997
 40
0.9140624999999997
 40
0.9218749999999997
 40
0.9218749999999997
 40
0.9374999999999998
 40
0.9374999999999998
 40
0.9687499999999999
 40
0.9687499999999999
 40
0.9765625
 40
0.9765625
 40
0.984375
 40
0.984375
 40
1.0
 40
1.0
 40
1.0
 40
1.0
 10
-177.498459382207
 20
186.5761139521417
 30
0.0
 10
-179.5247042485259
 20
184.9425146790284
 30
0.0
 10
-181.4828829878459
 20
183.2857423780995
 30
0.0
 10
-185.2607772678871
 20
179.9250581534362
 30
0.0
 10
-187.0784706811808
 20
178.2204577989478
 30
0.0
 10
-192.2981254647207
 20
173.0271873307857
 30
0.0
 10
-195.4674454727187
 20
169.4593147562684
 30
0.0
 10
-198.9570732720615
 20
164.838774666799
 30
0.0
 10
-199.6312899018866
 20
163.906594973321
 30
0.0
 10
-200.9302534768888
 20
162.0253936940925
 30
0.0
 10
-201.5559153815641
 20
161.0747565520068
 30
0.0
 10
-203.3449647073405
 20
158.2103014797159
 30
0.0
 10
-204.4212632292374
 20
156.2841546485096
 30
0.0
 10
-205.8526238268927
 20
153.3689656386717
 30
0.0
 10
-206.2992194844975
 20
152.3929064216474
 30
0.0
 10
-207.1298246014556
 20
150.4319108717605
 30
0.0
 10
-207.514375165439
 20
149.4452074278977
 30
0.0
 10
-208.5644624875156
 20
146.4930124304228
 30
0.0
 10
-209.1288863935386
 20
144.5308566006237
 30
0.0
 10
-210.4230222450444
 20
138.6619695077452
 30
0.0
 10
-210.7557820308361
 20
134.7727224573131
 30
0.0
 10
-210.4883290074816
 20
128.9726173354835
 30
0.0
 10
-210.2715287996026
 20
127.0448714168013
 30
0.0
 10
-209.7582269068673
 20
124.161537688411
 30
0.0
 10
-209.5552485410438
 20
123.2001188250395
 30
0.0
 10
-209.0918187660604
 20
121.2973060843089
 30
0.0
 10
-208.8311571300737
 20
120.3540840992561
 30
0.0
 10
-207.3903302702418
 20
115.6768561183374
 30
0.0
 10
-205.8001880298532
 20
112.0587667641367
 30
0.0
 10
-201.8978920382157
 20
105.0267291324429
 30
0.0
 10
-199.5856286259038
 20
101.6128118604491
 30
0.0
 10
-196.3166631364622
 20
97.45247063632827
 30
0.0
 10
-195.6435326622002
 20
96.62528214575046
 30
0.0
 10
-194.2680930820247
 20
94.98953429039918
 30
0.0
 10
-193.565019506535
 20
94.17990515361488
 30
0.0
 10
-191.4126281530262
 20
91.77419983049825
 30
0.0
 10
-189.9201651391969
 20
90.20129209662913
 30
0.0
 10
-185.2902729307288
 20
85.56446118992557
 30
0.0
 10
-182.0007023096792
 20
82.58223606182987
 30
0.0
 10
-171.6465631251596
 20
73.89622908294902
 30
0.0
 10
-164.1028840506503
 20
68.44972358936066
 30
0.0
 10
-152.1357694299985
 20
60.6298642630445
 30
0.0
 10
-148.0342397772964
 20
58.07973107709449
 30
0.0
 10
-139.6827438370566
 20
53.1036834818565
 30
0.0
 10
-135.4286529877002
 20
50.67466781629624
 30
0.0
 10
-122.4742382572087
 20
43.53234298690113
 30
0.0
 10
-113.5802995558318
 20
38.964865186334
 30
0.0
 10
-102.2286003764256
 20
33.43197529381503
 30
0.0
 10
-99.94650563905044
 20
32.33425114844169
 30
0.0
 10
-95.35658996215476
 20
30.15817992359188
 30
0.0
 10
-93.0481243537838
 20
29.07954374192333
 30
0.0
 10
-86.0889338855543
 20
25.87897746392112
 30
0.0
 10
-81.4026857414787
 20
23.7915594831053
 30
0.0
 10
-67.18265835785812
 20
17.68888230637947
 30
0.0
 10
-57.48775028848647
 20
13.83304738505049
 30
0.0
 10
-42.48826709291011
 20
8.501580286140328
 30
0.0
 10
-37.41260010272192
 20
6.7994615538602
 30
0.0
 10
-29.65481253081988
 20
4.389044152830548
 30
0.0
 10
-27.04484227395392
 20
3.609358425588474
 30
0.0
 10
-21.77184305520965
 20
2.102484376850414
 30
0.0
 10
-19.1067290296517
 20
1.37455692049801
 30
0.0
 10
-11.03837281056354
 20
-0.7181877779524337
 30
0.0
 10
-5.584778240705497
 20
-1.985270966766345
 30
0.0
 10
5.504718373851784
 20
-4.206814522257588
 30
0.0
 10
11.14075242815164
 20
-5.16104851744896
 30
0.0
 10
19.7644283356533
 20
-6.301525030892666
 30
0.0
 10
22.6673432794741
 20
-6.633058166244946
 30
0.0
 10
27.07001670553065
 20
-7.047530776346289
 30
0.0
 10
28.54562495454339
 20
-7.171883331233753
 30
0.0
 10
31.51391312422136
 20
-7.3913137545197
 30
0.0
 10
33.00324133293383
 20
-7.486203683416313
 30
0.0
 10
37.4725685222061
 20
-7.722891756635729
 30
0.0
 10
40.45980500416262
 20
-7.817391076559065
 30
0.0
 10
46.45051550472578
 20
-7.872659722398777
 30
0.0
 10
49.45401999459349
 20
-7.833178091432407
 30
0.0
 10
55.47893842125715
 20
-7.606715225225873
 30
0.0
 10
58.50025405710489
 20
-7.420543582318216
 30
0.0
 10
64.56212074866279
 20
-6.889780171683554
 30
0.0
 10
67.6046594310662
 20
-6.545290590946412
 30
0.0
 10
73.7025156884903
 20
-5.684083678613547
 30
0.0
 10
76.71340841552339
 20
-5.173245924081166
 30
0.0
 10
82.66257546954836
 20
-3.998384537688457
 30
0.0
 10
85.60069834866763
 20
-3.334041432041607
 30
0.0
 10
94.30189017138103
 20
-1.102269735280117
 30
0.0
 10
99.9551716343383
 20
0.6967515586683987
 30
0.0
 10
106.8397059535754
 20
3.329592974471413
 30
0.0
 10
108.2095048697534
 20
3.876184439075184
 30
0.0
 10
110.9220016272997
 20
5.004011133917116
 30
0.0
 10
112.2596024429766
 20
5.583117344534913
 30
0.0
 10
116.2193962118849
 20
7.363624117954576
 30
0.0
 10
118.7885019442421
 20
8.60827681402672
 30
0.0
 10
126.3003639766311
 20
12.50147949429321
 30
0.0
 10
131.046956501087
 20
15.30985140218528
 30
0.0
 10
136.7045455105663
 20
19.04489993517605
 30
0.0
 10
137.8232005988089
 20
19.80386926922422
 30
0.0
 10
140.0275594238605
 20
21.33919892699497
 30
0.0
 10
141.1134856708623
 20
22.11565911822737
 30
0.0
 10
144.3250022755265
 20
24.47007433834114
 30
0.0
 10
146.4043441846899
 20
26.07305660649637
 30
0.0
 10
148.4285028002228
 20
27.7059011843816
 30
0.0
  0
SPLINE
  5
7B
330
1F
100
AcDbEntity
  8
0
  6
Continuous
 62
     7
370
    25
100
AcDbSpline
210
0.0
220
0.0
230
1.0
 70
     8
 71
     3
 72
    11
 73
     7
 74
     0
 42
0.00000001
 43
0.00000001
 40
0.0
 40
0.0
 40
0.0
 40
0.0
 40
0.2436999915530706
 40
0.5288412990216814
 40
0.813982606490291
 40
1.0
 40
1.0
 40
1.0
 40
1.0
 10
150.1667574508965
 20
26.17290441707948
 30
0.0
 10
151.6711500173655
 20
24.08757295415656
 30
0.0
 10
154.8375500060449
 20
19.50978825298555
 30
0.0
 10
159.3542632499259
 20
12.32981665879676
 30
0.0
 10
163.1620700205162
 20
5.574095295074008
 30
0.0
 10
165.3195255490255
 20
1.347768682671918
 30
0.0
 10
166.1365194550978
 20
-0.320929455679006
 30
0.0
  0
SPLINE
  5
7C
330
1F
100
AcDbEntity
  8
0
  6
Continuous
 62
     7
370
    25
100
AcDbSpline
210
0.0
220
0.0
230
1.0
 70
    11
 71
     3
 72
   212
 73
   208
 74
     0
 42
0.00000001
 43
0.00000001
 40
0.0
 40
0.0
 40
0.0
 40
0.0
 40
0.0312499999999996
 40
0.0312499999999996
 40
0.0468749999999994
 40
0.0468749999999994
 40
0.0624999999999992
 40
0.0624999999999992
 40
0.0937499999999989
 40
0.0937499999999989
 40
0.1015624999999988
 40
0.1015624999999988
 40
0.1093749999999987
 40
0.1093749999999987
 40
0.1171874999999986
 40
0.1171874999999986
 40
0.1210937499999985
 40
0.1210937499999985
 40
0.1249999999999985
 40
0.1249999999999985
 40
0.1406249999999984
 40
0.1406249999999984
 40
0.1562499999999982
 40
0.1562499999999982
 40
0.1601562499999982
 40
0.1601562499999982
 40
0.1640624999999982
 40
0.1640624999999982
 40
0.1718749999999981
 40
0.1718749999999981
 40
0.1796874999999981
 40
0.1796874999999981
 40
0.1874999999999981
 40
0.1874999999999981
 40
0.1914062499999981
 40
0.1914062499999981
 40
0.1953124999999981
 40
0.1953124999999981
 40
0.2031249999999981
 40
0.2031249999999981
 40
0.2187499999999981
 40
0.2187499999999981
 40
0.2226562499999981
 40
0.2226562499999981
 40
0.2265624999999981
 40
0.2265624999999981
 40
0.2343749999999982
 40
0.2343749999999982
 40
0.2499999999999982
 40
0.2499999999999982
 40
0.2656249999999983
 40
0.2656249999999983
 40
0.2695312499999983
 40
0.2695312499999983
 40
0.2734374999999983
 40
0.2734374999999983
 40
0.2812499999999983
 40
0.2812499999999983
 40
0.2968749999999983
 40
0.2968749999999983
 40
0.3007812499999983
 40
0.3007812499999983
 40
0.3046874999999983
 40
0.3046874999999983
 40
0.3124999999999983
 40
0.3124999999999983
 40
0.3281249999999983
 40
0.3281249999999983
 40
0.3300781249999983
 40
0.3300781249999983
 40
0.3320312499999984
 40
0.3320312499999984
 40
0.3359374999999984
 40
0.3359374999999984
 40
0.3437499999999984
 40
0.3437499999999984
 40
0.3593749999999987
 40
0.3593749999999987
 40
0.3632812499999987
 40
0.3632812499999987
 40
0.3671874999999987
 40
0.3671874999999987
 40
0.3749999999999987
 40
0.3749999999999987
 40
0.3906249999999988
 40
0.3906249999999988
 40
0.4062499999999988
 40
0.4062499999999988
 40
0.4101562499999988
 40
0.4101562499999988
 40
0.4140624999999988
 40
0.4140624999999988
 40
0.4218749999999989
 40
0.4218749999999989
 40
0.437499999999999
 40
0.437499999999999
 40
0.4687499999999991
 40
0.4687499999999991
 40
0.4999999999999992
 40
0.4999999999999992
 40
0.5312499999999994
 40
0.5312499999999994
 40
0.5624999999999996
 40
0.5624999999999996
 40
0.5781249999999996
 40
0.5781249999999996
 40
0.5859374999999997
 40
0.5859374999999997
 40
0.5937499999999997
 40
0.5937499999999997
 40
0.6093749999999996
 40
0.6093749999999996
 40
0.6249999999999994
 40
0.6249999999999994
 40
0.6328124999999994
 40
0.6328124999999994
 40
0.6367187499999994
 40
0.6367187499999994
 40
0.6406249999999994
 40
0.6406249999999994
 40
0.6562499999999993
 40
0.6562499999999993
 40
0.6640624999999993
 40
0.6640624999999993
 40
0.6679687499999993
 40
0.6679687499999993
 40
0.6718749999999992
 40
0.6718749999999992
 40
0.6796874999999991
 40
0.6796874999999991
 40
0.687499999999999
 40
0.687499999999999
 40
0.7031249999999988
 40
0.7031249999999988
 40
0.7070312499999987
 40
0.7070312499999987
 40
0.7109374999999987
 40
0.7109374999999987
 40
0.7187499999999984
 40
0.7187499999999984
 40
0.7343749999999981
 40
0.7343749999999981
 40
0.7382812499999981
 40
0.7382812499999981
 40
0.742187499999998
 40
0.742187499999998
 40
0.7499999999999978
 40
0.7499999999999978
 40
0.7578124999999977
 40
0.7578124999999977
 40
0.7656249999999974
 40
0.7656249999999974
 40
0.7734374999999972
 40
0.7734374999999972
 40
0.7773437499999971
 40
0.7773437499999971
 40
0.7812499999999971
 40
0.7812499999999971
 40
0.7968749999999968
 40
0.7968749999999968
 40
0.8046874999999967
 40
0.8046874999999967
 40
0.8085937499999967
 40
0.8085937499999967
 40
0.8105468749999967
 40
0.8105468749999967
 40
0.8124999999999967
 40
0.8124999999999967
 40
0.8203124999999967
 40
0.8203124999999967
 40
0.8281249999999967
 40
0.8281249999999967
 40
0.8359374999999967
 40
0.8359374999999967
 40
0.8398437499999968
 40
0.8398437499999968
 40
0.8437499999999968
 40
0.8437499999999968
 40
0.8515624999999968
 40
0.8515624999999968
 40
0.8593749999999968
 40
0.8593749999999968
 40
0.874999999999997
 40
0.874999999999997
 40
0.8828124999999971
 40
0.8828124999999971
 40
0.8867187499999971
 40
0.8867187499999971
 40
0.8906249999999972
 40
0.8906249999999972
 40
0.9062499999999976
 40
0.9062499999999976
 40
0.921874999999998
 40
0.921874999999998
 40
0.9296874999999982
 40
0.9296874999999982
 40
0.9374999999999984
 40
0.9374999999999984
 40
0.9687499999999991
 40
0.9687499999999991
 40
0.9843749999999996
 40
0.9843749999999996
 40
0.9921874999999998
 40
0.9921874999999998
 40
0.9960937499999998
 40
0.9960937499999998
 40
1.0
 40
1.0
 40
1.0
 40
1.0
 10
-102.6641487266251
 20
36.04868745329653
 30
0.0
 10
-111.6214936527519
 20
40.41495133919339
 30
0.0
 10
-120.375564532355
 20
44.93348398603288
 30
0.0
 10
-133.1128313211622
 20
52.00630073332727
 30
0.0
 10
-137.2940545336503
 20
54.41391314461115
 30
0.0
 10
-145.49531792505
 20
59.34279558719636
 30
0.0
 10
-149.5085966053667
 20
61.85991855813198
 30
0.0
 10
-161.2471269971687
 20
69.5930019624725
 30
0.0
 10
-168.671415507496
 20
74.99047036037703
 30
0.0
 10
-177.204030387324
 20
82.18826401473528
 30
0.0
 10
-178.8738466761647
 20
83.65167612704104
 30
0.0
 10
-182.117506197033
 20
86.62034221524495
 30
0.0
 10
-183.6924046578308
 20
88.12637639509049
 30
0.0
 10
-186.7380719687018
 20
91.18659451485216
 30
0.0
 10
-188.2087410368302
 20
92.74082459415808
 30
0.0
 10
-190.3268153299989
 20
95.11282841819748
 30
0.0
 10
-191.0186988348132
 20
95.91091685065162
 30
0.0
 10
-192.3677749670494
 20
97.51702872032672
 30
0.0
 10
-193.0251934254494
 20
98.32524610494174
 30
0.0
 10
-196.2228765400775
 20
102.3932893103243
 30
0.0
 10
-198.4953616006979
 20
105.7338489280868
 30
0.0
 10
-202.3470107943101
 20
112.6239998894848
 30
0.0
 10
-203.9278699977401
 20
116.1730801804678
 30
0.0
 10
-205.3689431025324
 20
120.7707298168835
 30
0.0
 10
-205.6305624062582
 20
121.6993608670518
 30
0.0
 10
-206.0962069167346
 20
123.5693050630924
 30
0.0
 10
-206.2992612972817
 20
124.5064842367299
 30
0.0
 10
-206.8176153666509
 20
127.3247546027413
 30
0.0
 10
-207.0421783041071
 20
129.212573278135
 30
0.0
 10
-207.2381168993342
 20
133.0069826600919
 30
0.0
 10
-207.210207767079
 20
134.9135203389361
 30
0.0
 10
-206.8969027277302
 20
138.7456865046977
 30
0.0
 10
-206.6114782369199
 20
140.6713171108942
 30
0.0
 10
-205.979906912205
 20
143.5748462441207
 30
0.0
 10
-205.7355625641538
 20
144.545196842835
 30
0.0
 10
-205.1787707532935
 20
146.4909474005418
 30
0.0
 10
-204.8684317400087
 20
147.4589710442089
 30
0.0
 10
-203.8448824990478
 20
150.3480082941749
 30
0.0
 10
-203.039236602165
 20
152.2544475667604
 30
0.0
 10
-200.2671796775867
 20
157.9173472777551
 30
0.0
 10
-197.9494069240209
 20
161.6179865680312
 30
0.0
 10
-194.5251881839752
 20
166.1600602802635
 30
0.0
 10
-193.8138182539882
 20
167.0642607847194
 30
0.0
 10
-192.3395069647245
 20
168.8644685950503
 30
0.0
 10
-191.579826613731
 20
169.7564490824137
 30
0.0
 10
-189.24269731119
 20
172.4029328723172
 30
0.0
 10
-187.6048917148717
 20
174.1309595942163
 30
0.0
 10
-182.4784138184683
 20
179.2180342020775
 30
0.0
 10
-178.7772110090431
 20
182.4803181086233
 30
0.0
 10
-170.914705818409
 20
188.7954051011401
 30
0.0
 10
-166.7515506645644
 20
191.8473646298557
 30
0.0
 10
-161.1823362841273
 20
195.4960084064836
 30
0.0
 10
-160.0484596724293
 20
196.2184155648836
 30
0.0
 10
-157.7497733193868
 20
197.6404309120023
 30
0.0
 10
-156.5870010417491
 20
198.3388405539603
 30
0.0
 10
-153.0570049114534
 20
200.3949695355435
 30
0.0
 10
-150.6481462419788
 20
201.7136306587313
 30
0.0
 10
-143.2423040779607
 20
205.5014418867923
 30
0.0
 10
-138.0683586089839
 20
207.8045814354281
 30
0.0
 10
-131.2561459186939
 20
210.3600620265921
 30
0.0
 10
-129.8735324889944
 20
210.8557627344285
 30
0.0
 10
-127.0969053490588
 20
211.8056068322338
 30
0.0
 10
-125.7008490275138
 20
212.2606078796093
 30
0.0
 10
-121.4895937515067
 20
213.5662132172831
 30
0.0
 10
-118.6513645705932
 20
214.3575640016751
 30
0.0
 10
-110.0435517407315
 20
216.4920182005679
 30
0.0
 10
-104.1818181752355
 20
217.5980329509185
 30
0.0
 10
-97.45079614754789
 20
218.4909197620488
 30
0.0
 10
-96.70011614504138
 20
218.5852922852557
 30
0.0
 10
-95.20116199994459
 20
218.7635141401573
 30
0.0
 10
-94.45252155216993
 20
218.8474260230213
 30
0.0
 10
-92.20904329044727
 20
219.0839796084294
 30
0.0
 10
-90.71664692248821
 20
219.2214494119911
 30
0.0
 10
-86.24875395856691
 20
219.5760897395309
 30
0.0
 10
-83.28253218867835
 20
219.735623631403
 30
0.0
 10
-74.41808222638437
 20
220.0016005771156
 30
0.0
 10
-68.55400882952938
 20
219.8957951887619
 30
0.0
 10
-61.27191483761396
 20
219.465265593426
 30
0.0
 10
-59.81790837730645
 20
219.3641686609356
 30
0.0
 10
-56.91453677106572
 20
219.1331322357858
 30
0.0
 10
-55.46423839157747
 20
219.003062805756
 30
0.0
 10
-51.14279001057665
 20
218.5737429776224
 30
0.0
 10
-48.2935928233148
 20
218.2349311846065
 30
0.0
 10
-39.83004346560538
 20
217.0793480958185
 30
0.0
 10
-34.29948292059608
 20
216.1238439704723
 30
0.0
 10
-23.41720640652133
 20
213.9167248143669
 30
0.0
 10
-18.06554102293345
 20
212.6650260298146
 30
0.0
 10
-11.46706992237977
 20
210.9495517297283
 30
0.0
 10
-10.15160815035863
 20
210.5988248533927
 30
0.0
 10
-7.535854427754897
 20
209.8846806910444
 30
0.0
 10
-6.234756994475761
 20
209.5210560340592
 30
0.0
 10
-2.350808313034638
 20
208.4114857179859
 30
0.0
 10
0.2127087022947595
 20
207.6468527852863
 30
0.0
 10
7.83350029143249
 20
205.2855288108987
 30
0.0
 10
12.82111247531716
 20
203.621506411809
 30
0.0
 10
27.55959978892115
 20
198.4125971172978
 30
0.0
 10
37.08716955584934
 20
194.6518770698952
 30
0.0
 10
55.70494177165237
 20
186.7077047771292
 30
0.0
 10
64.79517913694015
 20
182.5237874311139
 30
0.0
 10
82.63163557239966
 20
173.8254479127505
 30
0.0
 10
91.33827526412556
 20
169.3293163110808
 30
0.0
 10
108.2107335931933
 20
159.9614180952496
 30
0.0
 10
116.3766764783737
 20
155.089737779205
 30
0.0
 10
128.0714890067812
 20
147.3973579609271
 30
0.0
 10
131.8768948970555
 20
144.768730671438
 30
0.0
 10
137.4111609452457
 20
140.7050447384287
 30
0.0
 10
139.2286364425343
 20
139.3289216598573
 30
0.0
 10
142.7844546413097
 20
136.5440051244061
 30
0.0
 10
144.5241423017806
 20
135.1343321646648
 30
0.0
 10
149.6192602435962
 20
130.8494892310879
 30
0.0
 10
152.8502988409871
 20
127.9182940371337
 30
0.0
 10
158.9035972569088
 20
121.8717922975844
 30
0.0
 10
161.7259498777051
 20
118.7565275495373
 30
0.0
 10
165.5767073740287
 20
113.9112326174825
 30
0.0
 10
166.7962981302114
 20
112.2673113332571
 30
0.0
 10
168.5162404408697
 20
109.7521366076433
 30
0.0
 10
169.0712941090048
 20
108.9055206489333
 30
0.0
 10
170.1423646585907
 20
107.1947068120693
 30
0.0
 10
170.658469946322
 20
106.3301761139871
 30
0.0
 10
173.1200594945688
 20
101.9878862724185
 30
0.0
 10
174.7261047476279
 20
98.43190243096802
 30
0.0
 10
176.4903774043754
 20
92.95209145761655
 30
0.0
 10
176.9704766643621
 20
91.10106301973828
 30
0.0
 10
177.5139038275814
 20
88.28455069591857
 30
0.0
 10
177.6655626114654
 20
87.33904486219724
 30
0.0
 10
177.9070277064901
 20
85.43404384107345
 30
0.0
 10
177.9961378305465
 20
84.47933975470723
 30
0.0
 10
178.1665303407236
 20
81.6176204778284
 30
0.0
 10
178.1519867705642
 20
79.70917021286286
 30
0.0
 10
177.8708349846862
 20
75.89101581024595
 30
0.0
 10
177.6041406977463
 20
73.98131124444123
 30
0.0
 10
176.4146190872699
 20
68.25026031933723
 30
0.0
 10
175.1037053166525
 20
64.42698345925449
 30
0.0
 10
172.8154388935101
 20
59.64465588752036
 30
0.0
 10
172.3278264625772
 20
58.69362928761796
 30
0.0
 10
171.2981056806999
 20
56.80775887039221
 30
0.0
 10
170.7555397642747
 20
55.87195816407876
 30
0.0
 10
169.0478705951552
 20
53.08514963680414
 30
0.0
 10
167.8029166370254
 20
51.25470432211298
 30
0.0
 10
163.7748240876466
 20
45.83887876408131
 30
0.0
 10
160.6968365849137
 20
42.32942562192352
 30
0.0
 10
156.4307258253294
 20
38.05041046587057
 30
0.0
 10
155.556344320686
 20
37.19963257917341
 30
0.0
 10
153.7682558651035
 20
35.50995897321421
 30
0.0
 10
152.8580605593332
 20
34.67435896953962
 30
0.0
 10
150.0811792742545
 20
32.19403527306043
 30
0.0
 10
148.1681174077734
 20
30.57583394383753
 30
0.0
 10
144.238539304745
 20
27.3985968255962
 30
0.0
 10
142.2224170838819
 20
25.83933569906112
 30
0.0
 10
138.0702326754215
 20
22.78940709669301
 30
0.0
 10
135.9340794788405
 20
21.2987916688854
 30
0.0
 10
131.5332585165094
 20
18.39105827794085
 30
0.0
 10
129.2687299088545
 20
16.97386073030829
 30
0.0
 10
125.7628605486441
 20
14.91044521508755
 30
0.0
 10
124.5760213359931
 20
14.2330578242226
 30
0.0
 10
122.1639641916021
 20
12.90023182673269
 30
0.0
 10
120.9365841568823
 20
12.24368311332298
 30
0.0
 10
114.7241858243773
 20
9.032333630495742
 30
0.0
 10
109.5575571858251
 20
6.712847315553605
 30
0.0
 10
101.484937932422
 20
3.643042089132464
 30
0.0
 10
98.74018749728808
 20
2.688135360359348
 30
0.0
 10
94.53850994941764
 20
1.363058003495343
 30
0.0
 10
93.12382004387547
 20
0.9392951625721291
 30
0.0
 10
90.98007109860283
 20
0.3312025800762675
 30
0.0
 10
90.2618676223395
 20
0.133098876956797
 30
0.0
 10
88.81811013979623
 20
-0.2537818906325762
 30
0.0
 10
88.09200377893427
 20
-0.4426850872876614
 30
0.0
 10
84.46112740426302
 20
-1.358983527693036
 30
0.0
 10
81.54225801888109
 20
-2.005282634300373
 30
0.0
 10
75.67803981766535
 20
-3.135771155932443
 30
0.0
 10
72.73270434007618
 20
-3.620042229010425
 30
0.0
 10
66.81607499625504
 20
-4.429664553058752
 30
0.0
 10
63.8447151456942
 20
-4.754611841442574
 30
0.0
 10
59.36903576965037
 20
-5.127919298446734
 30
0.0
 10
57.87402986880995
 20
-5.233298398084132
 30
0.0
 10
54.87793194657232
 20
-5.406796765497365
 30
0.0
 10
53.37366535108324
 20
-5.474993773936953
 30
0.0
 10
48.88265418874352
 20
-5.623952199130519
 30
0.0
 10
45.91498845834911
 20
-5.649615928777274
 30
0.0
 10
40.02623948879759
 20
-5.570715608207974
 30
0.0
 10
37.10513233593314
 20
-5.466218412059604
 30
0.0
 10
28.40521599683301
 20
-4.97546906594383
 30
0.0
 10
22.68985829714403
 20
-4.411829532811037
 30
0.0
 10
14.22001771161955
 20
-3.277871680829755
 30
0.0
 10
11.41395022133808
 20
-2.851765239312118
 30
0.0
 10
7.228506544653595
 20
-2.146467608251101
 30
0.0
 10
5.837485354186519
 20
-1.900342639631056
 30
0.0
 10
3.073415127507763
 20
-1.389063214496458
 30
0.0
 10
1.698993969976715
 20
-1.123684124526223
 30
0.0
 10
-5.13737926529929
 20
0.2489185532058291
 30
0.0
 10
-10.49261852953391
 20
1.492643637784605
 30
0.0
 10
-21.02215039830988
 20
4.211551389958879
 30
0.0
 10
-26.19673262818445
 20
5.686363583847872
 30
0.0
 10
-33.84509110130249
 20
8.043784211566319
 30
0.0
 10
-36.37559963966243
 20
8.85382363567208
 30
0.0
 10
-41.40218935825598
 20
10.51794017496321
 30
0.0
 10
-43.89976096980107
 20
11.37255822096984
 30
0.0
 10
-56.28433698570513
 20
15.73553826276938
 30
0.0
 10
-65.8740529709302
 20
19.51394356563499
 30
0.0
 10
-79.91160037822034
 20
25.49591748763914
 30
0.0
 10
-84.53291202169675
 20
27.54233307496298
 30
0.0
 10
-91.38764269833851
 20
30.68192406028541
 30
0.0
 10
-93.65967851672188
 20
31.74011711374572
 30
0.0
 10
-97.04962689591817
 20
33.34380804716602
 30
0.0
 10
-98.17659230550282
 20
33.88110509235958
 30
0.0
 10
-100.4246921739393
 20
34.96098135023869
 30
0.0
 10
-101.5444806108592
 20
35.50290446755938
 30
0.0
 10
-102.6641487266251
 20
36.04868745329653
 30
0.0
  0
SPLINE
  5
7D
330
1F
100
AcDbEntity
  8
0
  6
Continuous
 62
     7
370
    25
100
AcDbSpline
210
0.0
220
0.0
230
1.0
 70
     8
 71
     3
 72
    10
 73
     6
 74
     0
 42
0.00000001
 43
0.00000001
 40
0.0
 40
0.0
 40
0.0
 40
0.0
 40
0.1266910519846904
 40
0.6306949104469195
 40
1.0
 40
1.0
 40
1.0
 40
1.0
 10
172.5414800994709
 20
63.68008322436445
 30
0.0
 10
172.7601720453504
 20
64.20648463624042
 30
0.0
 10
173.8488669062833
 20
66.8270224415651
 30
0.0
 10
174.831751410026
 20
71.04283995251635
 30
0.0
 10
175.1436420347175
 20
74.69397992096684
 30
0.0
 10
175.2755344140917
 20
76.23797483374516
 30
0.0
  0
SPLINE
  5
7E
330
1F
100
AcDbEntity
  8
0
  6
Continuous
 62
     7
370
    25
100
AcDbSpline
210
0.0
220
0.0
230
1.0
 70
     8
 71
     3
 72
    11
 73
     7
 74
     0
 42
0.00000001
 43
0.00000001
 40
0.0
 40
0.0
 40
0.0
 40
0.0
 40
0.0911486924951828
 40
0.489941190062277
 40
0.8893307228279387
 40
1.0
 40
1.0
 40
1.0
 40
1.0
 10
-200.9711742994006
 20
115.9654896185141
 30
0.0
 10
-200.8003305039658
 20
115.4381272618374
 30
0.0
 10
-199.8820132998603
 20
112.6034564228905
 30
0.0
 10
-197.1728774140147
 20
107.6959731698897
 30
0.0
 10
-194.1754984997603
 20
102.7597269936071
 30
0.0
 10
-192.0660725584054
 20
100.1385954813791
 30
0.0
 10
-191.6083828966852
 20
99.56987923889984
 30
0.0
  0
SPLINE
  5
7F
330
1F
100
AcDbEntity
  8
0
  6
Continuous
 62
     7
370
    25
100
AcDbSpline
210
0.0
220
0.0
230
1.0
 70
     8
 71
     3
 72
   104
 73
   100
 74
     0
 42
0.00000001
 43
0.00000001
 40
0.0
 40
0.0
 40
0.0
 40
0.0
 40
0.03125
 40
0.03125
 40
0.0390625000000001
 40
0.0390625000000001
 40
0.0468750000000001
 40
0.0468750000000001
 40
0.0625000000000002
 40
0.0625000000000002
 40
0.0937500000000003
 40
0.0937500000000003
 40
0.1015625000000004
 40
0.1015625000000004
 40
0.1093750000000004
 40
0.1093750000000004
 40
0.1250000000000004
 40
0.1250000000000004
 40
0.1406250000000005
 40
0.1406250000000005
 40
0.1562500000000006
 40
0.1562500000000006
 40
0.1718750000000006
 40
0.1718750000000006
 40
0.1796875000000006
 40
0.1796875000000006
 40
0.1875000000000007
 40
0.1875000000000007
 40
0.2031250000000007
 40
0.2031250000000007
 40
0.2187500000000007
 40
0.2187500000000007
 40
0.2500000000000008
 40
0.2500000000000008
 40
0.2578125000000008
 40
0.2578125000000008
 40
0.2656250000000009
 40
0.2656250000000009
 40
0.2812500000000009
 40
0.2812500000000009
 40
0.3125000000000009
 40
0.3125000000000009
 40
0.3750000000000008
 40
0.3750000000000008
 40
0.4062500000000008
 40
0.4062500000000008
 40
0.4375000000000008
 40
0.4375000000000008
 40
0.5000000000000008
 40
0.5000000000000008
 40
0.5156250000000008
 40
0.5156250000000008
 40
0.5312500000000008
 40
0.5312500000000008
 40
0.5625000000000009
 40
0.5625000000000009
 40
0.6250000000000009
 40
0.6250000000000009
 40
0.6562500000000009
 40
0.6562500000000009
 40
0.6718750000000009
 40
0.6718750000000009
 40
0.6875000000000009
 40
0.6875000000000009
 40
0.718750000000001
 40
0.718750000000001
 40
0.750000000000001
 40
0.750000000000001
 40
0.765625000000001
 40
0.765625000000001
 40
0.773437500000001
 40
0.773437500000001
 40
0.781250000000001
 40
0.781250000000001
 40
0.8125000000000013
 40
0.8125000000000013
 40
0.8281250000000014
 40
0.8281250000000014
 40
0.8359375000000014
 40
0.8359375000000014
 40
0.8437500000000014
 40
0.8437500000000014
 40
0.8750000000000013
 40
0.8750000000000013
 40
0.906250000000001
 40
0.906250000000001
 40
0.9140625000000009
 40
0.9140625000000009
 40
0.9218750000000008
 40
0.9218750000000008
 40
0.9375000000000007
 40
0.9375000000000007
 40
0.9687500000000004
 40
0.9687500000000004
 40
0.9765625000000003
 40
0.9765625000000003
 40
0.9843750000000002
 40
0.9843750000000002
 40
1.0
 40
1.0
 40
1.0
 40
1.0
 10
148.4285028002257
 20
27.70590118438018
 30
0.0
 10
152.4814465543711
 20
30.97531121378112
 30
0.0
 10
156.291721914649
 20
34.346944917504
 30
0.0
 10
160.6805860189804
 20
38.71902556681668
 30
0.0
 10
161.5403283121431
 20
39.60195917796187
 30
0.0
 10
163.2122665827443
 20
41.37589752738742
 30
0.0
 10
164.0254117223756
 20
42.26780826694938
 30
0.0
 10
166.393770291533
 20
44.95892915234029
 30
0.0
 10
167.8778522398484
 20
46.77353979299561
 30
0.0
 10
172.0267750383622
 20
52.28304341091951
 30
0.0
 10
174.3904562901334
 20
56.04313968155996
 30
0.0
 10
176.7636898490601
 20
60.86913051788394
 30
0.0
 10
177.2092040807929
 20
61.84063608379526
 30
0.0
 10
178.0397553216073
 20
63.79674098420922
 30
0.0
 10
178.4255876110607
 20
64.7838518716764
 30
0.0
 10
179.4791182196261
 20
67.73664456393297
 30
0.0
 10
180.0458929885359
 20
69.69920715892658
 30
0.0
 10
180.9137539318834
 20
73.61264128291334
 30
0.0
 10
181.2118679517607
 20
75.56338202851636
 30
0.0
 10
181.5530544555881
 20
79.45364095506832
 30
0.0
 10
181.5964748682199
 20
81.39317444588492
 30
0.0
 10
181.424005869119
 20
85.26083104583698
 30
0.0
 10
181.2088452898494
 20
87.18898622570737
 30
0.0
 10
180.698448697496
 20
90.0729616013537
 30
0.0
 10
180.4963652625753
 20
91.03468500700099
 30
0.0
 10
180.0346129179234
 20
92.9382738306684
 30
0.0
 10
179.774760183379
 20
93.88187737237962
 30
0.0
 10
178.912819439842
 20
96.68940073936216
 30
0.0
 10
178.2271910019132
 20
98.52970600338084
 30
0.0
 10
176.6586232248345
 20
102.1545422144555
 30
0.0
 10
175.7759724933369
 20
103.9391547428869
 30
0.0
 10
172.8541425078431
 20
109.2155746759894
 30
0.0
 10
170.5432885206445
 20
112.6305871717802
 30
0.0
 10
167.2764651009333
 20
116.792430334012
 30
0.0
 10
166.6037481406367
 20
117.6199850435896
 30
0.0
 10
165.2291334863489
 20
119.2565268760172
 30
0.0
 10
164.5264549635314
 20
120.0665445712671
 30
0.0
 10
162.3750432524519
 20
122.4733078038875
 30
0.0
 10
160.8829630513915
 20
124.046779128741
 30
0.0
 10
156.2541616219096
 20
128.6852789674963
 30
0.0
 10
152.9654035039923
 20
131.6686746617845
 30
0.0
 10
142.6132555364775
 20
140.3579827356216
 30
0.0
 10
135.0702271089905
 20
145.8063638697051
 30
0.0
 10
123.1025561781736
 20
153.6282528909544
 30
0.0
 10
119.0009511280555
 20
156.1791668025998
 30
0.0
 10
110.6491747850592
 20
161.1567567934115
 30
0.0
 10
106.3948698340234
 20
163.5864905342119
 30
0.0
 10
93.43928689927219
 20
170.7305797194779
 30
0.0
 10
84.54478727508813
 20
175.2994062022811
 30
0.0
 10
73.19166776041672
 20
180.8334478673596
 30
0.0
 10
70.90927137449795
 20
181.9313895060407
 30
0.0
 10
66.31879276000602
 20
184.1079269482161
 30
0.0
 10
64.01006191931529
 20
185.186814654185
 30
0.0
 10
57.05012528119724
 20
188.388237683087
 30
0.0
 10
52.36351446594165
 20
190.4763676968475
 30
0.0
 10
38.14171847380421
 20
196.5805336704465
 30
0.0
 10
28.44609307136601
 20
200.4378525230409
 30
0.0
 10
13.44450456136115
 20
205.7706009032207
 30
0.0
 10
8.3682179101969
 20
207.4732401759675
 30
0.0
 10
0.6096661782813558
 20
209.8846251888467
 30
0.0
 10
-2.000539240898021
 20
210.6646566741467
 30
0.0
 10
-7.274059310245972
 20
212.1721808036844
 30
0.0
 10
-9.93956592499125
 20
212.9003242730436
 30
0.0
 10
-18.00860453089
 20
214.9940421029342
 30
0.0
 10
-23.46269581713263
 20
216.2617381558539
 30
0.0
 10
-34.55351569250077
 20
218.4840292768334
 30
0.0
 10
-40.18999266257833
 20
219.4390557034955
 30
0.0
 10
-48.81461110439311
 20
220.5803252052069
 30
0.0
 10
-51.71786615693114
 20
220.9120917906948
 30
0.0
 10
-56.12102334723725
 20
221.3269829544393
 30
0.0
 10
-57.59679061267551
 20
221.4514827182502
 30
0.0
 10
-60.56539921287541
 20
221.6712116213259
 30
0.0
 10
-62.0550276440071
 20
221.766186065322
 30
0.0
 10
-69.50507835246451
 20
222.1620818615572
 30
0.0
 10
-75.49569422175809
 20
222.2276028369365
 30
0.0
 10
-84.53484670501234
 20
221.8885766624155
 30
0.0
 10
-87.55679947534624
 20
221.7024327869206
 30
0.0
 10
-92.10417279923269
 20
221.3045488940845
 30
0.0
 10
-93.62237270644404
 20
221.1521311036712
 30
0.0
 10
-96.66379018968941
 20
220.8060721649191
 30
0.0
 10
-98.18815894683127
 20
220.6122697149577
 30
0.0
 10
-105.8110796639701
 20
219.5374962631755
 30
0.0
 10
-111.7597255368178
 20
218.3609736142663
 30
0.0
 10
-123.3630759178287
 20
215.3860301467488
 30
0.0
 10
-129.0172769154196
 20
213.5865440398185
 30
0.0
 10
-135.9034878371329
 20
210.9530975721917
 30
0.0
 10
-137.2738845382257
 20
210.4062383885886
 30
0.0
 10
-139.9862482094602
 20
209.278503732301
 30
0.0
 10
-141.3239210639669
 20
208.6995205931995
 30
0.0
 10
-145.2836731059879
 20
206.919069771655
 30
0.0
 10
-147.8526323299406
 20
205.6742203750863
 30
0.0
 10
-155.3649830782083
 20
201.780807027672
 30
0.0
 10
-160.1131082063504
 20
198.9727740107915
 30
0.0
 10
-165.7718807015972
 20
195.2370170730677
 30
0.0
 10
-166.8907588442041
 20
194.4779027358501
 30
0.0
 10
-169.0952759861
 20
192.9425083246156
 30
0.0
 10
-170.1812967516857
 20
192.1660122259188
 30
0.0
 10
-173.3932296912344
 20
189.8115274926374
 30
0.0
 10
-175.4747757507813
 20
188.2094978642931
 30
0.0
 10
-177.4984597014034
 20
186.5761141078445
 30
0.0
  0
SPLINE
  5
80
330
1F
100
AcDbEntity
  8
0
  6
Continuous
 62
     7
370
    25
100
AcDbSpline
210
0.0
220
0.0
230
1.0
 70
     8
 71
     3
 72
     8
 73
     4
 74
     0
 42
0.00000001
 43
0.00000001
 40
0.0
 40
0.0
 40
0.0
 40
0.0
 40
1.0
 40
1.0
 40
1.0
 40
1.0
 10
-33.69722898223551
 20
14.8666503826812
 30
0.0
 10
-33.68066087753303
 20
14.90381398136383
 30
0.0
 10
-33.66395075279205
 20
14.9409511411656
 30
0.0
 10
-33.64709894495183
 20
14.97806194284303
 30
0.0
  0
SPLINE
  5
81
330
1F
100
AcDbEntity
  8
0
  6
Continuous
 62
     7
370
    25
100
AcDbSpline
210
0.0
220
0.0
230
1.0
 70
     8
 71
     3
 72
     9
 73
     5
 74
     0
 42
0.00000001
 43
0.00000001
 40
0.0
 40
0.0
 40
0.0
 40
0.0
 40
0.5383162578564328
 40
1.0
 40
1.0
 40
1.0
 40
1.0
 10
-33.69726410117193
 20
14.86665761891486
 30
0.0
 10
-34.08670375496899
 20
13.88205000305628
 30
0.0
 10
-34.8101440154356
 20
12.05299951184639
 30
0.0
 10
-34.9410805058533
 20
10.22511202201985
 30
0.0
 10
-35.0015317547325
 20
9.381206085499318
 30
0.0
  0
SPLINE
  5
82
330
1F
100
AcDbEntity
  8
0
  6
Continuous
 62
     7
370
    25
100
AcDbSpline
210
0.0
220
0.0
230
1.0
 70
     8
 71
     3
 72
     8
 73
     4
 74
     0
 42
0.00000001
 43
0.00000001
 40
0.0
 40
0.0
 40
0.0
 40
0.0
 40
1.0
 40
1.0
 40
1.0
 40
1.0
 10
23.27018134784158
 20
-0.4305820410448399
 30
0.0
 10
22.03916455287762
 20
-1.42361470852978
 30
0.0
 10
20.70951520451824
 20
-2.345846587004083
 30
0.0
 10
19.28384686471399
 20
-3.199470615129332
 30
0.0
  0
SPLINE
  5
83
330
1F
100
AcDbEntity
  8
0
  6
Continuous
 62
     7
370
    25
100
AcDbSpline
210
0.0
220
0.0
230
1.0
 70
     8
 71
     3
 72
     8
 73
     4
 74
     0
 42
0.00000001
 43
0.00000001
 40
0.0
 40
0.0
 40
0.0
 40
0.0
 40
1.0
 40
1.0
 40
1.0
 40
1.0
 10
26.58611856439634
 20
2.6910806784523
 30
0.0
 10
25.60536899196045
 20
1.603517687009802
 30
0.0
 10
24.50116804957279
 20
0.5624263506284963
 30
0.0
 10
23.27018134784095
 20
-0.4305820410453673
 30
0.0
  0
SPLINE
  5
84
330
1F
100
AcDbEntity
  8
0
  6
Continuous
 62
     7
370
    25
100
AcDbSpline
210
0.0
220
0.0
230
1.0
 70
     8
 71
     3
 72
    69
 73
    65
 74
     0
 42
0.00000001
 43
0.00000001
 40
0.0
 40
0.0
 40
0.0
 40
0.0
 40
0.0312500000000001
 40
0.0312500000000001
 40
0.0625000000000003
 40
0.0625000000000003
 40
0.1250000000000006
 40
0.1250000000000006
 40
0.1562500000000007
 40
0.1562500000000007
 40
0.1718750000000007
 40
0.1718750000000007
 40
0.1875000000000007
 40
0.1875000000000007
 40
0.2500000000000008
 40
0.2500000000000008
 40
0.2656250000000009
 40
0.2656250000000009
 40
0.2812500000000009
 40
0.2812500000000009
 40
0.3125000000000011
 40
0.3125000000000011
 40
0.3750000000000012
 40
0.3750000000000012
 40
0.4062500000000011
 40
0.4062500000000011
 40
0.4375000000000011
 40
0.4375000000000011
 40
0.5000000000000011
 40
0.5000000000000011
 40
0.5156250000000011
 40
0.5156250000000011
 40
0.531250000000001
 40
0.531250000000001
 40
0.562500000000001
 40
0.5937500000000011
 40
0.5937500000000011
 40
0.609375000000001
 40
0.609375000000001
 40
0.625000000000001
 40
0.625000000000001
 40
0.6875000000000007
 40
0.6875000000000007
 40
0.7187500000000006
 40
0.7187500000000006
 40
0.7343750000000004
 40
0.7343750000000004
 40
0.7500000000000004
 40
0.7500000000000004
 40
0.8125000000000004
 40
0.8125000000000004
 40
0.8281250000000004
 40
0.8281250000000004
 40
0.8437500000000004
 40
0.8437500000000004
 40
0.8750000000000003
 40
0.8750000000000003
 40
0.9375000000000002
 40
0.9375000000000002
 40
0.9531250000000002
 40
0.9531250000000002
 40
0.9687500000000002
 40
0.9687500000000002
 40
1.0
 40
1.0
 40
1.0
 40
1.0
 10
-26.43955856232429
 20
23.80113888550136
 30
0.0
 10
-25.75336152679619
 20
24.35463757122759
 30
0.0
 10
-25.03190657039065
 20
24.89297302472934
 30
0.0
 10
-23.51747179386163
 20
25.93848783798998
 30
0.0
 10
-22.7220828126596
 20
26.44676466620183
 30
0.0
 10
-20.27169578222153
 20
27.89632681019122
 30
0.0
 10
-18.54053298294572
 20
28.77242215669389
 30
0.0
 10
-15.79894645683494
 20
29.9511460301487
 30
0.0
 10
-14.86079980694333
 20
30.3213485479559
 30
0.0
 10
-13.415955841565
 20
30.84128578938521
 30
0.0
 10
-12.92794103721772
 20
31.00867801465197
 30
0.0
 10
-11.94952524084201
 20
31.32809791408644
 30
0.0
 10
-11.4578601481063
 20
31.48059568423444
 30
0.0
 10
-8.987424117402428
 20
32.20746774926666
 30
0.0
 10
-6.972646078783924
 20
32.6759286849531
 30
0.0
 10
-4.405660893647007
 20
33.11788304801081
 30
0.0
 10
-3.889817752795004
 20
33.19903354395684
 30
0.0
 10
-2.853142078160743
 20
33.34654736381135
 30
0.0
 10
-2.331049998840525
 20
33.41304611476832
 30
0.0
 10
-0.7665636342421819
 20
33.58870509048329
 30
0.0
 10
0.2697719150578179
 20
33.67377888601758
 30
0.0
 10
3.359472997939453
 20
33.83479682662488
 30
0.0
 10
5.39369575184035
 20
33.81739742083369
 30
0.0
 10
8.406303940090076
 20
33.59614774317551
 30
0.0
 10
9.408880676384797
 20
33.48874524970343
 30
0.0
 10
11.36206935298531
 20
33.21062455595503
 30
0.0
 10
12.31581094777282
 20
33.04002564412457
 30
0.0
 10
15.10982527508842
 20
32.43459755462716
 30
0.0
 10
16.8835050917585
 20
31.90694960309839
 30
0.0
 10
18.98470106810671
 20
31.08359946187894
 30
0.0
 10
19.39904236547341
 20
30.91061502046089
 30
0.0
 10
20.2067354987409
 20
30.55195561642175
 30
0.0
 10
20.60129704289882
 20
30.36582486443238
 30
0.0
 10
21.75752711071357
 20
29.78735612901446
 30
0.0
 10
23.22605538175025
 20
28.96264414454537
 30
0.0
 10
24.55042381621906
 20
28.03294222657915
 30
0.0
 10
25.48897343042469
 20
27.29603692718972
 30
0.0
 10
25.79268727260647
 20
27.04378716450693
 30
0.0
 10
26.3815435822284
 20
26.52589074166442
 30
0.0
 10
26.66675705597097
 20
26.26006883380492
 30
0.0
 10
28.03104981543108
 20
24.91196660960753
 30
0.0
 10
28.93952902958927
 20
23.76223308234016
 30
0.0
 10
30.03724140234242
 20
21.93716800461021
 30
0.0
 10
30.35867643761353
 20
21.31195485718021
 30
0.0
 10
30.77257803941409
 20
20.34862847720355
 30
0.0
 10
30.89908533715765
 20
20.02319554177422
 30
0.0
 10
31.12673525591283
 20
19.37064322427921
 30
0.0
 10
31.22826237455589
 20
19.04268453888405
 30
0.0
 10
31.67552248408696
 20
17.39476455117191
 30
0.0
 10
31.84170421593583
 20
16.05065787331148
 30
0.0
 10
31.81136873570028
 20
14.3403932161773
 30
0.0
 10
31.79330066988276
 20
13.99681943913673
 30
0.0
 10
31.73280133091549
 20
13.3066261005543
 30
0.0
 10
31.69023088981645
 20
12.95947456265236
 30
0.0
 10
31.52714429784838
 20
11.92379467260723
 30
0.0
 10
31.37121262759394
 20
11.23792930671042
 30
0.0
 10
30.76587895309718
 20
9.1941086327808
 30
0.0
 10
30.18005912455657
 20
7.849812854192409
 30
0.0
 10
29.21592031026035
 20
6.193920346152002
 30
0.0
 10
29.01085706409302
 20
5.86315941768123
 30
0.0
 10
28.57985347619874
 20
5.208601126792472
 30
0.0
 10
28.35418791161572
 20
4.885102390841167
 30
0.0
 10
27.64728868788648
 20
3.92577277473747
 30
0.0
 10
27.13621385599046
 20
3.301086838759459
 30
0.0
 10
26.58611856439649
 20
2.691080678452439
 30
0.0
  0
SPLINE
  5
85
330
1F
100
AcDbEntity
  8
0
  6
Continuous
 62
     7
370
    25
100
AcDbSpline
210
0.0
220
0.0
230
1.0
 70
     8
 71
     3
 72
    12
 73
     8
 74
     0
 42
0.00000001
 43
0.00000001
 40
0.0
 40
0.0
 40
0.0
 40
0.0
 40
0.25
 40
0.25
 40
0.4999999999999999
 40
0.4999999999999999
 40
1.0
 40
1.0
 40
1.0
 40
1.0
 10
-26.44051511199775
 20
23.80036728733326
 30
0.0
 10
-27.12006246828514
 20
23.25219222000296
 30
0.0
 10
-27.76597168346943
 20
22.68838257995314
 30
0.0
 10
-28.98910315989916
 20
21.52904734445864
 30
0.0
 10
-29.56754031974798
 20
20.93169264812825
 30
0.0
 10
-31.16776005093711
 20
19.12380786952706
 30
0.0
 10
-32.0665520330464
 20
17.88822921221323
 30
0.0
 10
-32.79900057034997
 20
16.62200545382322
 30
0.0
  0
SPLINE
  5
86
330
1F
100
AcDbEntity
  8
0
  6
Continuous
 62
     7
370
    25
100
AcDbSpline
210
0.0
220
0.0
230
1.0
 70
     8
 71
     3
 72
     9
 73
     5
 74
     0
 42
0.00000001
 43
0.00000001
 40
0.0
 40
0.0
 40
0.0
 40
0.0
 40
0.4962074920999503
 40
1.0
 40
1.0
 40
1.0
 40
1.0
 10
-33.64709918045204
 20
14.9780642727623
 30
0.0
 10
-33.50676296142709
 20
15.24948335237335
 30
0.0
 10
-33.22394534730554
 20
15.79647041712406
 30
0.0
 10
-32.94136289284391
 20
16.34543526175509
 30
0.0
 10
-32.79899996942212
 20
16.62199963758071
 30
0.0
  0
SPLINE
  5
87
330
1F
100
AcDbEntity
  8
0
  6
Continuous
 62
     7
370
    25
100
AcDbSpline
210
0.0
220
0.0
230
1.0
 70
     8
 71
     3
 72
    35
 73
    31
 74
     0
 42
0.00000001
 43
0.00000001
 40
0.0
 40
0.0
 40
0.0
 40
0.0
 40
0.0000001656551715
 40
0.0218597898676078
 40
0.0437180130562135
 40
0.077002284286688
 40
0.1103419406180924
 40
0.143592054854618
 40
0.1721295832834682
 40
0.2007981242079172
 40
0.229463143176174
 40
0.2579958467774924
 40
0.2862026055794798
 40
0.3145079305321395
 40
0.3428407763826742
 40
0.371085187998822
 40
0.4074117818410244
 40
0.4438251864596327
 40
0.4802807684695088
 40
0.5166650020408893
 40
0.5689109774323571
 40
0.6212256867209961
 40
0.6736140801188614
 40
0.7260216304433548
 40
0.7783455859397121
 40
0.8325936844674338
 40
0.8868667987656975
 40
0.9411250518766091
 40
0.9953528747905453
 40
1.0
 40
1.0
 40
1.0
 40
1.0
 10
-179.0379577453448
 20
186.640230899534
 30
0.0
 10
-179.0379445681386
 20
186.6402415348128
 30
0.0
 10
-177.2990857453469
 20
188.0436686503143
 30
0.0
 10
-173.7361769755125
 20
190.8075003144842
 30
0.0
 10
-167.1518318177504
 20
195.5067162086828
 30
0.0
 10
-159.1071434691322
 20
200.6232587815713
 30
0.0
 10
-149.374037154514
 20
205.921965293142
 30
0.0
 10
-139.498817496896
 20
210.4290017428192
 30
0.0
 10
-129.5965757537141
 20
214.1165137074798
 30
0.0
 10
-119.8332443811285
 20
217.060755999891
 30
0.0
 10
-109.7983814080334
 20
219.4302879104215
 30
0.0
 10
-99.62922860464774
 20
221.1787011804904
 30
0.0
 10
-89.41202487957705
 20
222.2861740414847
 30
0.0
 10
-79.22168715138946
 20
222.8227033937326
 30
0.0
 10
-69.09549236408014
 20
222.8332569258094
 30
0.0
 10
-58.14635836356308
 20
222.3088412380731
 30
0.0
 10
-46.46062793391012
 20
221.1341931429324
 30
0.0
 10
-34.12738643772153
 20
219.2464162697788
 30
0.0
 10
-22.10342547627304
 20
216.8292625390675
 30
0.0
 10
-8.693495027527646
 20
213.5525320370639
 30
0.0
 10
5.978598134385385
 20
209.2994419317867
 30
0.0
 10
21.7747305699696
 20
203.9574820709648
 30
0.0
 10
37.08598524389954
 20
198.1027026433387
 30
0.0
 10
51.95981464850085
 20
191.8393303276679
 30
0.0
 10
66.6364913032602
 20
185.1761211954682
 30
0.0
 10
81.19692237163864
 20
178.1950763553384
 30
0.0
 10
95.60337056129244
 20
170.8643334123591
 30
0.0
 10
109.5297691315997
 20
163.1773233539164
 30
0.0
 10
119.003558505986
 20
157.677166697773
 30
0.0
 10
123.6661267226541
 20
154.638863734047
 30
0.0
 10
124.0341531751798
 20
154.3990440017715
 30
0.0
  0
SPLINE
  5
88
330
1F
100
AcDbEntity
  8
0
  6
Continuous
 62
     7
370
    25
100
AcDbSpline
210
0.0
220
0.0
230
1.0
 70
     8
 71
     3
 72
     9
 73
     5
 74
     0
 42
0.00000001
 43
0.00000001
 40
0.0
 40
0.0
 40
0.0
 40
0.0
 40
0.0415613452126661
 40
1.0
 40
1.0
 40
1.0
 40
1.0
 10
18.41112228311452
 20
-3.062976238374281
 30
0.0
 10
18.47227889493974
 20
-3.031115966529087
 30
0.0
 10
19.94375705601193
 20
-2.264531735865473
 30
0.0
 10
21.1489929319415
 20
-1.301305763490995
 30
0.0
 10
22.30413758356888
 20
-0.3781127582721741
 30
0.0
  0
SPLINE
  5
89
330
1F
100
AcDbEntity
  8
0
  6
Continuous
 62
     7
370
    25
100
AcDbSpline
210
0.0
220
0.0
230
1.0
 70
     8
 71
     3
 72
    70
 73
    66
 74
     0
 42
0.00000001
 43
0.00000001
 40
0.0
 40
0.0
 40
0.0
 40
0.0
 40
0.03125
 40
0.03125
 40
0.0468749999999999
 40
0.0468749999999999
 40
0.0624999999999999
 40
0.0624999999999999
 40
0.125
 40
0.125
 40
0.1406250000000001
 40
0.1406250000000001
 40
0.1562500000000001
 40
0.1562500000000001
 40
0.1875000000000001
 40
0.1875000000000001
 40
0.25
 40
0.25
 40
0.2812499999999999
 40
0.2812499999999999
 40
0.3124999999999999
 40
0.3124999999999999
 40
0.3437499999999999
 40
0.3437499999999999
 40
0.3593749999999999
 40
0.3593749999999999
 40
0.3749999999999998
 40
0.3749999999999998
 40
0.4375
 40
0.4375
 40
0.4687500000000001
 40
0.4687500000000001
 40
0.4843750000000001
 40
0.4843750000000001
 40
0.5000000000000001
 40
0.5000000000000001
 40
0.5625000000000002
 40
0.5625000000000002
 40
0.5781250000000003
 40
0.5781250000000003
 40
0.5937500000000003
 40
0.5937500000000003
 40
0.6250000000000004
 40
0.6250000000000004
 40
0.6562500000000004
 40
0.6562500000000004
 40
0.6875000000000006
 40
0.6875000000000006
 40
0.7500000000000006
 40
0.7500000000000006
 40
0.7812500000000007
 40
0.7812500000000007
 40
0.7968750000000007
 40
0.7968750000000007
 40
0.8125000000000007
 40
0.8125000000000007
 40
0.8750000000000004
 40
0.8750000000000004
 40
0.8906250000000004
 40
0.8906250000000004
 40
0.9062500000000004
 40
0.9062500000000004
 40
0.9375000000000003
 40
0.9375000000000003
 40
1.0
 40
1.0
 40
1.0
 40
1.0
 10
-25.35290780520343
 20
22.85180621436728
 30
0.0
 10
-24.65654091909736
 20
23.41354922230007
 30
0.0
 10
-23.92266312123622
 20
23.95910943177969
 30
0.0
 10
-22.76450321795938
 20
24.75262197709247
 30
0.0
 10
-22.36787666323957
 20
25.01359957527621
 30
0.0
 10
-21.56047445011324
 20
25.52370958835649
 30
0.0
 10
-21.15012895238756
 20
25.77263257749269
 30
0.0
 10
-19.0657566832829
 20
26.98706310274045
 30
0.0
 10
-17.29468636418276
 20
27.8628507632782
 30
0.0
 10
-14.95141609884436
 20
28.8368933327749
 30
0.0
 10
-14.47623476111008
 20
29.02561504124157
 30
0.0
 10
-13.51258872291419
 20
29.39064328329338
 30
0.0
 10
-13.0229581588502
 20
29.56734439112428
 30
0.0
 10
-11.54216344471991
 20
30.07542656810845
 30
0.0
 10
-10.54436962979057
 20
30.38322766200237
 30
0.0
 10
-7.520036928428756
 20
31.21609045053732
 30
0.0
 10
-5.462851967079062
 20
31.65152728578389
 30
0.0
 10
-2.313488131595915
 20
32.11751747337903
 30
0.0
 10
-1.250285782991543
 20
32.24127406401359
 30
0.0
 10
0.8510218202847564
 20
32.4191144653677
 30
0.0
 10
1.894738991679222
 20
32.47422141046261
 30
0.0
 10
3.96855717181857
 20
32.51711851417564
 30
0.0
 10
4.998658194610434
 20
32.50491013384598
 30
0.0
 10
6.5334891306951
 20
32.43480355647458
 30
0.0
 10
7.043376225471821
 20
32.40278628746067
 30
0.0
 10
8.05964630025538
 20
32.32103149018817
 30
0.0
 10
8.5672698292762
 20
32.27114323778054
 30
0.0
 10
11.08135898307589
 20
31.97778396722851
 30
0.0
 10
12.99407197907232
 20
31.60724101359442
 30
0.0
 10
15.71924998506257
 20
30.84941710891049
 30
0.0
 10
16.60348240290548
 20
30.56290650169556
 30
0.0
 10
17.89243725128068
 20
30.08034280684682
 30
0.0
 10
18.31705896154761
 20
29.91012436334534
 30
0.0
 10
19.14559867433278
 20
29.5550168966607
 30
0.0
 10
19.54982113380471
 20
29.3700947121328
 30
0.0
 10
21.52162366934783
 20
28.40926745642401
 30
0.0
 10
22.94270776471791
 20
27.52565881112277
 30
0.0
 10
24.52465181920742
 20
26.27972406072444
 30
0.0
 10
24.83123073484143
 20
26.02340697629142
 30
0.0
 10
25.42442726948473
 20
25.4963263219132
 30
0.0
 10
25.71077777377913
 20
25.22568357632354
 30
0.0
 10
26.53019521460804
 20
24.40152326160405
 30
0.0
 10
27.0272000296938
 20
23.8328182986939
 30
0.0
 10
27.9256571732922
 20
22.65860831411679
 30
0.0
 10
28.32710247969159
 20
22.05310035558364
 30
0.0
 10
29.03451025855449
 20
20.80590572143557
 30
0.0
 10
29.34083196446761
 20
20.16330668003751
 30
0.0
 10
30.11016222761685
 20
18.18623651507151
 30
0.0
 10
30.41166261362466
 20
16.83906547700973
 30
0.0
 10
30.56187554061011
 20
14.77965707832763
 30
0.0
 10
30.56121620057495
 20
14.08668273114468
 30
0.0
 10
30.48258725479727
 20
13.03757564763244
 30
0.0
 10
30.44324637907125
 20
12.68530770139765
 30
0.0
 10
30.33906705323825
 20
11.98347098388056
 30
0.0
 10
30.27430956452707
 20
11.63380172931899
 30
0.0
 10
29.88844044374114
 20
9.891678464564992
 30
0.0
 10
29.38281306581937
 20
8.51773874168773
 30
0.0
 10
28.50666343454061
 20
6.826165009292208
 30
0.0
 10
28.31912058781174
 20
6.48915278879144
 30
0.0
 10
27.91902482868209
 20
5.817805134182175
 30
0.0
 10
27.70593184852817
 20
5.482737147310345
 30
0.0
 10
27.03484925674036
 20
4.49100039036722
 30
0.0
 10
26.54406434139375
 20
3.845569350649433
 30
0.0
 10
24.94494998854491
 20
1.955541927650212
 30
0.0
 10
23.71104896701076
 20
0.7568099886190796
 30
0.0
 10
22.30413758356922
 20
-0.3781127582718966
 30
0.0
  0
SPLINE
  5
8D
330
1F
100
AcDbEntity
  8
0
  6
Continuous
 62
     7
370
    25
100
AcDbSpline
210
0.0
220
0.0
230
1.0
 70
     8
 71
     3
 72
    48
 73
    44
 74
     0
 42
0.00000001
 43
0.00000001
 40
0.0
 40
0.0
 40
0.0
 40
0.0
 40
0.0153052864346371
 40
0.0366111757743455
 40
0.0583520744761
 40
0.0798110322329276
 40
0.1010714725969871
 40
0.1222244126279364
 40
0.142987616115536
 40
0.1633196277349024
 40
0.1833537991111849
 40
0.209242257236456
 40
0.2347468655754559
 40
0.2597298546131681
 40
0.2843388188158606
 40
0.3086772353203154
 40
0.332817121198051
 40
0.3704946098846278
 40
0.4079854111878789
 40
0.4453272814881747
 40
0.4809078957055471
 40
0.516608884963051
 40
0.55252321950328
 40
0.5887714315942627
 40
0.6118230157054566
 40
0.6351627799757754
 40
0.6588962794761922
 40
0.6829394808155969
 40
0.7072394013588594
 40
0.7272534859509486
 40
0.747639505682813
 40
0.768449633569216
 40
0.7894468661082086
 40
0.8106521081735503
 40
0.8321934589602719
 40
0.8538622554859341
 40
0.8753369542933371
 40
0.8967236262357753
 40
0.9180886895671829
 40
0.93906154788523
 40
0.9596251364318494
 40
0.9799030935309978
 40
1.0
 40
1.0
 40
1.0
 40
1.0
 10
-221.3499928943109
 20
136.0024931971459
 30
0.0
 10
-222.2684720094454
 20
134.1087772425794
 30
0.0
 10
-224.4655299000547
 20
129.5788935337446
 30
0.0
 10
-226.6022267088115
 20
122.2210534081459
 30
0.0
 10
-227.8539353630445
 20
114.0823848926893
 30
0.0
 10
-227.8012346891968
 20
106.0062708333793
 30
0.0
 10
-226.5632660371479
 20
98.1419767407796
 30
0.0
 10
-224.2350476824126
 20
90.55760586908856
 30
0.0
 10
-220.9650430987347
 20
83.31591531728726
 30
0.0
 10
-216.9130362612711
 20
76.4501085087993
 30
0.0
 10
-211.7303940208741
 20
69.28134371607969
 30
0.0
 10
-205.2970497864569
 20
61.88429453484234
 30
0.0
 10
-197.5775955698957
 20
54.35592457398111
 30
0.0
 10
-189.3106842150747
 20
47.29604933097978
 30
0.0
 10
-180.6339290476143
 20
40.64385865903978
 30
0.0
 10
-171.6017495810247
 20
34.33897204310153
 30
0.0
 10
-160.5227479113774
 20
27.18224234960288
 30
0.0
 10
-147.2007631322174
 20
19.30348623705908
 30
0.0
 10
-131.5180128911807
 20
10.80663699762562
 30
0.0
 10
-115.662561451134
 20
2.82657701340204
 30
0.0
 10
-99.70618656876654
 20
-4.734735073902819
 30
0.0
 10
-83.55985426625733
 20
-11.85795149756527
 30
0.0
 10
-66.85442395666871
 20
-18.61163174606011
 30
0.0
 10
-51.63535367811416
 20
-24.11463355981377
 30
0.0
 10
-38.04862397603794
 20
-28.48417799818908
 30
0.0
 10
-26.24112813837601
 20
-31.87002431503677
 30
0.0
 10
-13.97083039279227
 20
-34.92855374523681
 30
0.0
 10
-1.212516332759081
 20
-37.57126943918442
 30
0.0
 10
11.20204336576086
 20
-39.5632602113908
 30
0.0
 10
23.21209506847783
 20
-40.93008610475287
 30
0.0
 10
34.78026776937973
 20
-41.71745661066744
 30
0.0
 10
46.70823209373778
 20
-41.93593133241687
 30
0.0
 10
58.9108649154746
 20
-41.50335823932735
 30
0.0
 10
71.29003639314786
 20
-40.3480936108439
 30
0.0
 10
83.72316347181281
 20
-38.40799345322554
 30
0.0
 10
96.00736933024312
 20
-35.6858701834809
 30
0.0
 10
107.9266414141403
 20
-32.20221496185568
 30
0.0
 10
119.3467300196054
 20
-28.03186689013639
 30
0.0
 10
130.1466081625385
 20
-23.26052427277835
 30
0.0
 10
140.2355915782961
 20
-18.01171313701499
 30
0.0
 10
149.5557277097347
 20
-12.39915556679879
 30
0.0
 10
158.2178028223642
 20
-6.520049536782382
 30
0.0
 10
163.5048500426628
 20
-2.381116157399582
 30
0.0
 10
166.1365194550978
 20
-0.320929455679006
 30
0.0
  0
SPLINE
  5
8F
330
1F
100
AcDbEntity
  8
0
  6
Continuous
 62
     7
370
    25
100
AcDbSpline
210
0.0
220
0.0
230
1.0
 70
     8
 71
     3
 72
    55
 73
    51
 74
     0
 42
0.00000001
 43
0.00000001
 40
0.0
 40
0.0
 40
0.0
 40
0.0
 40
0.0044010824586497
 40
0.0207863879386278
 40
0.0397339857861345
 40
0.0587337326274704
 40
0.0777024433513462
 40
0.0988511948835593
 40
0.1200540235811598
 40
0.1413080966559975
 40
0.1625717299446889
 40
0.1837716207575316
 40
0.2152838595880001
 40
0.2468296516567532
 40
0.2784084208575846
 40
0.3099942155555439
 40
0.3415400440948834
 40
0.3708453036651809
 40
0.400206182159518
 40
0.4295719316134733
 40
0.4589084326099804
 40
0.4882017593759571
 40
0.5174619161855486
 40
0.537869976293753
 40
0.558311542852908
 40
0.5787330156278382
 40
0.5991136251618443
 40
0.6159080612715583
 40
0.6327557701734032
 40
0.6495837164812426
 40
0.6663511122028893
 40
0.6852973627619257
 40
0.7043040566126321
 40
0.7232488218502067
 40
0.7421881574472267
 40
0.7611844644379293
 40
0.7801440575977743
 40
0.8017414880157663
 40
0.8234200141929402
 40
0.8450876866458013
 40
0.8666702595649433
 40
0.8814717346296971
 40
0.8963217923855252
 40
0.9111619697350056
 40
0.9259499256181087
 40
0.940774845435975
 40
0.9556570417678311
 40
0.9705461368855404
 40
0.9853804996660213
 40
1.0
 40
1.0
 40
1.0
 40
1.0
 10
175.2755344140917
 20
76.23797483374517
 30
0.0
 10
175.3433422288839
 20
76.80246975950378
 30
0.0
 10
175.6635997011721
 20
79.46858897595794
 30
0.0
 10
175.2779486593725
 20
84.50251007484316
 30
0.0
 10
173.9294780164755
 20
91.24255570264239
 30
0.0
 10
171.3608447713641
 20
98.07185494184631
 30
0.0
 10
167.7347163680534
 20
104.897276151133
 30
0.0
 10
163.0426315809839
 20
111.6691103918331
 30
0.0
 10
157.3441612282448
 20
118.3655571045564
 30
0.0
 10
150.9310796756925
 20
124.7593062933543
 30
0.0
 10
143.9409836190401
 20
130.8655846305891
 30
0.0
 10
135.2792990712576
 20
137.6587710256599
 30
0.0
 10
124.8030356819316
 20
145.0442564701056
 30
0.0
 10
112.3533055128496
 20
152.9143393898166
 30
0.0
 10
99.32310267398674
 20
160.4155896755988
 30
0.0
 10
85.82747265913196
 20
167.5996848875932
 30
0.0
 10
72.29094007577149
 20
174.3593926055931
 30
0.0
 10
58.82007097036644
 20
180.7827876015753
 30
0.0
 10
45.37973875776896
 20
186.831033508832
 30
0.0
 10
31.58564331735334
 20
192.5931293556079
 30
0.0
 10
17.40796955851648
 20
197.992304350614
 30
0.0
 10
2.814940211204156
 20
202.9492713269295
 30
0.0
 10
-10.70444737313324
 20
206.9432140670192
 30
0.0
 10
-23.032780781796
 20
210.072798261757
 30
0.0
 10
-34.073688466849
 20
212.429081472597
 30
0.0
 10
-45.38449155688786
 20
214.3330644445467
 30
0.0
 10
-56.27500277252187
 20
215.6268263573309
 30
0.0
 10
-66.68778955935403
 20
216.3317044655276
 30
0.0
 10
-76.55342840797653
 20
216.5068738754223
 30
0.0
 10
-86.50234036001709
 20
216.1534233941147
 30
0.0
 10
-96.89030710958224
 20
215.1800155104544
 30
0.0
 10
-107.6305005613667
 20
213.4163952115161
 30
0.0
 10
-118.5664211333153
 20
210.7960880183578
 30
0.0
 10
-129.1356739980626
 20
207.4209340547456
 30
0.0
 10
-139.1826584422803
 20
203.3177350723395
 30
0.0
 10
-148.6632003673827
 20
198.6250995079867
 30
0.0
 10
-157.9384520534212
 20
193.1877382928559
 30
0.0
 10
-166.9546983731194
 20
187.0665225791312
 30
0.0
 10
-175.6215515512384
 20
180.2845872292841
 30
0.0
 10
-183.4338330493829
 20
173.1303951772788
 30
0.0
 10
-189.5902954066754
 20
166.4414823310905
 30
0.0
 10
-194.2698818209224
 20
160.334397349643
 30
0.0
 10
-197.7084196535523
 20
154.8935569347738
 30
0.0
 10
-200.4818696156859
 20
149.3473797141049
 30
0.0
 10
-202.5261189069337
 20
143.7263748613163
 30
0.0
 10
-203.7591617392855
 20
138.0615034121152
 30
0.0
 10
-204.2159124626767
 20
132.391802025231
 30
0.0
 10
-203.8982743666783
 20
126.7754259037076
 30
0.0
 10
-202.9352422341411
 20
121.2607992027285
 30
0.0
 10
-201.6226719292896
 20
117.721987742954
 30
0.0
 10
-200.9711742994006
 20
115.9654896185141
 30
0.0
  0
LWPOLYLINE
  5
90
330
1F
100
AcDbEntity
  8
0
  6
Continuous
 62
     7
370
    25
100
AcDbPolyline
 90
        6
 70
   128
 43
0.0
 10
166.1365194551
 20
-0.3209294557
 10
166.3037085294
 20
-0.7435402477
 10
166.3810139343
 20
-1.1396979651
 10
166.3635512114
 20
-1.4843718108
 10
166.2524237239
 20
-1.7557839401
 10
166.136366541
 20
-1.8819198887
  0
SPLINE
  5
91
330
1F
100
AcDbEntity
  8
0
  6
Continuous
 62
     7
370
    25
100
AcDbSpline
210
0.0
220
0.0
230
1.0
 70
     8
 71
     3
 72
    12
 73
     8
 74
     0
 42
0.00000001
 43
0.00000001
 40
0.0
 40
0.0
 40
0.0
 40
0.0
 40
0.0189972044911064
 40
0.2985802856963624
 40
0.5739603266432434
 40
0.8445710086447503
 40
0.9999999999999999
 40
0.9999999999999999
 40
0.9999999999999999
 40
0.9999999999999999
 10
135.2512381238529
 20
-32.9102860503506
 30
0.0
 10
135.3536843798506
 20
-32.84341454404396
 30
0.0
 10
136.9638387790742
 20
-31.79239077539728
 30
0.0
 10
139.3973245906167
 20
-28.93585264550188
 30
0.0
 10
142.4886743866662
 20
-24.44307788299711
 30
0.0
 10
144.606236575462
 20
-20.09668372398354
 30
0.0
 10
145.5615360854844
 20
-17.16674478162816
 30
0.0
 10
145.9100511383552
 20
-16.09783621976889
 30
0.0
  0
SPLINE
  5
92
330
1F
100
AcDbEntity
  8
0
  6
Continuous
 62
     7
370
    25
100
AcDbSpline
210
0.0
220
0.0
230
1.0
 70
     8
 71
     3
 72
    26
 73
    22
 74
     0
 42
0.00000001
 43
0.00000001
 40
0.0
 40
0.0
 40
0.0
 40
0.0
 40
0.0626611833021438
 40
0.1328419381433483
 40
0.2029823692649887
 40
0.2729538912823634
 40
0.342762423262974
 40
0.3928695626242234
 40
0.4431298027931516
 40
0.4933241348197263
 40
0.5433411028051277
 40
0.5886116018263956
 40
0.6340878403804086
 40
0.679548691603807
 40
0.7247981112002839
 40
0.770857267134583
 40
0.8171006296539075
 40
0.8633919334648494
 40
0.9095167126173436
 40
0.9547541602039062
 40
1.0
 40
1.0
 40
1.0
 40
1.0
 10
124.0341531751798
 20
154.3990440017715
 30
0.0
 10
127.2167896933647
 20
152.3684855678377
 30
0.0
 10
133.9639907706706
 20
148.0636942494799
 30
0.0
 10
143.6785462438072
 20
141.1086434433825
 30
0.0
 10
153.1289699620736
 20
133.5515141098127
 30
0.0
 10
161.7359757155063
 20
125.575600368785
 30
0.0
 10
168.6309434670932
 20
117.9491439983547
 30
0.0
 10
173.947670874748
 20
110.774798162691
 30
0.0
 10
177.8911049456571
 20
104.165697218211
 30
0.0
 10
180.9661648116816
 20
97.31113089422888
 30
0.0
 10
182.9828280551157
 20
90.46208341091224
 30
0.0
 10
183.8969109579801
 20
83.66289011650616
 30
0.0
 10
183.8086623492417
 20
76.98174480961157
 30
0.0
 10
182.748438142322
 20
70.25784815452185
 30
0.0
 10
180.6787454031953
 20
63.5212151891911
 30
0.0
 10
177.5574805105967
 20
56.83381146072299
 30
0.0
 10
173.4932346174841
 20
50.23871068893379
 30
0.0
 10
168.6121008410173
 20
43.82049112927606
 30
0.0
 10
163.0311869767995
 20
37.66070690096696
 30
0.0
 10
156.8872654798267
 20
31.7672565941729
 30
0.0
 10
152.4070691711276
 20
28.03779843387673
 30
0.0
 10
150.1667632505306
 20
26.17289640248413
 30
0.0
  0
SPLINE
  5
93
330
1F
100
AcDbEntity
  8
0
  6
Continuous
 62
     7
370
    25
100
AcDbSpline
210
0.0
220
0.0
230
1.0
 70
     8
 71
     3
 72
    33
 73
    29
 74
     0
 42
0.00000001
 43
0.00000001
 40
0.0
 40
0.0
 40
0.0
 40
0.0
 40
0.0479167858630586
 40
0.1077195223461743
 40
0.1675739618795812
 40
0.2246172242838874
 40
0.2815990911386028
 40
0.3385839006278913
 40
0.3956752753876954
 40
0.431699803959285
 40
0.4679124900021857
 40
0.5044206303279837
 40
0.541020805064922
 40
0.5775806224451357
 40
0.6123146633354389
 40
0.6473732731788258
 40
0.6826455696361592
 40
0.709021751999334
 40
0.7354851097186051
 40
0.7621944373001298
 40
0.7888981780162677
 40
0.8153924397626375
 40
0.841872700023865
 40
0.868508340624918
 40
0.8951107749892945
 40
0.9301730677477081
 40
0.9650582320553868
 40
1.0
 40
1.0
 40
1.0
 40
1.0
 10
31.23231398587331
 20
200.2135956723877
 30
0.0
 10
35.79307071242687
 20
198.4323814150495
 30
0.0
 10
46.04589813548247
 20
194.4281155708207
 30
0.0
 10
61.38356333595017
 20
187.6390326781005
 30
0.0
 10
77.19531492742993
 20
180.1823279389513
 30
0.0
 10
92.39101155066597
 20
172.5498435289136
 30
0.0
 10
106.9286211655393
 20
164.7316161884423
 30
0.0
 10
120.9628943992649
 20
156.5447593126771
 30
0.0
 10
132.7139033273725
 20
148.9808022096484
 30
0.0
 10
142.3305244429391
 20
142.1518798845644
 30
0.0
 10
150.0159400878635
 20
136.1788411611423
 30
0.0
 10
157.2706079872435
 20
129.9224950019037
 30
0.0
 10
163.9726337991026
 20
123.3649378818348
 30
0.0
 10
169.8823130793717
 20
116.6132745095979
 30
0.0
 10
174.9202962891726
 20
109.6550380795434
 30
0.0
 10
178.9881221995858
 20
102.4811358736676
 30
0.0
 10
181.7550306157066
 20
95.61231464655748
 30
0.0
 10
183.3733466482933
 20
89.16977929948816
 30
0.0
 10
184.0838881397063
 20
83.23606680032113
 30
0.0
 10
183.9831168706164
 20
77.19445620009918
 30
0.0
 10
183.0628410899141
 20
71.11135793669024
 30
0.0
 10
181.3080298635129
 20
65.05330352634054
 30
0.0
 10
178.7584805592697
 20
59.05435266155948
 30
0.0
 10
175.4473502976895
 20
53.14302241714753
 30
0.0
 10
171.0139779776251
 20
46.73800587436047
 30
0.0
 10
165.2764925014162
 20
39.95520795167122
 30
0.0
 10
158.177438150864
 20
32.86560046777513
 30
0.0
 10
152.8384270008417
 20
28.40500839367907
 30
0.0
 10
150.1667574509932
 20
26.1729044171575
 30
0.0
  0
SPLINE
  5
94
330
1F
100
AcDbEntity
  8
0
  6
Continuous
 62
     7
370
    25
100
AcDbSpline
210
0.0
220
0.0
230
1.0
 70
     8
 71
     3
 72
    22
 73
    18
 74
     0
 42
0.00000001
 43
0.00000001
 40
0.0
 40
0.0
 40
0.0
 40
0.0
 40
0.043928001438129
 40
0.1092882512263873
 40
0.1758631343159529
 40
0.2438230327825818
 40
0.3123939612852603
 40
0.3816441891352536
 40
0.4519920514977989
 40
0.5227561150257426
 40
0.5928863111744221
 40
0.6627290368741929
 40
0.7325011950589709
 40
0.8009925243592942
 40
0.8681472961783996
 40
0.9343692777583021
 40
0.9999999999999999
 40
0.9999999999999999
 40
0.9999999999999999
 40
0.9999999999999999
 10
184.7277810076724
 20
106.8052404270829
 30
0.0
 10
185.9635864076946
 20
105.431989742061
 30
0.0
 10
189.0381403733417
 20
102.0154863513282
 30
0.0
 10
193.210715627587
 20
96.21141437674684
 30
0.0
 10
197.3422290051028
 20
89.41541510210205
 30
0.0
 10
200.6573536410224
 20
82.25182051540871
 30
0.0
 10
203.0468464299779
 20
74.76763670171246
 30
0.0
 10
204.3633365547956
 20
66.99909039429141
 30
0.0
 10
204.4811598385454
 20
59.00466699952084
 30
0.0
 10
203.3510780731815
 20
50.90581046692711
 30
0.0
 10
200.9493289878797
 20
42.83702653353817
 30
0.0
 10
197.3566162148339
 20
34.89689732472432
 30
0.0
 10
192.6738908010722
 20
27.17878284590296
 30
0.0
 10
187.0696947226891
 20
19.76827051250354
 30
0.0
 10
180.7060496315552
 20
12.72908589031131
 30
0.0
 10
173.7627430548575
 20
6.019692834695792
 30
0.0
 10
168.6709830949331
 20
1.786283431364041
 30
0.0
 10
166.1365194550874
 20
-0.3209294556874159
 30
0.0
  0
SPLINE
  5
95
330
1F
100
AcDbEntity
  8
0
  6
Continuous
 62
     7
370
    25
100
AcDbSpline
210
0.0
220
0.0
230
1.0
 70
     8
 71
     3
 72
    12
 73
     8
 74
     0
 42
0.00000001
 43
0.00000001
 40
0.0
 40
0.0
 40
0.0
 40
0.0
 40
0.1389255786444529
 40
0.3652065575381769
 40
0.5921977056929084
 40
0.8190158868283552
 40
1.0
 40
1.0
 40
1.0
 40
1.0
 10
-47.03168761308685
 20
-47.1349986277389
 30
0.0
 10
-44.9675369055306
 20
-48.0165249685645
 30
0.0
 10
-39.54131243699057
 20
-50.33387504515529
 30
0.0
 10
-30.26987054056056
 20
-53.65595805536837
 30
0.0
 10
-19.1255989348519
 20
-56.91092513410478
 30
0.0
 10
-8.307160149370008
 20
-59.4410918752821
 30
0.0
 10
-1.034574902111296
 20
-60.53072564087253
 30
0.0
 10
2.193024377771957
 20
-61.01430899363993
 30
0.0
  0
SPLINE
  5
9C
330
1F
100
AcDbEntity
  8
0
  6
Continuous
 62
     7
370
    25
100
AcDbSpline
210
0.0
220
0.0
230
1.0
 70
     8
 71
     3
 72
    12
 73
     8
 74
     0
 42
0.00000001
 43
0.00000001
 40
0.0
 40
0.0
 40
0.0
 40
0.0
 40
0.1870881877240259
 40
0.425618814861495
 40
0.6711139223399564
 40
0.9084374611558484
 40
1.0
 40
1.0
 40
1.0
 40
1.0
 10
-25.35290780520326
 20
22.85180621436741
 30
0.0
 10
-26.26334597446212
 20
22.06581379222659
 30
0.0
 10
-28.33455965886758
 20
20.27770965122561
 30
0.0
 10
-30.85128671185809
 20
17.19519273750361
 30
0.0
 10
-32.68368728439028
 20
13.74986097595171
 30
0.0
 10
-33.59255811185894
 20
10.93926584308252
 30
0.0
 10
-33.54891710210913
 20
9.363070941716158
 30
0.0
 10
-33.53676735810403
 20
8.92425514291701
 30
0.0
  0
LWPOLYLINE
  5
9D
330
1F
100
AcDbEntity
  8
0
  6
Continuous
 62
     7
370
    25
100
AcDbPolyline
 90
       30
 70
   128
 43
0.0
 10
-21.865872736
 20
5.3794166094
 10
-21.6828854521
 20
5.8377582858
 10
-20.7442801358
 20
7.6210133826
 10
-19.4732932902
 20
9.3398644021
 10
-17.8907944841
 20
10.9660878581
 10
-16.0227683043
 20
12.4729812064
 10
-13.8998876889
 20
13.8358012999
 10
-11.557010279
 20
15.0321706704
 10
-9.0326060568
 20
16.0424449658
 10
-6.3681256699
 20
16.8500355102
 10
-3.6073198126
 20
17.4416816892
 10
-0.7955208407
 20
17.8076686888
 10
2.0211015844
 20
17.9419870126
 10
4.7962986003
 20
17.8424311575
 10
7.4845015488
 20
17.5106358278
 10
10.0415702117
 20
16.9520490937
 10
12.4255175924
 20
16.175842934
 10
14.5971993407
 20
15.1947626323
 10
16.5209565024
 20
14.0249175
 10
18.165201038
 20
12.6855163619
 10
19.5029344977
 20
11.1985521476
 10
20.5121913352
 20
9.5884407684
 10
21.176399581
 20
7.8816202087
 10
21.4846529541
 20
6.1061164148
 10
21.4318899427
 20
4.29108311
 10
21.0189769139
 20
2.466323091
 10
20.2526938883
 20
0.6617988667
 10
19.1456232119
 20
-1.0928593248
 10
17.7159429547
 20
-2.7688400447
 10
17.5031124175
 20
-2.9839025484
  0
LWPOLYLINE
  5
9F
330
1F
100
AcDbEntity
  8
0
  6
Continuous
 62
     7
370
    25
100
AcDbPolyline
 90
       19
 70
   128
 43
0.0
 10
20.7755883251
 20
4.9318870111
 10
20.4639261327
 20
6.3358918374
 10
19.7591241767
 20
7.9960008695
 10
18.7114210274
 20
9.5548048581
 10
17.3387431761
 20
10.985632235
 10
15.6645775214
 20
12.2640011468
 10
13.717569502
 20
13.3680383473
 10
11.5310329647
 20
14.2788534537
 10
9.1423801561
 20
14.980862167
 10
6.5924815878
 20
15.4620529236
 10
3.9249667314
 20
15.7141924162
 10
1.1854775056
 20
15.7329664681
 10
-1.5791126693
 20
15.5180538502
 10
-4.3215008891
 20
15.0731317769
 10
-6.9947641309
 20
14.4058129882
 10
-9.5531621194
 20
13.5275154936
 10
-11.9529199559
 20
12.4532672068
 10
-14.1529771183
 20
11.2014488137
 10
-16.1156900187
 20
9.7934792743
  0
LWPOLYLINE
  5
A0
330
1F
100
AcDbEntity
  8
0
  6
Continuous
 62
     7
370
    25
100
AcDbPolyline
 90
       20
 70
   128
 43
0.0
 10
-17.8450421593
 20
4.3021123897
 10
-17.3447182355
 20
4.8422784905
 10
-15.6529321591
 20
6.3823084272
 10
-13.6902192587
 20
7.7902779667
 10
-11.4901620963
 20
9.0420963597
 10
-9.0904042598
 20
10.1163446465
 10
-6.5320062712
 20
10.9946421411
 10
-3.8587430294
 20
11.6619609298
 10
-1.1163548097
 20
12.1068830032
 10
1.6482353653
 20
12.3217956211
 10
4.3877245911
 20
12.3030215692
 10
7.0552394475
 20
12.0508820766
 10
9.6051380157
 20
11.56969132
 10
11.9937908244
 20
10.8676826066
 10
14.1803273617
 20
9.9568675002
 10
16.1273353811
 20
8.8528302998
 10
17.8015010357
 20
7.5744613879
 10
19.174178887
 20
6.1436340111
 10
20.2218820364
 20
4.5848300224
 10
20.8446771572
 20
3.1752841341
  0
LINE
  5
A1
330
1F
100
AcDbEntity
  8
0
  6
Continuous
 62
     7
370
    25
100
AcDbLine
 10
33.2866394774
 20
199.4545131316
 30
0.0
 11
30.0459211575
 21
200.7263353193
 31
0.0
  0
LINE
  5
A2
330
1F
100
AcDbEntity
  8
0
  6
Continuous
 62
     7
370
    25
100
AcDbLine
 10
-172.2424654089
 20
191.8493661478
 30
0.0
 11
-173.0582964794
 21
191.2353819909
 31
0.0
  0
LINE
  5
A3
330
1F
100
AcDbEntity
  8
0
  6
Continuous
 62
     7
370
    25
100
AcDbLine
 10
-179.1371669485
 20
186.5565250361
 30
0.0
 11
-181.0161728893
 21
185.0455785884
 31
0.0
  0
LINE
  5
A4
330
1F
100
AcDbEntity
  8
0
  6
Continuous
 62
     7
370
    25
100
AcDbLine
 10
20.7919186993
 20
4.8043376645
 30
0.0
 11
20.7755883251
 21
4.9318870111
 31
0.0
  0
LINE
  5
A5
330
1F
100
AcDbEntity
  8
0
  6
Continuous
 62
     7
370
    25
100
AcDbLine
 10
-180.3931006429
 20
185.4968484019
 30
0.0
 11
-179.0379623214
 21
186.6402275642
 31
0.0
  0
LINE
  5
A6
330
1F
100
AcDbEntity
  8
0
  6
Continuous
 62
     7
370
    25
100
AcDbLine
 10
-48.2426917857
 20
-45.5943354677
 30
0.0
 11
-47.0316876131
 21
-47.1349986277
 31
0.0
  0
LINE
  5
A7
330
1F
100
AcDbEntity
  8
0
  6
Continuous
 62
     7
370
    25
100
AcDbLine
 10
-59.9482343904
 20
-40.6957305878
 30
0.0
 11
-58.2690886952
 21
-41.6574470537
 31
0.0
  0
ARC
  5
A8
330
1F
100
AcDbEntity
  8
0
  6
Continuous
 62
     7
370
    25
100
AcDbCircle
 10
-45.2337945355
 20
-45.1225178279
 30
0.0
 40
2.999999999999666
100
AcDbArc
 50
213.3527600167
 51
246.2029777396
  0
ARC
  5
A9
330
1F
100
AcDbEntity
  8
0
  6
Continuous
 62
     7
370
    25
100
AcDbCircle
 10
-56.2859596641
 20
-39.7352575482
 30
0.0
 40
2.999999999996588
100
AcDbArc
 50
241.7428403653
 51
283.7996926405
  0
ARC
  5
AA
330
1F
100
AcDbEntity
  8
0
  6
Continuous
 62
     7
370
    25
100
AcDbCircle
 10
146.1464998884
 20
23.3663575229
 30
0.0
 40
4.902976287862821
100
AcDbArc
 50
34.9189420132
 51
62.2618048189
  0
ARC
  5
AB
330
1F
100
AcDbEntity
  8
0
  6
Continuous
 62
     7
370
    25
100
AcDbCircle
 10
-178.3226789295
 20
185.3002817744
 30
0.0
 40
1.518909163824038
100
AcDbArc
 50
57.1365213159
 51
118.0939763505
  0
ARC
  5
AC
330
1F
100
AcDbEntity
  8
0
  6
Continuous
 62
     7
370
    25
100
AcDbCircle
 10
22.7379877496
 20
-1.3096776661
 30
0.0
 40
1.027637652078508
100
AcDbArc
 50
58.8098069505
 51
114.9724259838
  0
ARC
  5
AD
330
1F
100
AcDbEntity
  8
0
  6
Continuous
 62
     7
370
    25
100
AcDbCircle
 10
-27.9878058637
 20
20.9284661916
 30
0.0
 40
3.262196280667937
100
AcDbArc
 50
36.1275211029
 51
61.6855975453
  0
ARC
  5
AE
330
1F
100
AcDbEntity
  8
0
  6
Continuous
 62
     7
370
    25
100
AcDbCircle
 10
-45.9643203256
 20
-46.8802017438
 30
0.0
 40
1.097357908137897
100
AcDbArc
 50
193.4261131047
 51
244.6001261691
  0
ARC
  5
AF
330
1F
100
AcDbEntity
  8
0
  6
Continuous
 62
     7
370
    25
100
AcDbCircle
 10
-57.0963489109
 20
-41.3207030919
 30
0.0
 40
1.220129131435164
100
AcDbArc
 50
196.0210459259
 51
240.400011595
  0
ARC
  5
B0
330
1F
100
AcDbEntity
  8
0
  6
Continuous
 62
     7
370
    25
100
AcDbCircle
 10
-56.1963183588
 20
-39.0585456234
 30
0.0
 40
3.324254128632323
100
AcDbArc
 50
231.4256660611
 51
270.8771114948
  0
ARC
  5
B1
330
1F
100
AcDbEntity
  8
0
  6
Continuous
 62
     7
370
    25
100
AcDbCircle
 10
-47.0148776109
 20
-46.2327134117
 30
0.0
 40
0.9024417916286704
100
AcDbArc
 50
215.6728240064
 51
268.9326758855
  0
ARC
  5
B2
330
1F
100
AcDbEntity
  8
0
  6
Continuous
 62
     7
370
    25
100
AcDbCircle
 10
-6.529428815
 20
-2.5275736388
 30
0.0
 40
15.61104572903209
100
AcDbArc
 50
127.8843124122
 51
151.4782703736
  0
ENDSEC
  0
SECTION
  2
OBJECTS
  0
DICTIONARY
  5
C
330
0
100
AcDbDictionary
281
     1
  3
ACAD_GROUP
350
D
  3
ACAD_LAYOUT
350
1A
  3
ACAD_MLINESTYLE
350
17
  3
ACAD_PLOTSETTINGS
350
19
  3
ACAD_PLOTSTYLENAME
350
E
  3
ACAD_SCALELIST
350
47
  3
DWGPROPS
350
B3
  0
DICTIONARY
  5
D
102
{ACAD_REACTORS
330
C
102
}
330
C
100
AcDbDictionary
281
     1
  0
DICTIONARY
  5
1A
102
{ACAD_REACTORS
330
C
102
}
330
C
100
AcDbDictionary
281
     1
  3
Layout1
350
1E
  3
Layout2
350
26
  3
Model
350
22
  0
DICTIONARY
  5
17
102
{ACAD_REACTORS
330
C
102
}
330
C
100
AcDbDictionary
281
     1
  3
Standard
350
18
  0
DICTIONARY
  5
19
102
{ACAD_REACTORS
330
C
102
}
330
C
100
AcDbDictionary
281
     1
  0
ACDBDICTIONARYWDFLT
  5
E
102
{ACAD_REACTORS
330
C
102
}
330
C
100
AcDbDictionary
281
     1
  3
Normal
350
F
100
AcDbDictionaryWithDefault
340
F
  0
DICTIONARY
  5
47
102
{ACAD_REACTORS
330
C
102
}
330
C
100
AcDbDictionary
281
     1
  3
A0
350
48
  3
A1
350
49
  3
A2
350
4A
  3
A3
350
4B
  3
A4
350
4C
  3
A5
350
4D
  3
A6
350
4E
  3
A7
350
4F
  3
A8
350
50
  3
A9
350
51
  3
B0
350
52
  3
B1
350
53
  3
B2
350
54
  3
B3
350
55
  3
B4
350
56
  3
B5
350
57
  3
B6
350
58
  0
XRECORD
  5
B3
102
{ACAD_REACTORS
330
C
102
}
330
C
100
AcDbXrecord
280
     1
  1
DWGPROPS COOKIE
  2

  3

  4

  6

  7

  8
Alan Ramirez
  9

300
=
301
=
302
=
303
=
304
=
305
=
306
=
307
=
308
=
309
=
 40
0.0
 41
2460517.672694873
 42
2460517.672723785
  1

 90
        0
  0
LAYOUT
  5
1E
102
{ACAD_REACTORS
330
1A
102
}
330
1A
100
AcDbPlotSettings
  1

  2
none_device
  4

  6

 40
0.0
 41
0.0
 42
0.0
 43
0.0
 44
0.0
 45
0.0
 46
0.0
 47
0.0
 48
0.0
 49
0.0
140
0.0
141
0.0
142
1.0
143
1.0
 70
   688
 72
     1
 73
     0
 74
     5
  7

 75
    16
147
1.0
148
0.0
149
0.0
100
AcDbLayout
  1
Layout1
 70
     1
 71
     1
 10
0.0
 20
0.0
 11
420.0
 21
297.0
 12
0.0
 22
0.0
 32
0.0
 14
1.0000000000E+20
 24
1.0000000000E+20
 34
1.0000000000E+20
 15
-1.0000000000E+20
 25
-1.0000000000E+20
 35
-1.0000000000E+20
146
0.0
 13
0.0
 23
0.0
 33
0.0
 16
1.0
 26
0.0
 36
0.0
 17
0.0
 27
1.0
 37
0.0
 76
     0
330
1B
  0
LAYOUT
  5
26
102
{ACAD_REACTORS
330
1A
102
}
330
1A
100
AcDbPlotSettings
  1

  2
none_device
  4

  6

 40
0.0
 41
0.0
 42
0.0
 43
0.0
 44
0.0
 45
0.0
 46
0.0
 47
0.0
 48
0.0
 49
0.0
140
0.0
141
0.0
142
1.0
143
1.0
 70
   688
 72
     1
 73
     0
 74
     5
  7

 75
    16
147
1.0
148
0.0
149
0.0
100
AcDbLayout
  1
Layout2
 70
     1
 71
     2
 10
0.0
 20
0.0
 11
0.0
 21
0.0
 12
0.0
 22
0.0
 32
0.0
 14
0.0
 24
0.0
 34
0.0
 15
0.0
 25
0.0
 35
0.0
146
0.0
 13
0.0
 23
0.0
 33
0.0
 16
1.0
 26
0.0
 36
0.0
 17
0.0
 27
1.0
 37
0.0
 76
     0
330
23
  0
LAYOUT
  5
22
102
{ACAD_REACTORS
330
1A
102
}
330
1A
100
AcDbPlotSettings
  1

  2
none_device
  4
ANSI_A_(11.00_x_8.50_Inches)
  6

 40
6.35
 41
19.05
 42
6.35000508
 43
19.05000254
 44
279.4
 45
215.9
 46
140.7679442792
 47
38.520802154
 48
0.0
 49
0.0
140
0.0
141
0.0
142
0.0251800336
143
1.0
 70
  1696
 72
     0
 73
     0
 74
     0
  7

 75
     0
147
0.0179189148
148
-1300.4909072572
149
0.0
100
AcDbLayout
  1
Model
 70
     1
 71
     0
 10
0.0
 20
0.0
 11
420.0
 21
297.0
 12
0.0
 22
0.0
 32
0.0
 14
-227.8410444223
 24
-65.2034853253
 34
0.0
 15
204.6444788269
 25
222.7436196105
 35
0.0
146
0.0
 13
0.0
 23
0.0
 33
0.0
 16
1.0
 26
0.0
 36
0.0
 17
0.0
 27
1.0
 37
0.0
 76
     0
330
1F
331
29
  0
MLINESTYLE
  5
18
102
{ACAD_REACTORS
330
17
102
}
330
17
100
AcDbMlineStyle
  2
Standard
 70
     0
  3

 62
   256
 51
90.0
 52
90.0
 71
     2
 49
0.5
 62
   256
  6
BYLAYER
 49
-0.5
 62
   256
  6
BYLAYER
  0
ACDBPLACEHOLDER
  5
F
102
{ACAD_REACTORS
330
E
102
}
330
E
  0
SCALE
  5
48
102
{ACAD_REACTORS
330
47
102
}
330
47
100
AcDbScale
 70
     0
300
1:1
140
1.0
141
1.0
290
     1
  0
SCALE
  5
49
102
{ACAD_REACTORS
330
47
102
}
330
47
100
AcDbScale
 70
     0
300
1:2
140
1.0
141
2.0
290
     0
  0
SCALE
  5
4A
102
{ACAD_REACTORS
330
47
102
}
330
47
100
AcDbScale
 70
     0
300
1:4
140
1.0
141
4.0
290
     0
  0
SCALE
  5
4B
102
{ACAD_REACTORS
330
47
102
}
330
47
100
AcDbScale
 70
     0
300
1:5
140
1.0
141
5.0
290
     0
  0
SCALE
  5
4C
102
{ACAD_REACTORS
330
47
102
}
330
47
100
AcDbScale
 70
     0
300
1:8
140
1.0
141
8.0
290
     0
  0
SCALE
  5
4D
102
{ACAD_REACTORS
330
47
102
}
330
47
100
AcDbScale
 70
     0
300
1:10
140
1.0
141
10.0
290
     0
  0
SCALE
  5
4E
102
{ACAD_REACTORS
330
47
102
}
330
47
100
AcDbScale
 70
     0
300
1:16
140
1.0
141
16.0
290
     0
  0
SCALE
  5
4F
102
{ACAD_REACTORS
330
47
102
}
330
47
100
AcDbScale
 70
     0
300
1:20
140
1.0
141
20.0
290
     0
  0
SCALE
  5
50
102
{ACAD_REACTORS
330
47
102
}
330
47
100
AcDbScale
 70
     0
300
1:30
140
1.0
141
30.0
290
     0
  0
SCALE
  5
51
102
{ACAD_REACTORS
330
47
102
}
330
47
100
AcDbScale
 70
     0
300
1:40
140
1.0
141
40.0
290
     0
  0
SCALE
  5
52
102
{ACAD_REACTORS
330
47
102
}
330
47
100
AcDbScale
 70
     0
300
1:50
140
1.0
141
50.0
290
     0
  0
SCALE
  5
53
102
{ACAD_REACTORS
330
47
102
}
330
47
100
AcDbScale
 70
     0
300
1:100
140
1.0
141
100.0
290
     0
  0
SCALE
  5
54
102
{ACAD_REACTORS
330
47
102
}
330
47
100
AcDbScale
 70
     0
300
2:1
140
2.0
141
1.0
290
     0
  0
SCALE
  5
55
102
{ACAD_REACTORS
330
47
102
}
330
47
100
AcDbScale
 70
     0
300
4:1
140
4.0
141
1.0
290
     0
  0
SCALE
  5
56
102
{ACAD_REACTORS
330
47
102
}
330
47
100
AcDbScale
 70
     0
300
8:1
140
8.0
141
1.0
290
     0
  0
SCALE
  5
57
102
{ACAD_REACTORS
330
47
102
}
330
47
100
AcDbScale
 70
     0
300
10:1
140
10.0
141
1.0
290
     0
  0
SCALE
  5
58
102
{ACAD_REACTORS
330
47
102
}
330
47
100
AcDbScale
 70
     0
300
100:1
140
100.0
141
1.0
290
     0
  0
ENDSEC
  0
EOF
