  0
SECTION
  2
HEADER
  9
$ACADVER
  1
AC1015
  9
$ACADMAINTVER
 70
     6
  9
$DWGCODEPAGE
  3
ANSI_1252
  9
$INSBASE
 10
0.0
 20
0.0
 30
0.0
  9
$EXTMIN
 10
-0.6969335692
 20
-1.5372118434
 30
0.0
  9
$EXTMAX
 10
15.4153225813
 20
4.9750266647
 30
0.0
  9
$LIMMIN
 10
0.0
 20
0.0
  9
$LIMMAX
 10
12.0
 20
9.0
  9
$ORTHOMODE
 70
     0
  9
$REGENMODE
 70
     1
  9
$FILLMODE
 70
     1
  9
$QTEXTMODE
 70
     0
  9
$MIRRTEXT
 70
     1
  9
$LTSCALE
 40
1.0
  9
$ATTMODE
 70
     1
  9
$TEXTSIZE
 40
0.125
  9
$TRACEWID
 40
0.05
  9
$TEXTSTYLE
  7
Standard
  9
$CLAYER
  8
0
  9
$CELTYPE
  6
ByLayer
  9
$CECOLOR
 62
   256
  9
$CELTSCALE
 40
1.0
  9
$DISPSILH
 70
     0
  9
$DIMSCALE
 40
1.0
  9
$DIMASZ
 40
0.13
  9
$DIMEXO
 40
0.0
  9
$DIMDLI
 40
0.38
  9
$DIMRND
 40
0.0
  9
$DIMDLE
 40
0.0
  9
$DIMEXE
 40
0.125
  9
$DIMTP
 40
0.0
  9
$DIMTM
 40
0.0
  9
$DIMTXT
 40
0.125
  9
$DIMCEN
 40
0.09
  9
$DIMTSZ
 40
0.0
  9
$DIMTOL
 70
     0
  9
$DIMLIM
 70
     0
  9
$DIMTIH
 70
     1
  9
$DIMTOH
 70
     1
  9
$DIMSE1
 70
     0
  9
$DIMSE2
 70
     0
  9
$DIMTAD
 70
     0
  9
$DIMZIN
 70
     1
  9
$DIMBLK
  1

  9
$DIMASO
 70
     1
  9
$DIMSHO
 70
     1
  9
$DIMPOST
  1

  9
$DIMAPOST
  1

  9
$DIMALT
 70
     0
  9
$DIMALTD
 70
     2
  9
$DIMALTF
 40
25.4
  9
$DIMLFAC
 40
1.0
  9
$DIMTOFL
 70
     0
  9
$DIMTVP
 40
0.0
  9
$DIMTIX
 70
     0
  9
$DIMSOXD
 70
     0
  9
$DIMSAH
 70
     0
  9
$DIMBLK1
  1

  9
$DIMBLK2
  1

  9
$DIMSTYLE
  2
Standard
  9
$DIMCLRD
 70
     0
  9
$DIMCLRE
 70
     0
  9
$DIMCLRT
 70
     0
  9
$DIMTFAC
 40
1.0
  9
$DIMGAP
 40
0.06
  9
$DIMJUST
 70
     0
  9
$DIMSD1
 70
     0
  9
$DIMSD2
 70
     0
  9
$DIMTOLJ
 70
     1
  9
$DIMTZIN
 70
     1
  9
$DIMALTZ
 70
     0
  9
$DIMALTTZ
 70
     0
  9
$DIMUPT
 70
     0
  9
$DIMDEC
 70
     3
  9
$DIMTDEC
 70
     3
  9
$DIMALTU
 70
     2
  9
$DIMALTTD
 70
     2
  9
$DIMTXSTY
  7
Standard
  9
$DIMAUNIT
 70
     0
  9
$DIMADEC
 70
     2
  9
$DIMALTRND
 40
0.0
  9
$DIMAZIN
 70
     0
  9
$DIMDSEP
 70
    46
  9
$DIMATFIT
 70
     3
  9
$DIMFRAC
 70
     0
  9
$DIMLDRBLK
  1

  9
$DIMLUNIT
 70
     2
  9
$DIMLWD
 70
    -2
  9
$DIMLWE
 70
    -2
  9
$DIMTMOVE
 70
     0
  9
$LUNITS
 70
     2
  9
$LUPREC
 70
     3
  9
$SKETCHINC
 40
0.1
  9
$FILLETRAD
 40
0.0
  9
$AUNITS
 70
     0
  9
$AUPREC
 70
     2
  9
$MENU
  1
.
  9
$ELEVATION
 40
0.0
  9
$PELEVATION
 40
0.0
  9
$THICKNESS
 40
0.0
  9
$LIMCHECK
 70
     0
  9
$CHAMFERA
 40
0.0
  9
$CHAMFERB
 40
0.0
  9
$CHAMFERC
 40
0.0
  9
$CHAMFERD
 40
0.0
  9
$SKPOLY
 70
     0
  9
$TDCREATE
 40
2460467.523669155
  9
$TDUCREATE
 40
2460467.773669155
  9
$TDUPDATE
 40
2460467.523697512
  9
$TDUUPDATE
 40
2460467.773697512
  9
$TDINDWG
 40
0.0000000116
  9
$TDUSRTIMER
 40
0.0000000116
  9
$USRTIMER
 70
     1
  9
$ANGBASE
 50
0.0
  9
$ANGDIR
 70
     0
  9
$PDMODE
 70
     0
  9
$PDSIZE
 40
-1.0
  9
$PLINEWID
 40
0.0
  9
$SPLFRAME
 70
     0
  9
$SPLINETYPE
 70
     6
  9
$SPLINESEGS
 70
     8
  9
$HANDSEED
  5
211
  9
$SURFTAB1
 70
     6
  9
$SURFTAB2
 70
     6
  9
$SURFTYPE
 70
     6
  9
$SURFU
 70
     6
  9
$SURFV
 70
     6
  9
$UCSBASE
  2

  9
$UCSNAME
  2

  9
$UCSORG
 10
0.0
 20
0.0
 30
0.0
  9
$UCSXDIR
 10
1.0
 20
0.0
 30
0.0
  9
$UCSYDIR
 10
0.0
 20
1.0
 30
0.0
  9
$UCSORTHOREF
  2

  9
$UCSORTHOVIEW
 70
     0
  9
$UCSORGTOP
 10
0.0
 20
0.0
 30
0.0
  9
$UCSORGBOTTOM
 10
0.0
 20
0.0
 30
0.0
  9
$UCSORGLEFT
 10
0.0
 20
0.0
 30
0.0
  9
$UCSORGRIGHT
 10
0.0
 20
0.0
 30
0.0
  9
$UCSORGFRONT
 10
0.0
 20
0.0
 30
0.0
  9
$UCSORGBACK
 10
0.0
 20
0.0
 30
0.0
  9
$PUCSBASE
  2

  9
$PUCSNAME
  2

  9
$PUCSORG
 10
0.0
 20
0.0
 30
0.0
  9
$PUCSXDIR
 10
1.0
 20
0.0
 30
0.0
  9
$PUCSYDIR
 10
0.0
 20
1.0
 30
0.0
  9
$PUCSORTHOREF
  2

  9
$PUCSORTHOVIEW
 70
     0
  9
$PUCSORGTOP
 10
0.0
 20
0.0
 30
0.0
  9
$PUCSORGBOTTOM
 10
0.0
 20
0.0
 30
0.0
  9
$PUCSORGLEFT
 10
0.0
 20
0.0
 30
0.0
  9
$PUCSORGRIGHT
 10
0.0
 20
0.0
 30
0.0
  9
$PUCSORGFRONT
 10
0.0
 20
0.0
 30
0.0
  9
$PUCSORGBACK
 10
0.0
 20
0.0
 30
0.0
  9
$USERI1
 70
     0
  9
$USERI2
 70
     0
  9
$USERI3
 70
     0
  9
$USERI4
 70
     0
  9
$USERI5
 70
     0
  9
$USERR1
 40
0.0
  9
$USERR2
 40
0.0
  9
$USERR3
 40
0.0
  9
$USERR4
 40
0.0
  9
$USERR5
 40
0.0
  9
$WORLDVIEW
 70
     1
  9
$SHADEDGE
 70
     3
  9
$SHADEDIF
 70
    70
  9
$TILEMODE
 70
     1
  9
$MAXACTVP
 70
    64
  9
$PINSBASE
 10
0.0
 20
0.0
 30
0.0
  9
$PLIMCHECK
 70
     0
  9
$PEXTMIN
 10
1.0000000000E+20
 20
1.0000000000E+20
 30
1.0000000000E+20
  9
$PEXTMAX
 10
-1.0000000000E+20
 20
-1.0000000000E+20
 30
-1.0000000000E+20
  9
$PLIMMIN
 10
0.0
 20
0.0
  9
$PLIMMAX
 10
12.0
 20
9.0
  9
$UNITMODE
 70
     0
  9
$VISRETAIN
 70
     1
  9
$PLINEGEN
 70
     0
  9
$PSLTSCALE
 70
     1
  9
$TREEDEPTH
 70
  3020
  9
$CMLSTYLE
  2
Standard
  9
$CMLJUST
 70
     0
  9
$CMLSCALE
 40
1.0
  9
$PROXYGRAPHICS
 70
     1
  9
$MEASUREMENT
 70
     0
  9
$CELWEIGHT
370
    -1
  9
$ENDCAPS
280
     0
  9
$JOINSTYLE
280
     0
  9
$LWDISPLAY
290
     1
  9
$INSUNITS
 70
     1
  9
$HYPERLINKBASE
  1

  9
$STYLESHEET
  1

  9
$XEDIT
290
     1
  9
$CEPSNTYPE
380
     0
  9
$PSTYLEMODE
290
     1
  9
$FINGERPRINTGUID
  2
{7fe452c6-c150-45f6-97ac-f2ef5666e6d9}
  9
$VERSIONGUID
  2
{FAEB1C32-E019-11D5-929B-00C0DF256EC4}
  9
$EXTNAMES
290
     1
  9
$PSVPSCALE
 40
0.0
  9
$OLESTARTUP
290
     0
  0
ENDSEC
  0
SECTION
  2
CLASSES
  0
CLASS
  1
ACDBDICTIONARYWDFLT
  2
AcDbDictionaryWithDefault
  3
ObjectDBX Classes
 90
        0
280
     0
281
     0
  0
CLASS
  1
VISUALSTYLE
  2
AcDbVisualStyle
  3
ObjectDBX Classes
 90
     4095
280
     0
281
     0
  0
CLASS
  1
MATERIAL
  2
AcDbMaterial
  3
ObjectDBX Classes
 90
     1153
280
     0
281
     0
  0
CLASS
  1
SCALE
  2
AcDbScale
  3
ObjectDBX Classes
 90
     1153
280
     0
281
     0
  0
CLASS
  1
TABLESTYLE
  2
AcDbTableStyle
  3
ObjectDBX Classes
 90
     4095
280
     0
281
     0
  0
CLASS
  1
MLEADERSTYLE
  2
AcDbMLeaderStyle
  3
ACDB_MLEADERSTYLE_CLASS
 90
     4095
280
     0
281
     0
  0
CLASS
  1
SUN
  2
AcDbSun
  3
SCENEOE
 90
     1153
280
     0
281
     0
  0
CLASS
  1
ACDBPLACEHOLDER
  2
AcDbPlaceHolder
  3
ObjectDBX Classes
 90
        0
280
     0
281
     0
  0
CLASS
  1
LAYOUT
  2
AcDbLayout
  3
ObjectDBX Classes
 90
        0
280
     0
281
     0
  0
ENDSEC
  0
SECTION
  2
TABLES
  0
TABLE
  2
VPORT
  5
8
330
0
100
AcDbSymbolTable
 70
     1
  0
VPORT
  5
29
330
8
100
AcDbSymbolTableRecord
100
AcDbViewportTableRecord
  2
*Active
 70
     0
 10
0.0
 20
0.0
 11
1.0
 21
1.0
 12
7.3591945061
 22
1.7189074107
 13
0.0
 23
0.0
 14
0.5
 24
0.5
 15
0.5
 25
0.5
 16
0.0
 26
0.0
 36
1.0
 17
0.0
 27
0.0
 37
0.0
 40
6.6424832783
 41
2.4741501913
 42
50.0
 43
0.0
 44
0.0
 50
0.0
 51
0.0
 71
     0
 72
   100
 73
     1
 74
     3
 75
     0
 76
     0
 77
     0
 78
     0
281
     0
 65
     1
110
0.0
120
0.0
130
0.0
111
1.0
121
0.0
131
0.0
112
0.0
122
1.0
132
0.0
 79
     0
146
0.0
  0
ENDTAB
  0
TABLE
  2
LTYPE
  5
5
330
0
100
AcDbSymbolTable
 70
     6
  0
LTYPE
  5
14
330
5
100
AcDbSymbolTableRecord
100
AcDbLinetypeTableRecord
  2
ByBlock
 70
     0
  3

 72
    65
 73
     0
 40
0.0
  0
LTYPE
  5
15
330
5
100
AcDbSymbolTableRecord
100
AcDbLinetypeTableRecord
  2
ByLayer
 70
     0
  3

 72
    65
 73
     0
 40
0.0
  0
LTYPE
  5
16
330
5
100
AcDbSymbolTableRecord
100
AcDbLinetypeTableRecord
  2
Continuous
 70
     0
  3
Solid line
 72
    65
 73
     0
 40
0.0
  0
LTYPE
  5
5E
330
5
100
AcDbSymbolTableRecord
100
AcDbLinetypeTableRecord
  2
HIDDEN
 70
     0
  3
Hidden __ __ __ __ __ __ __ __ __ __ __ __ __ __
 72
    65
 73
     2
 40
0.075
 49
0.05
 74
     0
 49
-0.025
 74
     0
  0
LTYPE
  5
5F
330
5
100
AcDbSymbolTableRecord
100
AcDbLinetypeTableRecord
  2
PHANTOM
 70
     0
  3
Phantom ______  __  __  ______  __  __  ______
 72
    65
 73
     6
 40
0.5
 49
0.25
 74
     0
 49
-0.05
 74
     0
 49
0.05
 74
     0
 49
-0.05
 74
     0
 49
0.05
 74
     0
 49
-0.05
 74
     0
  0
LTYPE
  5
60
330
5
100
AcDbSymbolTableRecord
100
AcDbLinetypeTableRecord
  2
CENTER
 70
     0
  3
Center ____ _ ____ _ ____ _ ____ _ ____ _ ____
 72
    65
 73
     4
 40
0.4
 49
0.25
 74
     0
 49
-0.05
 74
     0
 49
0.05
 74
     0
 49
-0.05
 74
     0
  0
LTYPE
  5
61
330
5
100
AcDbSymbolTableRecord
100
AcDbLinetypeTableRecord
  2
CENTERX2
 70
     0
  3
Center (2x) ________  __  ________  __  _____
 72
    65
 73
     4
 40
0.8
 49
0.5
 74
     0
 49
-0.1
 74
     0
 49
0.1
 74
     0
 49
-0.1
 74
     0
  0
LTYPE
  5
62
330
5
100
AcDbSymbolTableRecord
100
AcDbLinetypeTableRecord
  2
DOT2
 70
     0
  3
Dot (.5x) ........................................
 72
    65
 73
     2
 40
0.025
 49
0.0
 74
     0
 49
-0.025
 74
     0
  0
ENDTAB
  0
TABLE
  2
LAYER
  5
2
330
0
100
AcDbSymbolTable
 70
     1
  0
LAYER
  5
10
330
2
100
AcDbSymbolTableRecord
100
AcDbLayerTableRecord
  2
0
 70
     0
 62
     7
  6
Continuous
370
    -3
390
F
  0
ENDTAB
  0
TABLE
  2
STYLE
  5
3
330
0
100
AcDbSymbolTable
 70
     1
  0
STYLE
  5
11
330
3
100
AcDbSymbolTableRecord
100
AcDbTextStyleTableRecord
  2
Standard
 70
     0
 40
0.0
 41
1.0
 50
0.0
 71
     0
 42
0.125
  3
txt
  4

  0
ENDTAB
  0
TABLE
  2
VIEW
  5
6
330
0
100
AcDbSymbolTable
 70
     0
  0
ENDTAB
  0
TABLE
  2
UCS
  5
7
330
0
100
AcDbSymbolTable
 70
     0
  0
ENDTAB
  0
TABLE
  2
APPID
  5
9
330
0
100
AcDbSymbolTable
 70
     1
  0
APPID
  5
12
330
9
100
AcDbSymbolTableRecord
100
AcDbRegAppTableRecord
  2
ACAD
 70
     0
  0
ENDTAB
  0
TABLE
  2
DIMSTYLE
  5
A
330
0
100
AcDbSymbolTable
 70
     1
100
AcDbDimStyleTable
  0
DIMSTYLE
105
27
330
A
100
AcDbSymbolTableRecord
100
AcDbDimStyleTableRecord
  2
Standard
 70
     0
178
     0
340
11
  0
ENDTAB
  0
TABLE
  2
BLOCK_RECORD
  5
1
330
0
100
AcDbSymbolTable
 70
     1
  0
BLOCK_RECORD
  5
1F
330
1
100
AcDbSymbolTableRecord
100
AcDbBlockTableRecord
  2
*Model_Space
340
22
  0
BLOCK_RECORD
  5
1B
330
1
100
AcDbSymbolTableRecord
100
AcDbBlockTableRecord
  2
*Paper_Space
340
1E
  0
BLOCK_RECORD
  5
23
330
1
100
AcDbSymbolTableRecord
100
AcDbBlockTableRecord
  2
*Paper_Space0
340
26
  0
ENDTAB
  0
ENDSEC
  0
SECTION
  2
BLOCKS
  0
BLOCK
  5
20
330
1F
100
AcDbEntity
  8
0
100
AcDbBlockBegin
  2
*Model_Space
 70
     0
 10
0.0
 20
0.0
 30
0.0
  3
*Model_Space
  1

  0
ENDBLK
  5
21
330
1F
100
AcDbEntity
  8
0
100
AcDbBlockEnd
  0
BLOCK
  5
1C
330
1B
100
AcDbEntity
 67
     1
  8
0
100
AcDbBlockBegin
  2
*Paper_Space
 70
     0
 10
0.0
 20
0.0
 30
0.0
  3
*Paper_Space
  1

  0
ENDBLK
  5
1D
330
1B
100
AcDbEntity
 67
     1
  8
0
100
AcDbBlockEnd
  0
BLOCK
  5
24
330
23
100
AcDbEntity
  8
0
100
AcDbBlockBegin
  2
*Paper_Space0
 70
     0
 10
0.0
 20
0.0
 30
0.0
  3
*Paper_Space0
  1

  0
ENDBLK
  5
25
330
23
100
AcDbEntity
  8
0
100
AcDbBlockEnd
  0
ENDSEC
  0
SECTION
  2
ENTITIES
  0
SPLINE
  5
64
330
1F
100
AcDbEntity
  8
0
  6
Continuous
 62
     7
370
    25
100
AcDbSpline
210
0.0
220
0.0
230
1.0
 70
     8
 71
     3
 72
    10
 73
     6
 74
     0
 42
0.00000001
 43
0.00000001
 40
0.0
 40
0.0
 40
0.0
 40
0.0
 40
0.1513745972217025
 40
0.7318567253819485
 40
1.0
 40
1.0
 40
1.0
 40
1.0
 10
12.74942952854645
 20
3.368823327022517
 30
0.0
 10
12.75066500640237
 20
3.36803838820749
 30
0.0
 10
12.75663821983784
 20
3.364243413612448
 30
0.0
 10
12.76717430077001
 20
3.363656991224552
 30
0.0
 10
12.77502964517078
 20
3.366566167027214
 30
0.0
 10
12.77751172709287
 20
3.367485389953621
 30
0.0
  0
SPLINE
  5
68
330
1F
100
AcDbEntity
  8
0
  6
Continuous
 62
     7
370
    25
100
AcDbSpline
210
0.0
220
0.0
230
1.0
 70
     8
 71
     3
 72
    12
 73
     8
 74
     0
 42
0.00000001
 43
0.00000001
 40
0.0
 40
0.0
 40
0.0
 40
0.0
 40
0.0520033418812801
 40
0.3206377572146618
 40
0.5952337285605593
 40
0.8823567877568859
 40
1.0
 40
1.0
 40
1.0
 40
1.0
 10
0.5663920223192833
 20
0.7794921150287842
 30
0.0
 10
0.5665332751019724
 20
0.7803972876891535
 30
0.0
 10
0.5674041994272835
 20
0.7859783238536272
 30
0.0
 10
0.5667689331028744
 20
0.7961865331109735
 30
0.0
 10
0.5626752168248805
 20
0.8091025621192238
 30
0.0
 10
0.5564086257362075
 20
0.8188285701984426
 30
0.0
 10
0.5505661561617207
 20
0.8218580671822504
 30
0.0
 10
0.5488680727573625
 20
0.8227385747289598
 30
0.0
  0
SPLINE
  5
6C
330
1F
100
AcDbEntity
  8
0
  6
Continuous
 62
     7
370
    25
100
AcDbSpline
210
0.0
220
0.0
230
1.0
 70
     8
 71
     3
 72
    10
 73
     6
 74
     0
 42
0.00000001
 43
0.00000001
 40
0.0
 40
0.0
 40
0.0
 40
0.0
 40
0.3271084617063264
 40
0.6989844073187984
 40
1.0
 40
1.0
 40
1.0
 40
1.0
 10
-0.1500185701139038
 20
-0.4090123622662541
 30
0.0
 10
-0.0798524376756437
 20
-0.4584655587141952
 30
0.0
 10
0.0700826396389903
 20
-0.564140028365237
 30
0.0
 10
0.2905384039645421
 20
-0.7240979640856878
 30
0.0
 10
0.4355508154875159
 20
-0.8383273532502922
 30
0.0
 10
0.5004215925988004
 20
-0.889427456794748
 30
0.0
  0
SPLINE
  5
6D
330
1F
100
AcDbEntity
  8
0
  6
Continuous
 62
     7
370
    25
100
AcDbSpline
210
0.0
220
0.0
230
1.0
 70
     8
 71
     3
 72
    11
 73
     7
 74
     0
 42
0.00000001
 43
0.00000001
 40
0.0
 40
0.0
 40
0.0
 40
0.0
 40
0.253350742653019
 40
0.5070789961602851
 40
0.7572179435130301
 40
0.9999999999999999
 40
0.9999999999999999
 40
0.9999999999999999
 40
0.9999999999999999
 10
1.311144050695681
 20
-1.527391585634841
 30
0.0
 10
1.314222412842573
 20
-1.529536766184389
 30
0.0
 10
1.320383724117675
 20
-1.53383032375701
 30
0.0
 10
1.331456911782147
 20
-1.536959838217784
 30
0.0
 10
1.343056242442943
 20
-1.537628235117853
 30
0.0
 10
1.35070150427665
 20
-1.535719998240459
 30
0.0
 10
1.354467082078996
 20
-1.534780120106338
 30
0.0
  0
SPLINE
  5
6E
330
1F
100
AcDbEntity
  8
0
  6
Continuous
 62
     7
370
    25
100
AcDbSpline
210
0.0
220
0.0
230
1.0
 70
     8
 71
     3
 72
    15
 73
    11
 74
     0
 42
0.00000001
 43
0.00000001
 40
0.0
 40
0.0
 40
0.0
 40
0.0
 40
0.0278044629189264
 40
0.150735967209978
 40
0.2570320489339806
 40
0.3468198294220963
 40
0.4416314277578132
 40
0.596295944051624
 40
0.7856861016188338
 40
1.0
 40
1.0
 40
1.0
 40
1.0
 10
0.5184655228082057
 20
-0.9001393717572024
 30
0.0
 10
0.5259079718374782
 20
-0.9060254767634942
 30
0.0
 10
0.5662556223606862
 20
-0.9379357400118811
 30
0.0
 10
0.6353818158459263
 20
-0.9924581055326186
 30
0.0
 10
0.7209323337600072
 20
-1.059914226084506
 30
0.0
 10
0.7979186589350901
 20
-1.120806090963281
 30
0.0
 10
0.8869294491066078
 20
-1.191354974708289
 30
0.0
 10
1.002307102598133
 20
-1.28273214428986
 30
0.0
 10
1.149052437830683
 20
-1.398948616579728
 30
0.0
 10
1.255228987372014
 20
-1.483085167512992
 30
0.0
 10
1.311594807614785
 20
-1.527750639561553
 30
0.0
  0
SPLINE
  5
70
330
1F
100
AcDbEntity
  8
0
  6
Continuous
 62
     7
370
    25
100
AcDbSpline
210
0.0
220
0.0
230
1.0
 70
     8
 71
     3
 72
    11
 73
     7
 74
     0
 42
0.00000001
 43
0.00000001
 40
0.0
 40
0.0
 40
0.0
 40
0.0
 40
0.2499448744910158
 40
0.4999680526364436
 40
0.7500022261454369
 40
1.0
 40
1.0
 40
1.0
 40
1.0
 10
2.045400016139521
 20
-0.2012914641139779
 30
0.0
 10
2.017454682409331
 20
-0.2079230604083723
 30
0.0
 10
1.961555260131478
 20
-0.2211883305681674
 30
0.0
 10
1.855003681113924
 20
-0.2194354034866628
 30
0.0
 10
1.749110224000147
 20
-0.2020621606302828
 30
0.0
 10
1.694679681534451
 20
-0.1788523391299551
 30
0.0
 10
1.667466391427955
 20
-0.1672482731552963
 30
0.0
  0
SPLINE
  5
73
330
1F
100
AcDbEntity
  8
0
  6
Continuous
 62
     7
370
    25
100
AcDbSpline
210
0.0
220
0.0
230
1.0
 70
     8
 71
     3
 72
     9
 73
     5
 74
     0
 42
0.00000001
 43
0.00000001
 40
0.0
 40
0.0
 40
0.0
 40
0.0
 40
0.4938467179598301
 40
1.0
 40
1.0
 40
1.0
 40
1.0
 10
14.48699401871687
 20
3.727649189343965
 30
0.0
 10
14.48302210611719
 20
3.71840561771749
 30
0.0
 10
14.474979301629
 20
3.699688126458945
 30
0.0
 10
14.43641836037583
 20
3.686293911911168
 30
0.0
 10
14.41690061340198
 20
3.679514386257461
 30
0.0
  0
SPLINE
  5
74
330
1F
100
AcDbEntity
  8
0
  6
Continuous
 62
     7
370
    25
100
AcDbSpline
210
0.0
220
0.0
230
1.0
 70
     8
 71
     3
 72
     9
 73
     5
 74
     0
 42
0.00000001
 43
0.00000001
 40
0.0
 40
0.0
 40
0.0
 40
0.0
 40
0.4619212025596706
 40
1.0
 40
1.0
 40
1.0
 40
1.0
 10
15.37256837980469
 20
3.832605817531078
 30
0.0
 10
15.12214489423246
 20
3.93171588114934
 30
0.0
 10
14.58001025268634
 20
4.146276423226773
 30
0.0
 10
14.03836808702404
 20
4.360591869326179
 30
0.0
 10
13.7469219218815
 20
4.475910466836236
 30
0.0
  0
SPLINE
  5
75
330
1F
100
AcDbEntity
  8
0
  6
Continuous
 62
     7
370
    25
100
AcDbSpline
210
0.0
220
0.0
230
1.0
 70
     8
 71
     3
 72
    10
 73
     6
 74
     0
 42
0.00000001
 43
0.00000001
 40
0.0
 40
0.0
 40
0.0
 40
0.0
 40
0.2504499809838986
 40
0.5192912455822695
 40
0.9999999999999999
 40
0.9999999999999999
 40
0.9999999999999999
 40
0.9999999999999999
 10
13.76701682286071
 20
4.468723961475521
 30
0.0
 10
13.73989282763057
 20
4.479703333414347
 30
0.0
 10
13.68365304189417
 20
4.502468325080249
 30
0.0
 10
13.57738174921517
 20
4.546781603718575
 30
0.0
 10
13.49933941822458
 20
4.579724784131406
 30
0.0
 10
13.44928854667423
 20
4.600852227025206
 30
0.0
  0
SPLINE
  5
76
330
1F
100
AcDbEntity
  8
0
  6
Continuous
 62
     7
370
    25
100
AcDbSpline
210
0.0
220
0.0
230
1.0
 70
     8
 71
     3
 72
    11
 73
     7
 74
     0
 42
0.00000001
 43
0.00000001
 40
0.0
 40
0.0
 40
0.0
 40
0.0
 40
0.248425578936302
 40
0.5011203374410195
 40
0.7530863806054885
 40
1.0
 40
1.0
 40
1.0
 40
1.0
 10
15.40093796465763
 20
3.794702204281171
 30
0.0
 10
15.40001759996561
 20
3.799030217312007
 30
0.0
 10
15.39816105416621
 20
3.807760620033611
 30
0.0
 10
15.39145866522712
 20
3.818891245804339
 30
0.0
 10
15.38277056504769
 20
3.827754966990166
 30
0.0
 10
15.37569453148993
 20
3.831115925362757
 30
0.0
 10
15.37219234611773
 20
3.832779385428766
 30
0.0
  0
SPLINE
  5
77
330
1F
100
AcDbEntity
  8
0
  6
Continuous
 62
     7
370
    25
100
AcDbSpline
210
0.0
220
0.0
230
1.0
 70
     8
 71
     3
 72
    15
 73
    11
 74
     0
 42
0.00000001
 43
0.00000001
 40
0.0
 40
0.0
 40
0.0
 40
0.0
 40
0.1580655676526546
 40
0.2847710389522739
 40
0.3809615079146031
 40
0.4516281324633324
 40
0.5422418218380384
 40
0.6637699523949198
 40
0.8164207381558949
 40
1.0
 40
1.0
 40
1.0
 40
1.0
 10
15.28809159128916
 20
2.863887930781671
 30
0.0
 10
15.30460437389155
 20
2.9151066646714
 30
0.0
 10
15.33435381475655
 20
3.007382372026275
 30
0.0
 10
15.36437924920587
 20
3.130555153138745
 30
0.0
 10
15.38311490768819
 20
3.224739857733493
 30
0.0
 10
15.39623288600889
 20
3.306655513722113
 30
0.0
 10
15.40722627587027
 20
3.39573603998609
 30
0.0
 10
15.41523653665465
 20
3.508601797015992
 30
0.0
 10
15.41650056258458
 20
3.646836022450003
 30
0.0
 10
15.4064491923332
 20
3.742361750676166
 30
0.0
 10
15.40096121425267
 20
3.794518132295803
 30
0.0
  0
SPLINE
  5
79
330
1F
100
AcDbEntity
  8
0
  6
Continuous
 62
     7
370
    25
100
AcDbSpline
210
0.0
220
0.0
230
1.0
 70
     8
 71
     3
 72
    11
 73
     7
 74
     0
 42
0.00000001
 43
0.00000001
 40
0.0
 40
0.0
 40
0.0
 40
0.0
 40
0.2570415213752614
 40
0.5101799820204204
 40
0.7584114184725586
 40
1.0
 40
1.0
 40
1.0
 40
1.0
 10
15.24504169468338
 20
2.822524227234193
 30
0.0
 10
15.2497998783743
 20
2.824459466220572
 30
0.0
 10
15.25924399486137
 20
2.82830055845343
 30
0.0
 10
15.27253797558668
 20
2.83979738978158
 30
0.0
 10
15.28361569898913
 20
2.853897997543138
 30
0.0
 10
15.28787846165096
 20
2.864135074502703
 30
0.0
 10
15.28998093755447
 20
2.869184196243072
 30
0.0
  0
SPLINE
  5
7A
330
1F
100
AcDbEntity
  8
0
  6
Continuous
 62
     7
370
    25
100
AcDbSpline
210
0.0
220
0.0
230
1.0
 70
     8
 71
     3
 72
    11
 73
     7
 74
     0
 42
0.00000001
 43
0.00000001
 40
0.0
 40
0.0
 40
0.0
 40
0.0
 40
0.2499999999876137
 40
0.4999999999991659
 40
0.7500000000109196
 40
1.0
 40
1.0
 40
1.0
 40
1.0
 10
12.91060070976788
 20
4.648465244805604
 30
0.0
 10
12.91158282857111
 20
4.653221752979688
 30
0.0
 10
12.91354706617766
 20
4.662734769328313
 30
0.0
 10
12.92152012361303
 20
4.676457495140779
 30
0.0
 10
12.93189459787475
 20
4.687561399082756
 30
0.0
 10
12.93946938117577
 20
4.6909559358699
 30
0.0
 10
12.94325677282611
 20
4.692653204263396
 30
0.0
  0
SPLINE
  5
7B
330
1F
100
AcDbEntity
  8
0
  6
Continuous
 62
     7
370
    25
100
AcDbSpline
210
0.0
220
0.0
230
1.0
 70
     8
 71
     3
 72
    11
 73
     7
 74
     0
 42
0.00000001
 43
0.00000001
 40
0.0
 40
0.0
 40
0.0
 40
0.0
 40
0.2499999999999997
 40
0.5000000000000164
 40
0.7500000000000023
 40
0.9999999999999999
 40
0.9999999999999999
 40
0.9999999999999999
 40
0.9999999999999999
 10
12.8834128476846
 20
4.651245639848535
 30
0.0
 10
12.88539595805795
 20
4.650373267053984
 30
0.0
 10
12.88936217880464
 20
4.648628521464884
 30
0.0
 10
12.89694654643215
 20
4.647283113011547
 30
0.0
 10
12.90455753678334
 20
4.647074676236162
 30
0.0
 10
12.90858631877317
 20
4.648001721949441
 30
0.0
 10
12.91060070976808
 20
4.64846524480608
 30
0.0
  0
SPLINE
  5
7C
330
1F
100
AcDbEntity
  8
0
  6
Continuous
 62
     7
370
    25
100
AcDbSpline
210
0.0
220
0.0
230
1.0
 70
     8
 71
     3
 72
    11
 73
     7
 74
     0
 42
0.00000001
 43
0.00000001
 40
0.0
 40
0.0
 40
0.0
 40
0.0
 40
0.250016147740672
 40
0.4999987095378845
 40
0.749981916632426
 40
1.0
 40
1.0
 40
1.0
 40
1.0
 10
12.88341284768476
 20
4.651245639848594
 30
0.0
 10
12.88494678188031
 20
4.658347123115097
 30
0.0
 10
12.88801444421022
 20
4.67254913566966
 30
0.0
 10
12.90003330816535
 20
4.693092509579001
 30
0.0
 10
12.91552883712202
 20
4.709779829041024
 30
0.0
 10
12.92677219981025
 20
4.714942490654854
 30
0.0
 10
12.93239427327994
 20
4.717524001515701
 30
0.0
  0
SPLINE
  5
7D
330
1F
100
AcDbEntity
  8
0
  6
Continuous
 62
     7
370
    25
100
AcDbSpline
210
0.0
220
0.0
230
1.0
 70
     8
 71
     3
 72
    11
 73
     7
 74
     0
 42
0.00000001
 43
0.00000001
 40
0.0
 40
0.0
 40
0.0
 40
0.0
 40
0.2500000000000008
 40
0.4999999999999997
 40
0.7499999999999999
 40
1.0
 40
1.0
 40
1.0
 40
1.0
 10
12.94325679415599
 20
4.692653381653097
 30
0.0
 10
12.94333540112371
 20
4.695021973569009
 30
0.0
 10
12.94349261505918
 20
4.699759157400835
 30
0.0
 10
12.94120370298112
 20
4.707169037637676
 30
0.0
 10
12.93742163884345
 20
4.713659404152065
 30
0.0
 10
12.93407006180109
 20
4.716235802394396
 30
0.0
 10
12.93239427327991
 20
4.717524001515561
 30
0.0
  0
SPLINE
  5
82
330
1F
100
AcDbEntity
  8
0
  6
Continuous
 62
     7
370
    25
100
AcDbSpline
210
0.0
220
0.0
230
1.0
 70
     8
 71
     3
 72
    11
 73
     7
 74
     0
 42
0.00000001
 43
0.00000001
 40
0.0
 40
0.0
 40
0.0
 40
0.0
 40
0.2500000769494164
 40
0.500000153908178
 40
0.7500000769654199
 40
1.0
 40
1.0
 40
1.0
 40
1.0
 10
12.78518313042436
 20
3.378043927126174
 30
0.0
 10
12.78152312769003
 20
3.377405206638571
 30
0.0
 10
12.77420312222125
 20
3.376127765663338
 30
0.0
 10
12.76579077470197
 20
3.381338553175741
 30
0.0
 10
12.76062244765884
 20
3.390938815228271
 30
0.0
 10
12.7608816663677
 20
3.399916766208689
 30
0.0
 10
12.76101127572212
 20
3.404405741698693
 30
0.0
  0
SPLINE
  5
85
330
1F
100
AcDbEntity
  8
0
  6
Continuous
 62
     7
370
    25
100
AcDbSpline
210
0.0
220
0.0
230
1.0
 70
     8
 71
     3
 72
    11
 73
     7
 74
     0
 42
0.00000001
 43
0.00000001
 40
0.0
 40
0.0
 40
0.0
 40
0.0
 40
0.2499999999999873
 40
0.4999999999999751
 40
0.7499999999999891
 40
0.9999999999999999
 40
0.9999999999999999
 40
0.9999999999999999
 40
0.9999999999999999
 10
12.7610112757224
 20
3.404405741699373
 30
0.0
 10
12.75899684296354
 20
3.403941870990189
 30
0.0
 10
12.75496797744582
 20
3.40301412957182
 30
0.0
 10
12.74735685382575
 20
3.403221526184141
 30
0.0
 10
12.73977235113087
 20
3.404565897573106
 30
0.0
 10
12.73580604261111
 20
3.406309953934788
 30
0.0
 10
12.73382288835122
 20
3.407181982115628
 30
0.0
  0
SPLINE
  5
8A
330
1F
100
AcDbEntity
  8
0
  6
Continuous
 62
     7
370
    25
100
AcDbSpline
210
0.0
220
0.0
230
1.0
 70
     8
 71
     3
 72
    11
 73
     7
 74
     0
 42
0.00000001
 43
0.00000001
 40
0.0
 40
0.0
 40
0.0
 40
0.0
 40
0.2500000000000009
 40
0.5000000000000006
 40
0.7500000000000004
 40
1.0
 40
1.0
 40
1.0
 40
1.0
 10
13.35181058365657
 20
4.82081171320941
 30
0.0
 10
13.35189060213476
 20
4.823180747745188
 30
0.0
 10
13.35205063909116
 20
4.827918816816744
 30
0.0
 10
13.34976596184215
 20
4.835330024944659
 30
0.0
 10
13.3459881326766
 20
4.841821719580695
 30
0.0
 10
13.34263937893825
 20
4.844399003571876
 30
0.0
 10
13.34096500206906
 20
4.845687645567464
 30
0.0
  0
SPLINE
  5
8D
330
1F
100
AcDbEntity
  8
0
  6
Continuous
 62
     7
370
    25
100
AcDbSpline
210
0.0
220
0.0
230
1.0
 70
     8
 71
     3
 72
    11
 73
     7
 74
     0
 42
0.00000001
 43
0.00000001
 40
0.0
 40
0.0
 40
0.0
 40
0.0
 40
0.2500000000000003
 40
0.4999999999999989
 40
0.7499999999999994
 40
1.0
 40
1.0
 40
1.0
 40
1.0
 10
13.19373793435053
 20
3.506202490267302
 30
0.0
 10
13.19348001073316
 20
3.504773258879689
 30
0.0
 10
13.19296416349841
 20
3.501914796104461
 30
0.0
 10
13.19116782115775
 20
3.49850946046978
 30
0.0
 10
13.18877658860937
 20
3.495934928779404
 30
0.0
 10
13.18675842119203
 20
3.495174556571366
 30
0.0
 10
13.18574933748335
 20
3.494794370467347
 30
0.0
  0
LWPOLYLINE
  5
8F
330
1F
100
AcDbEntity
  8
0
  6
Continuous
 62
     7
370
    25
100
AcDbPolyline
 90
        8
 70
   128
 43
0.0
 10
13.8080811093
 20
4.4563137324
 10
13.8074160798
 20
4.4744782623
 10
13.7981045665
 20
4.5568024898
 10
13.7787715112
 20
4.6319486239
 10
13.7497760244
 20
4.6985208285
 10
13.7116566961
 20
4.7552825277
 10
13.6651215911
 20
4.8011793754
 10
13.6364236682
 20
4.8213650494
  0
SPLINE
  5
92
330
1F
100
AcDbEntity
  8
0
  6
Continuous
 62
     7
370
    25
100
AcDbSpline
210
0.0
220
0.0
230
1.0
 70
     8
 71
     3
 72
    11
 73
     7
 74
     0
 42
0.00000001
 43
0.00000001
 40
0.0
 40
0.0
 40
0.0
 40
0.0
 40
0.2500000000000003
 40
0.4999999999999989
 40
0.7499999999999994
 40
1.0
 40
1.0
 40
1.0
 40
1.0
 10
0.1276961276773536
 20
0.6725685974127696
 30
0.0
 10
0.1277916028982335
 20
0.6740883633775652
 30
0.0
 10
0.1279825533399913
 20
0.6771278953071561
 30
0.0
 10
0.1271759830868662
 20
0.681983867551437
 30
0.0
 10
0.1256619972757377
 20
0.6867348275760922
 30
0.0
 10
0.1240664589562157
 20
0.689509164390824
 30
0.0
 10
0.1232686897964541
 20
0.69089633279819
 30
0.0
  0
SPLINE
  5
93
330
1F
100
AcDbEntity
  8
0
  6
Continuous
 62
     7
370
    25
100
AcDbSpline
210
0.0
220
0.0
230
1.0
 70
     8
 71
     3
 72
    25
 73
    21
 74
     0
 42
0.00000001
 43
0.00000001
 40
0.0
 40
0.0
 40
0.0
 40
0.0
 40
0.0582607977422174
 40
0.1200009183462728
 40
0.1842998018127421
 40
0.2499588501952985
 40
0.3156178985778549
 40
0.3478039734658922
 40
0.3799990809880054
 40
0.4417392015920607
 40
0.4999999993342781
 40
0.5582607971206099
 40
0.6200009178610699
 40
0.6842998015459588
 40
0.7499588501957187
 40
0.8156178988454784
 40
0.8478039738504524
 40
0.8799990814732084
 40
0.9417392022136684
 40
1.0
 40
1.0
 40
1.0
 40
1.0
 10
0.1276961276773536
 20
0.6725685974127695
 30
0.0
 10
0.0951797998399947
 20
0.660233785080107
 30
0.0
 10
0.028205275752694
 20
0.6348275279585053
 30
0.0
 10
-0.0746977760396099
 20
0.5671842777039565
 30
0.0
 10
-0.1766698303844325
 20
0.4767436480290021
 30
0.0
 10
-0.2713925332838359
 20
0.3647783735210365
 30
0.0
 10
-0.3393024034507328
 20
0.2589565501974768
 30
0.0
 10
-0.3848552120124092
 20
0.1703636171356029
 30
0.0
 10
-0.4232492388040588
 20
0.082382138036392
 30
0.0
 10
-0.4587985163163604
 20
-0.0260388697657098
 30
0.0
 10
-0.4825602047227809
 20
-0.1513702496829251
 30
0.0
 10
-0.4882531037444415
 20
-0.2710516562575161
 30
0.0
 10
-0.4746706510037672
 20
-0.3845204150504372
 30
0.0
 10
-0.4397940024018481
 20
-0.4868025392260741
 30
0.0
 10
-0.3838498347283053
 20
-0.5703255963779016
 30
0.0
 10
-0.3217911190058915
 20
-0.6195396851452913
 30
0.0
 10
-0.2651176877457129
 20
-0.645298416809068
 30
0.0
 10
-0.2059315818099364
 20
-0.6612731035172197
 30
0.0
 10
-0.1282299824523629
 20
-0.6662336394688315
 30
0.0
 10
-0.0623577057917636
 20
-0.649947567233674
 30
0.0
 10
-0.0303765223361426
 20
-0.6420406314128935
 30
0.0
  0
SPLINE
  5
94
330
1F
100
AcDbEntity
  8
0
  6
Continuous
 62
     7
370
    25
100
AcDbSpline
210
0.0
220
0.0
230
1.0
 70
     8
 71
     3
 72
     9
 73
     5
 74
     0
 42
0.00000001
 43
0.00000001
 40
0.0
 40
0.0
 40
0.0
 40
0.0
 40
0.3251507011163815
 40
1.0
 40
1.0
 40
1.0
 40
1.0
 10
-0.0380548614848465
 20
-0.6529857379397105
 30
0.0
 10
-0.0387919463041354
 20
-0.6533028380628267
 30
0.0
 10
-0.0410588484413845
 20
-0.6542780785344825
 30
0.0
 10
-0.043706906289775
 20
-0.6531848235278049
 30
0.0
 10
-0.0454939462721642
 20
-0.6524470411530479
 30
0.0
  0
SPLINE
  5
96
330
1F
100
AcDbEntity
  8
0
  6
Continuous
 62
     7
370
    25
100
AcDbSpline
210
0.0
220
0.0
230
1.0
 70
     8
 71
     3
 72
     9
 73
     5
 74
     0
 42
0.00000001
 43
0.00000001
 40
0.0
 40
0.0
 40
0.0
 40
0.0
 40
0.5000000000000002
 40
1.0
 40
1.0
 40
1.0
 40
1.0
 10
0.1232686897964541
 20
0.69089633279819
 30
0.0
 10
0.1223009590934389
 20
0.6922450132437203
 30
0.0
 10
0.1203654976874075
 20
0.6949423741347809
 30
0.0
 10
0.1180036111652505
 20
0.6966046475842056
 30
0.0
 10
0.1168226679041725
 20
0.6974357843089181
 30
0.0
  0
LWPOLYLINE
  5
97
330
1F
100
AcDbEntity
  8
0
  6
Continuous
 62
     7
370
    25
100
AcDbPolyline
 90
       20
 70
   128
 43
0.0
 10
-0.0605517506
 20
0.8049964589
 10
-0.1361493552
 20
0.7749771333
 10
-0.2118455887
 20
0.7328336979
 10
-0.2862343825
 20
0.6793489731
 10
-0.3579339537
 20
0.6155164457
 10
-0.4256124721
 20
0.5425218143
 10
-0.4880127994
 20
0.4617209648
 10
-0.5439758403
 20
0.374614785
 10
-0.5924620729
 20
0.282821285
 10
-0.6325708585
 20
0.1880455427
 10
-0.6635571703
 20
0.0920480313
 10
-0.6848454332
 20
-0.0033880811
 10
-0.6960402143
 20
-0.0964900547
 10
-0.6969335692
 20
-0.1855285066
 10
-0.6875089034
 20
-0.2688495344
 10
-0.6679412817
 20
-0.3449054378
 10
-0.6385941754
 20
-0.4122834671
 10
-0.6000127115
 20
-0.4697320655
 10
-0.5529135461
 20
-0.5161841169
 10
-0.5007380902
 20
-0.5495084323
  0
SPLINE
  5
9A
330
1F
100
AcDbEntity
  8
0
  6
Continuous
 62
     7
370
    25
100
AcDbSpline
210
0.0
220
0.0
230
1.0
 70
     8
 71
     3
 72
    11
 73
     7
 74
     0
 42
0.00000001
 43
0.00000001
 40
0.0
 40
0.0
 40
0.0
 40
0.0
 40
0.2500000769494055
 40
0.50000015390817
 40
0.7500000769654218
 40
1.0
 40
1.0
 40
1.0
 40
1.0
 10
0.5362509316035209
 20
0.8007271605538966
 30
0.0
 10
0.5399109343378461
 20
0.8013658810415009
 30
0.0
 10
0.5472309398066333
 20
0.8026433220167334
 30
0.0
 10
0.5556432873259131
 20
0.7974325345043297
 30
0.0
 10
0.5608116143690435
 20
0.7878322724518005
 30
0.0
 10
0.5605523956601844
 20
0.7788543214713832
 30
0.0
 10
0.5604227863057609
 20
0.7743653459813776
 30
0.0
  0
SPLINE
  5
9C
330
1F
100
AcDbEntity
  8
0
  6
Continuous
 62
     7
370
    25
100
AcDbSpline
210
0.0
220
0.0
230
1.0
 70
     8
 71
     3
 72
    11
 73
     7
 74
     0
 42
0.00000001
 43
0.00000001
 40
0.0
 40
0.0
 40
0.0
 40
0.0
 40
0.2499999999999998
 40
0.4999999999999999
 40
0.7500000000000014
 40
1.0
 40
1.0
 40
1.0
 40
1.0
 10
0.5253906505122836
 20
0.8255985663106065
 30
0.0
 10
0.5270662585773442
 20
0.8243103036506478
 30
0.0
 10
0.5304174747074656
 20
0.8217337783307308
 30
0.0
 10
0.5341989869966268
 20
0.8152432077335823
 30
0.0
 10
0.5364873345248519
 20
0.8078331236275467
 30
0.0
 10
0.5363297325771696
 20
0.803095814911732
 30
0.0
 10
0.5362509316033286
 20
0.8007271605538249
 30
0.0
  0
SPLINE
  5
A0
330
1F
100
AcDbEntity
  8
0
  6
Continuous
 62
     7
370
    25
100
AcDbSpline
210
0.0
220
0.0
230
1.0
 70
     8
 71
     3
 72
    19
 73
    15
 74
     0
 42
0.00000001
 43
0.00000001
 40
0.0
 40
0.0
 40
0.0
 40
0.0
 40
0.1432023640628336
 40
0.2863477388060708
 40
0.3621402864791504
 40
0.4401406498762504
 40
0.5160069964894378
 40
0.5940751681938129
 40
0.6695210207956016
 40
0.7471103440695128
 40
0.8234403507731232
 40
0.9020468857971372
 40
0.9771664864259999
 40
1.0
 40
1.0
 40
1.0
 40
1.0
 10
0.0576043703146799
 20
0.4467700238642742
 30
0.0
 10
0.0187606185367022
 20
0.4159720234969169
 30
0.0
 10
-0.0589114266223285
 20
0.3543882792434223
 30
0.0
 10
-0.1414134881304373
 20
0.2411673010147593
 30
0.0
 10
-0.1944550460073241
 20
0.1410282815251453
 30
0.0
 10
-0.2266727459933917
 20
0.0603492101619544
 30
0.0
 10
-0.2495567201261043
 20
-0.0216563615213529
 30
0.0
 10
-0.2617500559582116
 20
-0.1012007776314495
 30
0.0
 10
-0.2629256892399567
 20
-0.1772451291757785
 30
0.0
 10
-0.2535032373096832
 20
-0.2467064401540185
 30
0.0
 10
-0.2336507764978734
 20
-0.3094232151799998
 30
0.0
 10
-0.2031925057504567
 20
-0.3605198636052367
 30
0.0
 10
-0.1742854017389129
 20
-0.3935514494846716
 30
0.0
 10
-0.1540198241196419
 20
-0.4049916015475
 30
0.0
 10
-0.1492957850176664
 20
-0.4076583760501894
 30
0.0
  0
SPLINE
  5
A1
330
1F
100
AcDbEntity
  8
0
  6
Continuous
 62
     7
370
    25
100
AcDbSpline
210
0.0
220
0.0
230
1.0
 70
     8
 71
     3
 72
    17
 73
    13
 74
     0
 42
0.00000001
 43
0.00000001
 40
0.0
 40
0.0
 40
0.0
 40
0.0
 40
0.0601025713506684
 40
0.1217929523076936
 40
0.1850747083351325
 40
0.2499516389846191
 40
0.3604263353493089
 40
0.4999482972448147
 40
0.6249599331663108
 40
0.7499753157290142
 40
0.8796447312990586
 40
1.0
 40
1.0
 40
1.0
 40
1.0
 10
1.410866629878091
 20
-0.5773855212018237
 30
0.0
 10
1.383204343108162
 20
-0.5568579005723935
 30
0.0
 10
1.327148978128268
 20
-0.515260353843092
 30
0.0
 10
1.24222457602811
 20
-0.4518557150027714
 30
0.0
 10
1.155334452325864
 20
-0.38670673166902
 30
0.0
 10
1.046449618409397
 20
-0.3046998299688509
 30
0.0
 10
0.9034359766814873
 20
-0.1963282144085602
 30
0.0
 10
0.734138888755886
 20
-0.0674158512176604
 30
0.0
 10
0.5593421625176621
 20
0.0660497197935235
 30
0.0
 10
0.3896701847996438
 20
0.195407611033182
 30
0.0
 10
0.2225163728821753
 20
0.3223902173163887
 30
0.0
 10
0.1111926615181936
 20
0.4063527034668343
 30
0.0
 10
0.057604371893653
 20
0.4467700231042965
 30
0.0
  0
SPLINE
  5
A2
330
1F
100
AcDbEntity
  8
0
  6
Continuous
 62
     7
370
    25
100
AcDbSpline
210
0.0
220
0.0
230
1.0
 70
     8
 71
     3
 72
    15
 73
    11
 74
     0
 42
0.00000001
 43
0.00000001
 40
-0.000000001066673
 40
-0.000000001066673
 40
-0.000000001066673
 40
-0.000000001066673
 40
0.0032767159156272
 40
0.0065534049544972
 40
0.0098300939933772
 40
0.0131067830322472
 40
0.0163834720711242
 40
0.0196601611099982
 40
0.0229368501488732
 40
0.0262135402544202
 40
0.0262135402544202
 40
0.0262135402544202
 40
0.0262135402544202
 10
1.299457666714245
 20
-1.504735015065606
 30
0.0
 10
1.294995016901059
 20
-1.470154857923247
 30
0.0
 10
1.288374265941464
 20
-1.3998102924375
 30
0.0
 10
1.285321375638106
 20
-1.290627398966485
 30
0.0
 10
1.289100540203572
 20
-1.177792977089453
 30
0.0
 10
1.299824182470087
 20
-1.060830209999368
 30
0.0
 10
1.31735697874593
 20
-0.9420081892198321
 30
0.0
 10
1.341690653983494
 20
-0.8209400606595233
 30
0.0
 10
1.372574304362264
 20
-0.6993046616047326
 30
0.0
 10
1.397451443123066
 20
-0.6180625245443727
 30
0.0
 10
1.410963115437511
 20
-0.5773990901024968
 30
0.0
  0
SPLINE
  5
A4
330
1F
100
AcDbEntity
  8
0
  6
Continuous
 62
     7
370
    25
100
AcDbSpline
210
0.0
220
0.0
230
1.0
 70
     8
 71
     3
 72
    14
 73
    10
 74
     0
 42
0.00000001
 43
0.00000001
 40
0.0
 40
0.0
 40
0.0
 40
0.0
 40
0.25
 40
0.25
 40
0.5
 40
0.5
 40
0.75
 40
0.75
 40
1.0
 40
1.0
 40
1.0
 40
1.0
 10
1.346650208786818
 20
-1.503940972960538
 30
0.0
 10
1.343775161566457
 20
-1.505839391537836
 30
0.0
 10
1.340082646065017
 20
-1.507622700959612
 30
0.0
 10
1.331488098047387
 20
-1.510228606682687
 30
0.0
 10
1.326600056810919
 20
-1.511026268695119
 30
0.0
 10
1.31703837647055
 20
-1.511187139699651
 30
0.0
 10
1.312412141046984
 20
-1.510549561877435
 30
0.0
 10
1.304718331821506
 20
-1.508217712863478
 30
0.0
 10
1.301655681247939
 20
-1.506548066984908
 30
0.0
 10
1.299457667793541
 20
-1.504735015561598
 30
0.0
  0
SPLINE
  5
A5
330
1F
100
AcDbEntity
  8
0
  6
Continuous
 62
     7
370
    25
100
AcDbSpline
210
0.0
220
0.0
230
1.0
 70
     8
 71
     3
 72
    15
 73
    11
 74
     0
 42
0.00000001
 43
0.00000001
 40
0.0000054023323537
 40
0.0000054023323537
 40
0.0000054023323537
 40
0.0000054023323537
 40
0.1248530553553
 40
0.2498750777961
 40
0.374897100237
 40
0.4999191226778
 40
0.6249411451187
 40
0.7499631675595
 40
0.8749851900004
 40
1.000000182835042
 40
1.000000182835042
 40
1.000000182835042
 40
1.000000182835042
 10
1.456228218412483
 20
-0.5926363445502173
 30
0.0
 10
1.454916799576212
 20
-0.592550044270538
 30
0.0
 10
1.451912210008685
 20
-0.5922242612499227
 30
0.0
 10
1.446300779171467
 20
-0.5911870460523624
 30
0.0
 10
1.439811704089383
 20
-0.5895706131160989
 30
0.0
 10
1.432877904708292
 20
-0.5874366795506677
 30
0.0
 10
1.426052261200892
 20
-0.5849394002453078
 30
0.0
 10
1.419870421577057
 20
-0.5822909624403754
 30
0.0
 10
1.414717646382643
 20
-0.579704635552559
 30
0.0
 10
1.412083044274486
 20
-0.5781317144443592
 30
0.0
 10
1.410962980876644
 20
-0.5773990493492501
 30
0.0
  0
SPLINE
  5
A6
330
1F
100
AcDbEntity
  8
0
  6
Continuous
 62
     7
370
    25
100
AcDbSpline
210
0.0
220
0.0
230
1.0
 70
     8
 71
     3
 72
    15
 73
    11
 74
     0
 42
0.00000001
 43
0.00000001
 40
-0.0000000000242643
 40
-0.0000000000242643
 40
-0.0000000000242643
 40
-0.0000000000242643
 40
0.003276689038874
 40
0.006553378077749
 40
0.009830067116623
 40
0.0131067561555
 40
0.01638344519437
 40
0.01966013423325
 40
0.02293682327212
 40
0.0262135123110031
 40
0.0262135123110031
 40
0.0262135123110031
 40
0.0262135123110031
 10
1.456228218567959
 20
-0.5926363441078529
 30
0.0
 10
1.442735697862944
 20
-0.6324844224246706
 30
0.0
 10
1.41785108543237
 20
-0.712076058228709
 30
0.0
 10
1.38690526799706
 20
-0.8312197609900426
 30
0.0
 10
1.362549830921942
 20
-0.9498721817501967
 30
0.0
 10
1.345165314468649
 20
-1.06646004640584
 30
0.0
 10
1.334804638035752
 20
-1.181433369360077
 30
0.0
 10
1.33154044183715
 20
-1.292575513814193
 30
0.0
 10
1.335129824453052
 20
-1.400287093390547
 30
0.0
 10
1.342059336034123
 20
-1.469772088732024
 30
0.0
 10
1.346650208787277
 20
-1.503940972960793
 30
0.0
  0
SPLINE
  5
A7
330
1F
100
AcDbEntity
  8
0
  6
Continuous
 62
     7
370
    25
100
AcDbSpline
210
0.0
220
0.0
230
1.0
 70
     8
 71
     3
 72
    17
 73
    13
 74
     0
 42
0.00000001
 43
0.00000001
 40
0.0
 40
0.0
 40
0.0
 40
0.0
 40
0.0422474851593053
 40
0.1281830020150739
 40
0.2511242538072689
 40
0.3729693234921003
 40
0.4958163153264255
 40
0.6192124624789688
 40
0.7426995731197982
 40
0.8682782189089654
 40
0.9331209072596168
 40
1.0
 40
1.0
 40
1.0
 40
1.0
 10
15.28174305505312
 20
2.867327376912538
 30
0.0
 10
15.28156082730901
 20
2.866805544487042
 30
0.0
 10
15.28100793051047
 20
2.865222253869939
 30
0.0
 10
15.27971621682038
 20
2.862145841560948
 30
0.0
 10
15.27765518596792
 20
2.858209235069901
 30
0.0
 10
15.27493017014958
 20
2.854116926407865
 30
0.0
 10
15.2718756157909
 20
2.850378530251772
 30
0.0
 10
15.26855347634432
 20
2.847060167182613
 30
0.0
 10
15.26502275515129
 20
2.844235969065672
 30
0.0
 10
15.26195532768917
 20
2.842399132023314
 30
0.0
 10
15.25943873611805
 20
2.841241809630804
 30
0.0
 10
15.25816124702181
 20
2.840807003325514
 30
0.0
 10
15.25751262755253
 20
2.840586239143808
 30
0.0
  0
SPLINE
  5
A9
330
1F
100
AcDbEntity
  8
0
  6
Continuous
 62
     7
370
    25
100
AcDbSpline
210
0.0
220
0.0
230
1.0
 70
     8
 71
     3
 72
    13
 73
     9
 74
     0
 42
0.00000001
 43
0.00000001
 40
-0.0000000000000018
 40
-0.0000000000000018
 40
-0.0000000000000018
 40
-0.0000000000000018
 40
0.0002537421589605
 40
0.000380613238445
 40
0.0005074843179295
 40
0.000634355397414
 40
0.0007612264768984
 40
0.0010149686358692
 40
0.0010149686358692
 40
0.0010149686358692
 40
0.0010149686358692
 10
1.34665039517897
 20
-1.503940849885862
 30
0.0
 10
1.347009701781258
 20
-1.506615087222639
 30
0.0
 10
1.348156582310957
 20
-1.510185736494922
 30
0.0
 10
1.350723476195176
 20
-1.513807484201237
 30
0.0
 10
1.353128569517211
 20
-1.515892331771164
 30
0.0
 10
1.355949789452264
 20
-1.517272603400179
 30
0.0
 10
1.360142908191323
 20
-1.518156708610442
 30
0.0
 10
1.363671703607623
 20
-1.517741886038795
 30
0.0
 10
1.366097225756848
 20
-1.516981030092343
 30
0.0
  0
SPLINE
  5
AA
330
1F
100
AcDbEntity
  8
0
  6
Continuous
 62
     7
370
    25
100
AcDbSpline
210
0.0
220
0.0
230
1.0
 70
     8
 71
     3
 72
    17
 73
    13
 74
     0
 42
0.00000001
 43
0.00000001
 40
0.0
 40
0.0
 40
0.0
 40
0.0
 40
0.0422474848473768
 40
0.128182999308399
 40
0.2511242424568393
 40
0.3729693068758503
 40
0.4958163006555776
 40
0.6192124527443877
 40
0.7426995674115423
 40
0.8682782160171815
 40
0.933120905745222
 40
1.0
 40
1.0
 40
1.0
 40
1.0
 10
1.456228218562985
 20
-0.5926363441057817
 30
0.0
 10
1.456410446328156
 20
-0.5921145117073716
 30
0.0
 10
1.456963343182999
 20
-0.5905312211941934
 30
0.0
 10
1.458255050635435
 20
-0.5874548056640956
 30
0.0
 10
1.460316083093542
 20
-0.5835182004348026
 30
0.0
 10
1.463041102414578
 20
-0.5794258940610496
 30
0.0
 10
1.466095615512579
 20
-0.5756874750304319
 30
0.0
 10
1.469417797141192
 20
-0.5723691354110652
 30
0.0
 10
1.472948514310062
 20
-0.569544934983236
 30
0.0
 10
1.476015934723443
 20
-0.5677080940137964
 30
0.0
 10
1.478532537717987
 20
-0.5665507780057992
 30
0.0
 10
1.479810026468155
 20
-0.5661159715121326
 30
0.0
 10
1.48045864576216
 20
-0.5658952072346286
 30
0.0
  0
SPLINE
  5
AC
330
1F
100
AcDbEntity
  8
0
  6
Continuous
 62
     7
370
    25
100
AcDbSpline
210
0.0
220
0.0
230
1.0
 70
     8
 71
     3
 72
    13
 73
     9
 74
     0
 42
0.00000001
 43
0.00000001
 40
-0.0000000000000488
 40
-0.0000000000000488
 40
-0.0000000000000488
 40
-0.0000000000000488
 40
0.0002537421591341
 40
0.0003806132386186
 40
0.0005074843181031
 40
0.0006343553975876
 40
0.0007612264770721
 40
0.0010149686360899
 40
0.0010149686360899
 40
0.0010149686360899
 40
0.0010149686360899
 10
15.39132087814353
 20
3.778631881785602
 30
0.0
 10
15.39096157154093
 20
3.781306119124912
 30
0.0
 10
15.38981469101092
 20
3.784876768399594
 30
0.0
 10
15.38724779712569
 20
3.788498516107619
 30
0.0
 10
15.38484270380371
 20
3.790583363677598
 30
0.0
 10
15.38202148386887
 20
3.791963635306744
 30
0.0
 10
15.37782836512928
 20
3.792847740517532
 30
0.0
 10
15.37429956971264
 20
3.792432917945559
 30
0.0
 10
15.37187404756322
 20
3.79167206199853
 30
0.0
  0
SPLINE
  5
AD
330
1F
100
AcDbEntity
  8
0
  6
Continuous
 62
     7
370
    25
100
AcDbSpline
210
0.0
220
0.0
230
1.0
 70
     8
 71
     3
 72
    15
 73
    11
 74
     0
 42
0.00000001
 43
0.00000001
 40
0.0000000000002205
 40
0.0000000000002205
 40
0.0000000000002205
 40
0.0000000000002205
 40
0.0032766890388139
 40
0.0065533780776839
 40
0.0098300671165639
 40
0.0131067561554339
 40
0.0163834451943109
 40
0.0196601342331849
 40
0.0229368232720599
 40
0.0262135123107135
 40
0.0262135123107135
 40
0.0262135123107135
 40
0.0262135123107135
 10
15.28174305505755
 20
2.867327376910517
 30
0.0
 10
15.29523305476612
 20
2.90716800989166
 30
0.0
 10
15.32007096380288
 20
2.986618056907193
 30
0.0
 10
15.35086019373672
 20
3.105113787156461
 30
0.0
 10
15.37511590290811
 20
3.222840712730274
 30
0.0
 10
15.39267626608439
 20
3.340072489441377
 30
0.0
 10
15.40306565304116
 20
3.454466067449254
 30
0.0
 10
15.40645359594532
 20
3.566541241494863
 30
0.0
 10
15.40285728660648
 20
3.674849500891809
 30
0.0
 10
15.39591279517947
 20
3.744456735477151
 30
0.0
 10
15.39132106453563
 20
3.778632004861817
 30
0.0
  0
SPLINE
  5
B2
330
1F
100
AcDbEntity
  8
0
  6
Continuous
 62
     7
370
    25
100
AcDbSpline
210
0.0
220
0.0
230
1.0
 70
     8
 71
     3
 72
    20
 73
    16
 74
     0
 42
0.00000001
 43
0.00000001
 40
0.0
 40
0.0
 40
0.0
 40
0.0
 40
0.0573013139503813
 40
0.1165828771560491
 40
0.1776279403596152
 40
0.2401986136391263
 40
0.3040513268853637
 40
0.3689537593582047
 40
0.4347042615462347
 40
0.5011547245391867
 40
0.6188519309614315
 40
0.7506469407801043
 40
0.8358275438092219
 40
0.9191732105987847
 40
1.0
 40
1.0
 40
1.0
 40
1.0
 10
1.410963112122959
 20
-0.5773990897369337
 30
0.0
 10
1.411476911334199
 20
-0.5760005387915913
 30
0.0
 10
1.412522265902835
 20
-0.5731551050341993
 30
0.0
 10
1.414442246926203
 20
-0.5688822263748848
 30
0.0
 10
1.416640242522244
 20
-0.5645605405439491
 30
0.0
 10
1.419132981399831
 20
-0.5602382348761789
 30
0.0
 10
1.421902654262076
 20
-0.5559625554614491
 30
0.0
 10
1.424939898055443
 20
-0.5517844622657805
 30
0.0
 10
1.428232013952949
 20
-0.5477572977469831
 30
0.0
 10
1.432663068828895
 20
-0.5429676698882492
 30
0.0
 10
1.438683910180352
 20
-0.5375710821820632
 30
0.0
 10
1.44543938172526
 20
-0.5328501119814931
 30
0.0
 10
1.451647136695579
 20
-0.5294611267476097
 30
0.0
 10
1.45685732278267
 20
-0.5271682447463271
 30
0.0
 10
1.46026218418853
 20
-0.5261786031919486
 30
0.0
 10
1.461938494710875
 20
-0.5256913743878339
 30
0.0
  0
SPLINE
  5
B3
330
1F
100
AcDbEntity
  8
0
  6
Continuous
 62
     7
370
    25
100
AcDbSpline
210
0.0
220
0.0
230
1.0
 70
     8
 71
     3
 72
    14
 73
    10
 74
     0
 42
0.00000001
 43
0.00000001
 40
0.0
 40
0.0
 40
0.0
 40
0.0
 40
0.25
 40
0.25
 40
0.5
 40
0.5
 40
0.75
 40
0.75
 40
1.0
 40
1.0
 40
1.0
 40
1.0
 10
1.48045864576216
 20
-0.5658952072346286
 30
0.0
 10
1.48086054013113
 20
-0.5625526240917482
 30
0.0
 10
1.480824872693176
 20
-0.5586754066015533
 30
0.0
 10
1.479521311901139
 20
-0.5504871607429805
 30
0.0
 10
1.478243233202672
 20
-0.5461937385674479
 30
0.0
 10
1.474608328010275
 20
-0.538303036779827
 30
0.0
 10
1.472263949391692
 20
-0.5347327255969575
 30
0.0
 10
1.467198724256514
 20
-0.5290955267888949
 30
0.0
 10
1.464495571698783
 20
-0.5270272771640401
 30
0.0
 10
1.461938494710916
 20
-0.5256913743874134
 30
0.0
  0
SPLINE
  5
B4
330
1F
100
AcDbEntity
  8
0
  6
Continuous
 62
     7
370
    25
100
AcDbSpline
210
0.0
220
0.0
230
1.0
 70
     8
 71
     3
 72
     8
 73
     4
 74
     0
 42
0.00000001
 43
0.00000001
 40
0.0
 40
0.0
 40
0.0
 40
0.0
 40
1.0
 40
1.0
 40
1.0
 40
1.0
 10
1.461938494710875
 20
-0.5256913743878339
 30
0.0
 10
0.9989172104332023
 20
-0.1990959520764579
 30
0.0
 10
0.5337137477308614
 20
0.1270689358793799
 30
0.0
 10
0.0720502727830326
 20
0.4539315490494207
 30
0.0
  0
SPLINE
  5
B5
330
1F
100
AcDbEntity
  8
0
  6
Continuous
 62
     7
370
    25
100
AcDbSpline
210
0.0
220
0.0
230
1.0
 70
     8
 71
     3
 72
    23
 73
    19
 74
     0
 42
0.00000001
 43
0.00000001
 40
0.0
 40
0.0
 40
0.0
 40
0.0
 40
0.0001242230438791
 40
0.0001242230438791
 40
0.0001242230438791
 40
0.0002484447304824
 40
0.0002484447304824
 40
0.0002484447304824
 40
0.0003104878287851
 40
0.0003104878287851
 40
0.0003104878287851
 40
0.0003725306965548
 40
0.0003725306965548
 40
0.0003725306965548
 40
0.0004383905918636
 40
0.0004383905918636
 40
0.0004383905918636
 40
0.0005043579025146
 40
0.0005043579025146
 40
0.0005043579025146
 40
0.0005043579025146
 10
0.05760435386211
 20
0.446770133616838
 30
0.0
 10
0.0587791193116273
 20
0.4475673818014591
 30
0.0
 10
0.0599621150551194
 20
0.4483159012154723
 30
0.0
 10
0.0611480860681534
 20
0.4490129996527658
 30
0.0
 10
0.06233404717768
 20
0.449710092268905
 30
0.0
 10
0.0635247288213649
 20
0.4503567878372581
 30
0.0
 10
0.0647149497784788
 20
0.4509499336821056
 30
0.0
 10
0.0653097365440743
 20
0.4512463452823841
 30
0.0
 10
0.0659047306835002
 20
0.4515295308965149
 30
0.0
 10
0.0664992824278511
 20
0.4517992839120306
 30
0.0
 10
0.067093832788004
 20
0.4520690362995248
 30
0.0
 10
0.0676881567488826
 20
0.4523254552510413
 30
0.0
 10
0.0682816136418214
 20
0.4525683105184051
 30
0.0
 10
0.0689115672573127
 20
0.4528261010260857
 30
0.0
 10
0.0695407925827958
 20
0.4530687101863267
 30
0.0
 10
0.0701685233989027
 20
0.4532958231656543
 30
0.0
 10
0.0707972769355683
 20
0.4535233061652308
 30
0.0
 10
0.0714247881403502
 20
0.4537353355138103
 30
0.0
 10
0.0720502750613272
 20
0.4539315478591845
 30
0.0
  0
SPLINE
  5
B6
330
1F
100
AcDbEntity
  8
0
  6
Continuous
 62
     7
370
    25
100
AcDbSpline
210
0.0
220
0.0
230
1.0
 70
     8
 71
     3
 72
    14
 73
    10
 74
     0
 42
0.00000001
 43
0.00000001
 40
0.0
 40
0.0
 40
0.0
 40
0.0
 40
0.25
 40
0.25
 40
0.5
 40
0.5
 40
0.75
 40
0.75
 40
1.0
 40
1.0
 40
1.0
 40
1.0
 10
15.35335511038459
 20
3.831876275616572
 30
0.0
 10
15.35591208742161
 20
3.830540341864422
 30
0.0
 10
15.3586151265154
 20
3.828472058040336
 30
0.0
 10
15.36368011367543
 20
3.822834781069281
 30
0.0
 10
15.36602436979562
 20
3.819264434555841
 30
0.0
 10
15.36965903764585
 20
3.81137365612024
 30
0.0
 10
15.37093701587963
 20
3.807080198533642
 30
0.0
 10
15.37224039160476
 20
3.798891904464949
 30
0.0
 10
15.37227599460934
 20
3.795014654901825
 30
0.0
 10
15.37187404756321
 20
3.79167206199853
 30
0.0
  0
SPLINE
  5
BA
330
1F
100
AcDbEntity
  8
0
  6
Continuous
 62
     7
370
    25
100
AcDbSpline
210
0.0
220
0.0
230
1.0
 70
     8
 71
     3
 72
    60
 73
    56
 74
     0
 42
0.00000001
 43
0.00000001
 40
0.0
 40
0.0
 40
0.0
 40
0.0
 40
0.0229745899249768
 40
0.0458036358909
 40
0.0684830555141521
 40
0.0910088823485551
 40
0.1133773935781073
 40
0.1355852639717018
 40
0.1576311632959081
 40
0.1795158915337737
 40
0.2012402317231379
 40
0.2228048852811901
 40
0.2442105532483869
 40
0.2654579878210965
 40
0.2865475391780777
 40
0.3074789981124392
 40
0.3282520589657752
 40
0.348866415165634
 40
0.3693218267940999
 40
0.3896181832609606
 40
0.4097555776377352
 40
0.4297341282772242
 40
0.4495538692501898
 40
0.4692148050135168
 40
0.4887169641412121
 40
0.508060446607315
 40
0.5272454092778782
 40
0.5462718992123149
 40
0.5651398754948747
 40
0.5838492665248441
 40
0.6024000132921252
 40
0.6207921073979423
 40
0.6390256169049425
 40
0.6571005674887549
 40
0.6750168493258932
 40
0.6927742958046459
 40
0.7103727224181318
 40
0.7278119594470567
 40
0.7450918804443064
 40
0.7622124478620514
 40
0.7791739504040942
 40
0.795976821776284
 40
0.812621443608385
 40
0.8291081658727825
 40
0.8454373284774803
 40
0.8616092799203053
 40
0.8776243920298961
 40
0.8934826365625825
 40
0.9091829104134934
 40
0.9247239525301897
 40
0.9401045349888577
 40
0.9553234847312426
 40
0.9703797021420724
 40
0.9852721767100225
 40
1.0
 40
1.0
 40
1.0
 40
1.0
 10
1.656163556551886
 20
-0.1666918857184402
 30
0.0
 10
1.658576584836889
 20
-0.1678951167981449
 30
0.0
 10
1.663387354879864
 20
-0.1702939564922324
 30
0.0
 10
1.670897531951286
 20
-0.1737689797981864
 30
0.0
 10
1.67857493701422
 20
-0.1771355050920195
 30
0.0
 10
1.686427512526056
 20
-0.1803830453128882
 30
0.0
 10
1.694433995404915
 20
-0.1835110424794943
 30
0.0
 10
1.702581825661858
 20
-0.1865165223336115
 30
0.0
 10
1.71085651897649
 20
-0.1893978751965139
 30
0.0
 10
1.719243978489731
 20
-0.1921542783536917
 30
0.0
 10
1.727730942289201
 20
-0.1947850767889351
 30
0.0
 10
1.736304602661161
 20
-0.1972897416867434
 30
0.0
 10
1.74495256792144
 20
-0.1996678690159067
 30
0.0
 10
1.753662890211821
 20
-0.2019190560996257
 30
0.0
 10
1.762423429201558
 20
-0.2040433594236536
 30
0.0
 10
1.771221998920117
 20
-0.2060412793403565
 30
0.0
 10
1.780046904897621
 20
-0.2079132933984287
 30
0.0
 10
1.788886876287082
 20
-0.2096599659122015
 30
0.0
 10
1.797731076628412
 20
-0.2112819481219269
 30
0.0
 10
1.806569145415048
 20
-0.2127798778442495
 30
0.0
 10
1.815390929544784
 20
-0.2141548248245665
 30
0.0
 10
1.824186532924089
 20
-0.2154083884372331
 30
0.0
 10
1.832946557253119
 20
-0.216542108943144
 30
0.0
 10
1.841662002131358
 20
-0.2175575781695174
 30
0.0
 10
1.850324271825621
 20
-0.2184564183184568
 30
0.0
 10
1.85892515891223
 20
-0.2192402463819589
 30
0.0
 10
1.867456781042855
 20
-0.2199108294889206
 30
0.0
 10
1.875911625211039
 20
-0.2204704967226253
 30
0.0
 10
1.884282563649359
 20
-0.2209215051552043
 30
0.0
 10
1.89256283073885
 20
-0.2212661257747321
 30
0.0
 10
1.90074601623909
 20
-0.2215066136610848
 30
0.0
 10
1.908826068017896
 20
-0.2216452404663137
 30
0.0
 10
1.916797216107221
 20
-0.221684193557701
 30
0.0
 10
1.924654152121796
 20
-0.2216260736773001
 30
0.0
 10
1.93239200612788
 20
-0.2214736998638045
 30
0.0
 10
1.940006187028738
 20
-0.221229796232082
 30
0.0
 10
1.947492414836373
 20
-0.2208970681162442
 30
0.0
 10
1.954846700472852
 20
-0.2204781776681863
 30
0.0
 10
1.962065361127945
 20
-0.219975768034145
 30
0.0
 10
1.969144981878094
 20
-0.219392390153869
 30
0.0
 10
1.976082730939015
 20
-0.2187308529616075
 30
0.0
 10
1.982876261596242
 20
-0.2179940766244678
 30
0.0
 10
1.989523455755988
 20
-0.2171848851252895
 30
0.0
 10
1.996022431528784
 20
-0.216306060313208
 30
0.0
 10
2.002371522668533
 20
-0.2153603277275439
 30
0.0
 10
2.00856928397031
 20
-0.2143503674707879
 30
0.0
 10
2.014614399057499
 20
-0.2132787997423588
 30
0.0
 10
2.020505654959014
 20
-0.2121483064172293
 30
0.0
 10
2.026242338338153
 20
-0.2109619163502705
 30
0.0
 10
2.031823792651748
 20
-0.209722598609842
 30
0.0
 10
2.037249296274705
 20
-0.2084331304556114
 30
0.0
 10
2.042519218262355
 20
-0.2070966857121697
 30
0.0
 10
2.047630764501045
 20
-0.205714618230363
 30
0.0
 10
2.052593588195043
 20
-0.2042946210098121
 30
0.0
 10
2.055797363517411
 20
-0.2033065476883407
 30
0.0
 10
2.057390346715452
 20
-0.2028152572446735
 30
0.0
  0
SPLINE
  5
BC
330
1F
100
AcDbEntity
  8
0
  6
Continuous
 62
     7
370
    25
100
AcDbSpline
210
0.0
220
0.0
230
1.0
 70
     8
 71
     3
 72
    42
 73
    38
 74
     0
 42
0.00000001
 43
0.00000001
 40
0.0
 40
0.0
 40
0.0
 40
0.0
 40
0.0223670209379481
 40
0.0451105616500161
 40
0.0682273676757014
 40
0.0917137378900666
 40
0.1155656553879228
 40
0.1397790937692175
 40
0.1643527180707587
 40
0.1892875123442974
 40
0.2145844310319244
 40
0.2402444515651015
 40
0.2662687310355553
 40
0.2926579870895189
 40
0.319411919323642
 40
0.3465299132754102
 40
0.374011312956082
 40
0.4018557595112488
 40
0.4300635416797698
 40
0.4586348420604424
 40
0.4875696579365987
 40
0.5168681305227898
 40
0.5465306813275566
 40
0.5765573883600466
 40
0.6069480270297212
 40
0.6377024886713158
 40
0.6688209209322831
 40
0.700302857372786
 40
0.7321472931399563
 40
0.7643532702053487
 40
0.7969218507033692
 40
0.8298560123486066
 40
0.8631588263183404
 40
0.8968332516477456
 40
0.9308738152694048
 40
0.9652675367067772
 40
1.0
 40
1.0
 40
1.0
 40
1.0
 10
14.43238387175698
 20
3.679068979758443
 30
0.0
 10
14.43476466799313
 20
3.679835162631402
 30
0.0
 10
14.43956633808075
 20
3.681380426071789
 30
0.0
 10
14.44651072585504
 20
3.683876130844481
 30
0.0
 10
14.45331753265619
 20
3.686528666517899
 30
0.0
 10
14.45994130598277
 20
3.689351908610115
 30
0.0
 10
14.46636421044936
 20
3.692344449111595
 30
0.0
 10
14.47255915188393
 20
3.695508978639331
 30
0.0
 10
14.47850227843438
 20
3.698846243452194
 30
0.0
 10
14.48417045681189
 20
3.702356532352332
 30
0.0
 10
14.48953963229077
 20
3.706039938468012
 30
0.0
 10
14.49458496508866
 20
3.709896127271454
 30
0.0
 10
14.49928019880459
 20
3.713924416549156
 30
0.0
 10
14.50359968733383
 20
3.718123096103859
 30
0.0
 10
14.50751905770335
 20
3.722489333569801
 30
0.0
 10
14.51101263439533
 20
3.727019833809407
 30
0.0
 10
14.51405418431763
 20
3.731710672275179
 30
0.0
 10
14.51661604955212
 20
3.73655742515068
 30
0.0
 10
14.51867393718471
 20
3.741554306757114
 30
0.0
 10
14.52020420138848
 20
3.746694753633439
 30
0.0
 10
14.52118255584182
 20
3.75197153259166
 30
0.0
 10
14.52158366754307
 20
3.757376691816568
 30
0.0
 10
14.52138437612078
 20
3.762901152151747
 30
0.0
 10
14.52056472781108
 20
3.768534751468156
 30
0.0
 10
14.51910407377948
 20
3.774266550992998
 30
0.0
 10
14.51698123276825
 20
3.78008469221507
 30
0.0
 10
14.51417728622391
 20
3.785976211367801
 30
0.0
 10
14.51067856357295
 20
3.791927171815626
 30
0.0
 10
14.50647100297137
 20
3.797922710163622
 30
0.0
 10
14.50154041496686
 20
3.803946987103607
 30
0.0
 10
14.49587547888737
 20
3.809983407247731
 30
0.0
 10
14.48946981749694
 20
3.816015082653657
 30
0.0
 10
14.48231592549645
 20
3.822023839996378
 30
0.0
 10
14.4744119275292
 20
3.827991096619415
 30
0.0
 10
14.46574654605306
 20
3.833891721093417
 30
0.0
 10
14.45638340722462
 20
3.839720116758488
 30
0.0
 10
14.4495763029698
 20
3.843482149481418
 30
0.0
 10
14.4461560722774
 20
3.8453723834639
 30
0.0
  0
SPLINE
  5
BF
330
1F
100
AcDbEntity
  8
0
  6
Continuous
 62
     7
370
    25
100
AcDbSpline
210
0.0
220
0.0
230
1.0
 70
     8
 71
     3
 72
     8
 73
     4
 74
     0
 42
0.00000001
 43
0.00000001
 40
0.0
 40
0.0
 40
0.0
 40
0.0
 40
1.0
 40
1.0
 40
1.0
 40
1.0
 10
13.35717885745703
 20
4.621314049953981
 30
0.0
 10
14.02374792909271
 20
4.358728012264462
 30
0.0
 10
14.6877644081705
 20
4.094928178315543
 30
0.0
 10
15.35335511038454
 20
3.831876275616243
 30
0.0
  0
SPLINE
  5
13C
330
1F
100
AcDbEntity
  8
0
  6
Continuous
 62
     7
370
    25
100
AcDbSpline
210
0.0
220
0.0
230
1.0
 70
     8
 71
     3
 72
    10
 73
     6
 74
     0
 42
0.00000001
 43
0.00000001
 40
0.0
 40
0.0
 40
0.0
 40
0.0
 40
0.5
 40
0.5
 40
1.0
 40
1.0
 40
1.0
 40
1.0
 10
14.42019331232988
 20
3.809917594985711
 30
0.0
 10
14.42094203406299
 20
3.817385014257585
 30
0.0
 10
14.42417584882754
 20
3.825552267509456
 30
0.0
 10
14.43378798213285
 20
3.838678010393898
 30
0.0
 10
14.44010716572738
 20
3.84355578243851
 30
0.0
 10
14.44615607228126
 20
3.845372383502394
 30
0.0
  0
SPLINE
  5
13E
330
1F
100
AcDbEntity
  8
0
  6
Continuous
 62
     7
370
    25
100
AcDbSpline
210
0.0
220
0.0
230
1.0
 70
     8
 71
     3
 72
    23
 73
    19
 74
     0
 42
0.00000001
 43
0.00000001
 40
0.0
 40
0.0
 40
0.0
 40
0.0
 40
0.0000620783911994
 40
0.0000620783911994
 40
0.0000620783911994
 40
0.0001241566155117
 40
0.0001241566155117
 40
0.0001241566155117
 40
0.0002484479935476
 40
0.0002484479935476
 40
0.0002484479935476
 40
0.0003105262903266
 40
0.0003105262903266
 40
0.0003105262903266
 40
0.0003726044307518
 40
0.0003726044307518
 40
0.0003726044307518
 40
0.0005046199257778
 40
0.0005046199257778
 40
0.0005046199257778
 40
0.0005046199257778
 10
13.35717885716341
 20
4.621314050107376
 30
0.0
 10
13.35776715850442
 20
4.621498584182412
 30
0.0
 10
13.35835388743132
 20
4.621669194385468
 30
0.0
 10
13.35893841772985
 20
4.62182578359581
 30
0.0
 10
13.35952294701888
 20
4.621982372535719
 30
0.0
 10
13.36010548925241
 20
4.6221249971637
 30
0.0
 10
13.36068541969293
 20
4.622253526881246
 30
0.0
 10
13.3618459105378
 20
4.622510725934933
 30
0.0
 10
13.36299721061325
 20
4.622711766708013
 30
0.0
 10
13.36413419564257
 20
4.62285518658536
 30
0.0
 10
13.36470238125621
 20
4.622926857811381
 30
0.0
 10
13.36526729539419
 20
4.622984164402136
 30
0.0
 10
13.36582833982959
 20
4.623027126366216
 30
0.0
 10
13.36638938336135
 20
4.623070088261098
 30
0.0
 10
13.3669467619851
 20
4.623098722166238
 30
0.0
 10
13.36749987568355
 20
4.623113018754761
 30
0.0
 10
13.36867537433567
 20
4.623143402418352
 30
0.0
 10
13.36983304501685
 20
4.623109071842743
 30
0.0
 10
13.37096691582296
 20
4.623009421667532
 30
0.0
  0
SPLINE
  5
13F
330
1F
100
AcDbEntity
  8
0
  6
Continuous
 62
     7
370
    25
100
AcDbSpline
210
0.0
220
0.0
230
1.0
 70
     8
 71
     3
 72
     9
 73
     5
 74
     0
 42
0.00000001
 43
0.00000001
 40
0.0
 40
0.0
 40
0.0
 40
0.0
 40
0.3363038734268407
 40
0.9999999999999999
 40
0.9999999999999999
 40
0.9999999999999999
 40
0.9999999999999999
 10
13.44797361252416
 20
4.599469352345442
 30
0.0
 10
13.44018001380691
 20
4.603880039839884
 30
0.0
 10
13.4170057380014
 20
4.616995224775164
 30
0.0
 10
13.38933309601678
 20
4.620610108479349
 30
0.0
 10
13.37096687071954
 20
4.62300929279183
 30
0.0
  0
SPLINE
  5
145
330
1F
100
AcDbEntity
  8
0
  6
Continuous
 62
     7
370
    25
100
AcDbSpline
210
0.0
220
0.0
230
1.0
 70
     8
 71
     3
 72
    15
 73
    11
 74
     0
 42
0.00000001
 43
0.00000001
 40
0.0
 40
0.0
 40
0.0
 40
0.0
 40
0.1325900471794264
 40
0.2793627481806724
 40
0.4292402478076565
 40
0.5791177474346418
 40
0.652587719110353
 40
0.7260783092110371
 40
0.8670102159861152
 40
1.0
 40
1.0
 40
1.0
 40
1.0
 10
13.80578501418604
 20
4.452618705303931
 30
0.0
 10
13.80279521730223
 20
4.48905450925536
 30
0.0
 10
13.79649581631601
 20
4.565823516738021
 30
0.0
 10
13.76092565116248
 20
4.665406907479897
 30
0.0
 10
13.70536749993939
 20
4.749142774214212
 30
0.0
 10
13.64321505424798
 20
4.798305189962106
 30
0.0
 10
13.58655359791737
 20
4.824070523364642
 30
0.0
 10
13.52736462659654
 20
4.840043630395564
 30
0.0
 10
13.44966434175796
 20
4.845004891037119
 30
0.0
 10
13.38379186497812
 20
4.82871870847689
 30
0.0
 10
13.35181058436402
 20
4.820811719092965
 30
0.0
  0
SPLINE
  5
147
330
1F
100
AcDbEntity
  8
0
  6
Continuous
 62
     7
370
    25
100
AcDbSpline
210
0.0
220
0.0
230
1.0
 70
     8
 71
     3
 72
    10
 73
     6
 74
     0
 42
0.00000001
 43
0.00000001
 40
0.0
 40
0.0
 40
0.0
 40
0.0
 40
0.2057796403589309
 40
0.6028898201794676
 40
1.0
 40
1.0
 40
1.0
 40
1.0
 10
12.77751404060184
 20
3.367101632486798
 30
0.0
 10
12.77834530731697
 20
3.367297364629796
 30
0.0
 10
12.78078073892493
 20
3.367870817456756
 30
0.0
 10
12.78376476789427
 20
3.371671569494948
 30
0.0
 10
12.78471034291423
 20
3.375919807915942
 30
0.0
 10
12.78518313042421
 20
3.378043927126439
 30
0.0
  0
SPLINE
  5
148
330
1F
100
AcDbEntity
  8
0
  6
Continuous
 62
     7
370
    25
100
AcDbSpline
210
0.0
220
0.0
230
1.0
 70
     8
 71
     3
 72
    10
 73
     6
 74
     0
 42
0.00000001
 43
0.00000001
 40
0.0
 40
0.0
 40
0.0
 40
0.0
 40
0.2353990871877936
 40
0.6176728772097698
 40
1.0
 40
1.0
 40
1.0
 40
1.0
 10
12.74965388574309
 20
3.369201190598305
 30
0.0
 10
12.74695967616993
 20
3.370406586670716
 30
0.0
 10
12.73989023423307
 20
3.373569472598263
 30
0.0
 10
12.73352650106261
 20
3.387115136755702
 30
0.0
 10
12.73372408799441
 20
3.400492722622669
 30
0.0
 10
12.73382288835139
 20
3.407181982115682
 30
0.0
  0
SPLINE
  5
149
330
1F
100
AcDbEntity
  8
0
  6
Continuous
 62
     7
370
    25
100
AcDbSpline
210
0.0
220
0.0
230
1.0
 70
     8
 71
     3
 72
    10
 73
     6
 74
     0
 42
0.00000001
 43
0.00000001
 40
0.0
 40
0.0
 40
0.0
 40
0.0
 40
0.3971109877413767
 40
0.7942219754827512
 40
1.0
 40
1.0
 40
1.0
 40
1.0
 10
-0.0303765216286857
 20
-0.6420406255293386
 30
0.0
 10
-0.0308505415639011
 20
-0.6441651165540094
 30
0.0
 10
-0.0317985814343309
 20
-0.6484140986033512
 30
0.0
 10
-0.0347856916356875
 20
-0.6522157833993345
 30
0.0
 10
-0.0372229698869727
 20
-0.6527898109177331
 30
0.0
 10
-0.0380548614848465
 20
-0.6529857379397105
 30
0.0
  0
LWPOLYLINE
  5
14A
330
1F
100
AcDbEntity
  8
0
  6
Continuous
 62
     7
370
    25
100
AcDbPolyline
 90
       20
 70
   128
 43
0.0
 10
0.1168226694
 20
0.6974357945
 10
0.042129659
 20
0.6677753181
 10
-0.0326607615
 20
0.6261358916
 10
-0.1061593632
 20
0.5732909654
 10
-0.1770009128
 20
0.5102221317
 10
-0.2438695316
 20
0.4381008915
 10
-0.3055231379
 20
0.3582668935
 10
-0.3608165186
 20
0.2722030508
 10
-0.4087226017
 20
0.1815079955
 10
-0.4483515337
 20
0.0878663844
 10
-0.478967209
 20
-0.0069823938
 10
-0.5000009427
 20
-0.101276527
 10
-0.5110620341
 20
-0.193264506
 10
-0.5119450239
 20
-0.281237658
 10
-0.5026335107
 20
-0.3635618855
 10
-0.4833004553
 20
-0.4387080196
 10
-0.4543049686
 20
-0.5052802241
 10
-0.4161856402
 20
-0.5620419233
 10
-0.3696505352
 20
-0.607938771
 10
-0.3180961226
 20
-0.640866907
  0
SPLINE
  5
14D
330
1F
100
AcDbEntity
  8
0
  6
Continuous
 62
     7
370
    25
100
AcDbSpline
210
0.0
220
0.0
230
1.0
 70
     8
 71
     3
 72
     9
 73
     5
 74
     0
 42
0.00000001
 43
0.00000001
 40
0.0
 40
0.0
 40
0.0
 40
0.0
 40
0.6313063978790079
 40
0.9999999999999999
 40
0.9999999999999999
 40
0.9999999999999999
 40
0.9999999999999999
 10
0.5253906505123
 20
0.8255985663107515
 30
0.0
 10
0.5310819719516897
 20
0.8267894212102276
 30
0.0
 10
0.5400971212650987
 20
0.8286757554901859
 30
0.0
 10
0.546362226749503
 20
0.8240970129902796
 30
0.0
 10
0.548672131058216
 20
0.8224088599248048
 30
0.0
  0
SPLINE
  5
14E
330
1F
100
AcDbEntity
  8
0
  6
Continuous
 62
     7
370
    25
100
AcDbSpline
210
0.0
220
0.0
230
1.0
 70
     8
 71
     3
 72
     9
 73
     5
 74
     0
 42
0.00000001
 43
0.00000001
 40
0.0
 40
0.0
 40
0.0
 40
0.0
 40
0.5077522368849087
 40
1.0
 40
1.0
 40
1.0
 40
1.0
 10
0.5604227863041229
 20
0.7743653459814557
 30
0.0
 10
0.5620907127365493
 20
0.7750391992128622
 30
0.0
 10
0.5653756346162828
 20
0.7763663292232406
 30
0.0
 10
0.5661083458590872
 20
0.7784506902493556
 30
0.0
 10
0.5664690213293668
 20
0.7794767123019852
 30
0.0
  0
SPLINE
  5
14F
330
1F
100
AcDbEntity
  8
0
  6
Continuous
 62
     7
370
    25
100
AcDbSpline
210
0.0
220
0.0
230
1.0
 70
     8
 71
     3
 72
    10
 73
     6
 74
     0
 42
0.00000001
 43
0.00000001
 40
0.0
 40
0.0
 40
0.0
 40
0.0
 40
0.179145859075683
 40
0.5895729295378402
 40
1.0
 40
1.0
 40
1.0
 40
1.0
 10
1.353820833895351
 20
-1.534345398111053
 30
0.0
 10
1.354990687459725
 20
-1.534132551802969
 30
0.0
 10
1.358840701055556
 20
-1.533432069960713
 30
0.0
 10
1.363714044922584
 20
-1.527444114429044
 30
0.0
 10
1.365302832145675
 20
-1.520468724871382
 30
0.0
 10
1.366097225757219
 20
-1.516981030092551
 30
0.0
  0
SPLINE
  5
150
330
1F
100
AcDbEntity
  8
0
  6
Continuous
 62
     7
370
    25
100
AcDbSpline
210
0.0
220
0.0
230
1.0
 70
     8
 71
     3
 72
     9
 73
     5
 74
     0
 42
0.00000001
 43
0.00000001
 40
0.0
 40
0.0
 40
0.0
 40
0.0
 40
0.4595104526075037
 40
0.9999999999999999
 40
0.9999999999999999
 40
0.9999999999999999
 40
0.9999999999999999
 10
1.31206012770264
 20
-1.527616972175992
 30
0.0
 10
1.309153626903306
 20
-1.525048237934506
 30
0.0
 10
1.302828415403019
 20
-1.519458083832659
 30
0.0
 10
1.30064031382506
 20
-1.509900688071044
 30
0.0
 10
1.299457667793541
 20
-1.504735015561598
 30
0.0
  0
SPLINE
  5
151
330
1F
100
AcDbEntity
  8
0
  6
Continuous
 62
     7
370
    25
100
AcDbSpline
210
0.0
220
0.0
230
1.0
 70
     8
 71
     3
 72
    10
 73
     6
 74
     0
 42
0.00000001
 43
0.00000001
 40
0.0
 40
0.0
 40
0.0
 40
0.0
 40
0.412704785152555
 40
0.825409570305118
 40
0.9999999999999999
 40
0.9999999999999999
 40
0.9999999999999999
 40
0.9999999999999999
 10
15.25751262755556
 20
2.840586239142119
 30
0.0
 10
15.25671824406938
 20
2.837099859627549
 30
0.0
 10
15.25512947709703
 20
2.830127100598408
 30
0.0
 10
15.25028899496174
 20
2.824158167655241
 30
0.0
 10
15.24647765270246
 20
2.823458533395219
 30
0.0
 10
15.24534462136501
 20
2.823250546946499
 30
0.0
  0
SPLINE
  5
152
330
1F
100
AcDbEntity
  8
0
  6
Continuous
 62
     7
370
    25
100
AcDbSpline
210
0.0
220
0.0
230
1.0
 70
     8
 71
     3
 72
     9
 73
     5
 74
     0
 42
0.00000001
 43
0.00000001
 40
0.0
 40
0.0
 40
0.0
 40
0.0
 40
0.423441758128251
 40
1.0
 40
1.0
 40
1.0
 40
1.0
 10
2.043503716180235
 20
-0.202407950382904
 30
0.0
 10
2.045307371676029
 20
-0.2015922472159937
 30
0.0
 10
2.049566884256384
 20
-0.1996658827248866
 30
0.0
 10
2.054529252437558
 20
-0.2016635092473049
 30
0.0
 10
2.057390346711618
 20
-0.2028152572829869
 30
0.0
  0
SPLINE
  5
153
330
1F
100
AcDbEntity
  8
0
  6
Continuous
 62
     7
370
    25
100
AcDbSpline
210
0.0
220
0.0
230
1.0
 70
     8
 71
     3
 72
     9
 73
     5
 74
     0
 42
0.00000001
 43
0.00000001
 40
0.0
 40
0.0
 40
0.0
 40
0.0
 40
0.4124424260566621
 40
1.0
 40
1.0
 40
1.0
 40
1.0
 10
1.669163217500824
 20
-0.1687297223579866
 30
0.0
 10
1.667692392532179
 20
-0.1676255173474251
 30
0.0
 10
1.664126258507829
 20
-0.1649482830456128
 30
0.0
 10
1.659110565166445
 20
-0.1660465755856513
 30
0.0
 10
1.656163556555138
 20
-0.1666918856859566
 30
0.0
  0
SPLINE
  5
154
330
1F
100
AcDbEntity
  8
0
  6
Continuous
 62
     7
370
    25
100
AcDbSpline
210
0.0
220
0.0
230
1.0
 70
     8
 71
     3
 72
     9
 73
     5
 74
     0
 42
0.00000001
 43
0.00000001
 40
0.0
 40
0.0
 40
0.0
 40
0.0
 40
0.3325077863962374
 40
1.0
 40
1.0
 40
1.0
 40
1.0
 10
14.42027181362538
 20
3.680035102774965
 30
0.0
 10
14.4215020612517
 20
3.680554447881371
 30
0.0
 10
14.42520196746941
 20
3.682116351474773
 30
0.0
 10
14.42950897665706
 20
3.680288833646549
 30
0.0
 10
14.43238387175373
 20
3.679068979725989
 30
0.0
  0
SPLINE
  5
155
330
1F
100
AcDbEntity
  8
0
  6
Continuous
 62
     7
370
    25
100
AcDbSpline
210
0.0
220
0.0
230
1.0
 70
     8
 71
     3
 72
    10
 73
     6
 74
     0
 42
0.00000001
 43
0.00000001
 40
0.0
 40
0.0
 40
0.0
 40
0.0
 40
0.5
 40
0.5
 40
1.0
 40
1.0
 40
1.0
 40
1.0
 10
14.48715892169457
 20
3.729273596540617
 30
0.0
 10
14.48828222605455
 20
3.74288257131704
 30
0.0
 10
14.48291910100298
 20
3.757104876335441
 30
0.0
 10
14.46003029589517
 20
3.784670973312898
 30
0.0
 10
14.44247694646512
 20
3.798022868248407
 30
0.0
 10
14.4201933123302
 20
3.809917594985808
 30
0.0
  0
SPLINE
  5
157
330
1F
100
AcDbEntity
  8
0
  6
Continuous
 62
     7
370
    25
100
AcDbSpline
210
0.0
220
0.0
230
1.0
 70
     8
 71
     3
 72
     9
 73
     5
 74
     0
 42
0.00000001
 43
0.00000001
 40
0.0
 40
0.0
 40
0.0
 40
0.0
 40
0.6297416239593894
 40
0.9999999999999999
 40
0.9999999999999999
 40
0.9999999999999999
 40
0.9999999999999999
 10
15.35335512451671
 20
3.831876269193542
 30
0.0
 10
15.35776081486906
 20
3.833213790343442
 30
0.0
 10
15.36475684337462
 20
3.835337710851493
 30
0.0
 10
15.37026680763221
 20
3.832840937760547
 30
0.0
 10
15.37230691805026
 20
3.831916486610552
 30
0.0
  0
SPLINE
  5
159
330
1F
100
AcDbEntity
  8
0
  6
Continuous
 62
     7
370
    25
100
AcDbSpline
210
0.0
220
0.0
230
1.0
 70
     8
 71
     3
 72
    11
 73
     7
 74
     0
 42
0.00000001
 43
0.00000001
 40
0.0
 40
0.0
 40
0.0
 40
0.0
 40
0.4088566787303841
 40
0.6316616898940632
 40
0.8614167863270293
 40
1.0
 40
1.0
 40
1.0
 40
1.0
 10
15.39132097133962
 20
3.778631943323725
 30
0.0
 10
15.39381920817156
 20
3.780606417032963
 30
0.0
 10
15.39767885039122
 20
3.78365687325567
 30
0.0
 10
15.40026510475958
 20
3.788501041728149
 30
0.0
 10
15.401221932396
 20
3.791886710466048
 30
0.0
 10
15.40089796189782
 20
3.793923756544916
 30
0.0
 10
15.40077607158248
 20
3.794690172593054
 30
0.0
  0
SPLINE
  5
15A
330
1F
100
AcDbEntity
  8
0
  6
Continuous
 62
     7
370
    25
100
AcDbSpline
210
0.0
220
0.0
230
1.0
 70
     8
 71
     3
 72
    10
 73
     6
 74
     0
 42
0.00000001
 43
0.00000001
 40
0.0
 40
0.0
 40
0.0
 40
0.0
 40
0.2529944071856092
 40
0.5164843617633937
 40
1.0
 40
1.0
 40
1.0
 40
1.0
 10
15.29002951648211
 20
2.869657288973517
 30
0.0
 10
15.28991581712807
 20
2.869230207825086
 30
0.0
 10
15.28968370156883
 20
2.868358327941169
 30
0.0
 10
15.28744389906759
 20
2.867297833538062
 30
0.0
 10
15.28398311980136
 20
2.867315768266768
 30
0.0
 10
15.28174305505244
 20
2.867327376910504
 30
0.0
  0
LINE
  5
15B
330
1F
100
AcDbEntity
  8
0
  6
Continuous
 62
     7
370
    25
100
AcDbLine
 10
13.6363531456
 20
4.8214085993
 30
0.0
 11
13.4625817973
 21
4.9286838419
 31
0.0
  0
LINE
  5
15C
330
1F
100
AcDbEntity
  8
0
  6
Continuous
 62
     7
370
    25
100
AcDbLine
 10
12.5630418703
 20
3.4575081825
 30
0.0
 11
12.750571012
 21
3.3675728278
 31
0.0
  0
LINE
  5
15D
330
1F
100
AcDbEntity
  8
0
  6
Continuous
 62
     7
370
    25
100
AcDbLine
 10
12.7774672733
 20
3.3667084198
 30
0.0
 11
13.1862271386
 21
3.4949313948
 31
0.0
  0
LINE
  5
15E
330
1F
100
AcDbEntity
  8
0
  6
Continuous
 62
     7
370
    25
100
AcDbLine
 10
-0.5007380901
 20
-0.5495084324
 30
0.0
 11
-0.3180961226
 21
-0.640866907
 31
0.0
  0
LINE
  5
15F
330
1F
100
AcDbEntity
  8
0
  6
Continuous
 62
     7
370
    25
100
AcDbLine
 10
0.5504791493
 20
0.8225568823
 30
0.0
 11
0.3782103702
 21
0.9331415285
 31
0.0
  0
LINE
  5
160
330
1F
100
AcDbEntity
  8
0
  6
Continuous
 62
     7
370
    25
100
AcDbLine
 10
0.5225433141
 20
0.4138111222
 30
0.0
 11
0.566539823
 21
0.779707732
 31
0.0
  0
LINE
  5
161
330
1F
100
AcDbEntity
  8
0
  6
Continuous
 62
     7
370
    25
100
AcDbLine
 10
-0.0379865008
 20
-0.6533428343
 30
0.0
 11
0.122000006
 21
-0.603157022
 31
0.0
  0
LINE
  5
162
330
1F
100
AcDbEntity
  8
0
  6
Continuous
 62
     7
370
    25
100
AcDbLine
 10
1.3538331944
 20
-1.5349807508
 30
0.0
 11
15.2458224085
 21
2.8227665163
 31
0.0
  0
LINE
  5
163
330
1F
100
AcDbEntity
  8
0
  6
Continuous
 62
     7
370
    25
100
AcDbLine
 10
1.6682697586
 20
-0.1674926145
 30
0.0
 11
0.3065732567
 21
0.5233871925
 31
0.0
  0
LINE
  5
164
330
1F
100
AcDbEntity
  8
0
  6
Continuous
 62
     7
370
    25
100
AcDbLine
 10
14.4202678009
 20
3.680648179
 30
0.0
 11
2.044980438
 21
-0.2013282503
 31
0.0
  0
LINE
  5
165
330
1F
100
AcDbEntity
  8
0
  6
Continuous
 62
     7
370
    25
100
AcDbLine
 10
13.0140294748
 20
3.655847235
 30
0.0
 11
13.4649646303
 21
3.3809812475
 31
0.0
  0
LINE
  5
166
330
1F
100
AcDbEntity
  8
0
  6
Continuous
 62
     7
370
    25
100
AcDbLine
 10
12.7484505273
 20
4.8230239594
 30
0.0
 11
12.9323942733
 21
4.7175240015
 31
0.0
  0
LINE
  5
167
330
1F
100
AcDbEntity
  8
0
  6
Continuous
 62
     7
370
    25
100
AcDbLine
 10
12.6994689601
 20
4.756745411
 30
0.0
 11
12.8834128477
 21
4.6512456398
 31
0.0
  0
LINE
  5
168
330
1F
100
AcDbEntity
  8
0
  6
Continuous
 62
     7
370
    25
100
AcDbLine
 10
12.7851831304
 20
3.3780439271
 30
0.0
 11
13.1937379344
 21
3.5062024903
 31
0.0
  0
LINE
  5
169
330
1F
100
AcDbEntity
  8
0
  6
Continuous
 62
     7
370
    25
100
AcDbLine
 10
12.9106007098
 20
4.6484652448
 30
0.0
 11
12.7610112757
 21
3.4044057417
 31
0.0
  0
LINE
  5
16A
330
1F
100
AcDbEntity
  8
0
  6
Continuous
 62
     7
370
    25
100
AcDbLine
 10
13.3518105844
 20
4.8208117191
 30
0.0
 11
12.9432567949
 21
4.6926533875
 31
0.0
  0
LINE
  5
16B
330
1F
100
AcDbEntity
  8
0
  6
Continuous
 62
     7
370
    25
100
AcDbLine
 10
12.8834128477
 20
4.6512456398
 30
0.0
 11
12.7338228914
 21
3.4071819806
 31
0.0
  0
LINE
  5
16C
330
1F
100
AcDbEntity
  8
0
  6
Continuous
 62
     7
370
    25
100
AcDbLine
 10
12.7338228899
 20
3.4071819814
 30
0.0
 11
12.5479140728
 21
3.4963404185
 31
0.0
  0
LINE
  5
16D
330
1F
100
AcDbEntity
  8
0
  6
Continuous
 62
     7
370
    25
100
AcDbLine
 10
12.5479140728
 20
3.4963404185
 30
0.0
 11
12.6994689601
 21
4.756745411
 31
0.0
  0
LINE
  5
16E
330
1F
100
AcDbEntity
  8
0
  6
Continuous
 62
     7
370
    25
100
AcDbLine
 10
13.3409650021
 20
4.8456876456
 30
0.0
 11
12.9323942745
 21
4.7175240008
 31
0.0
  0
LINE
  5
16F
330
1F
100
AcDbEntity
  8
0
  6
Continuous
 62
     7
370
    25
100
AcDbLine
 10
13.163611257
 20
4.953254807
 30
0.0
 11
12.7484505273
 21
4.8230239594
 31
0.0
  0
LINE
  5
170
330
1F
100
AcDbEntity
  8
0
  6
Continuous
 62
     7
370
    25
100
AcDbLine
 10
13.3409650014
 20
4.8456876459
 30
0.0
 11
13.163611257
 21
4.953254807
 31
0.0
  0
LINE
  5
171
330
1F
100
AcDbEntity
  8
0
  6
Continuous
 62
     7
370
    25
100
AcDbLine
 10
13.1928326385
 20
3.5005122502
 30
0.0
 11
13.2388803735
 21
3.5187901359
 31
0.0
  0
LINE
  5
172
330
1F
100
AcDbEntity
  8
0
  6
Continuous
 62
     7
370
    25
100
AcDbLine
 10
0.1168226694
 20
0.6974357945
 30
0.0
 11
-0.0605517506
 21
0.8049964589
 31
0.0
  0
LINE
  5
173
330
1F
100
AcDbEntity
  8
0
  6
Continuous
 62
     7
370
    25
100
AcDbLine
 10
0.5362509316
 20
0.8007271606
 30
0.0
 11
0.1276961277
 21
0.6725685974
 31
0.0
  0
LINE
  5
174
330
1F
100
AcDbEntity
  8
0
  6
Continuous
 62
     7
370
    25
100
AcDbLine
 10
0.5253906505
 20
0.8255985663
 30
0.0
 11
0.1168226698
 21
0.6974357831
 31
0.0
  0
LINE
  5
175
330
1F
100
AcDbEntity
  8
0
  6
Continuous
 62
     7
370
    25
100
AcDbLine
 10
0.3546102009
 20
0.9352276922
 30
0.0
 11
0.5253906505
 21
0.8255985663
 31
0.0
  0
LINE
  5
176
330
1F
100
AcDbEntity
  8
0
  6
Continuous
 62
     7
370
    25
100
AcDbLine
 10
-0.0605517506
 20
0.8049964589
 30
0.0
 11
0.3546102009
 21
0.9352276922
 31
0.0
  0
LINE
  5
177
330
1F
100
AcDbEntity
  8
0
  6
Continuous
 62
     7
370
    25
100
AcDbLine
 10
0.5047803272
 20
-0.8837763112
 30
0.0
 11
1.2994576695
 21
-1.5047350148
 31
0.0
  0
LINE
  5
178
330
1F
100
AcDbEntity
  8
0
  6
Continuous
 62
     7
370
    25
100
AcDbLine
 10
15.2575126276
 20
2.8405862391
 30
0.0
 11
1.3660972258
 21
-1.5169810301
 31
0.0
  0
LINE
  5
179
330
1F
100
AcDbEntity
  8
0
  6
Continuous
 62
     7
370
    25
100
AcDbLine
 10
1.4804586458
 20
-0.5658952072
 30
0.0
 11
15.3718740476
 21
3.791672062
 31
0.0
  0
LINE
  5
17A
330
1F
100
AcDbEntity
  8
0
  6
Continuous
 62
     7
370
    25
100
AcDbLine
 10
1.8592486194
 20
-1.0603542839
 30
0.0
 11
1.8461888672
 21
-1.1689656078
 31
0.0
  0
LINE
  5
17B
330
1F
100
AcDbEntity
  8
0
  6
Continuous
 62
     7
370
    25
100
AcDbLine
 10
1.505127351
 20
-1.1714377987
 30
0.0
 11
1.4920675988
 21
-1.2800491226
 31
0.0
  0
LINE
  5
17C
330
1F
100
AcDbEntity
  8
0
  6
Continuous
 62
     7
370
    25
100
AcDbLine
 10
15.3533551104
 20
3.8318762756
 30
0.0
 11
1.4619385418
 21
-0.525691399
 31
0.0
  0
LINE
  5
17D
330
1F
100
AcDbEntity
  8
0
  6
Continuous
 62
     7
370
    25
100
AcDbLine
 10
0.0720502728
 20
0.4539315491
 30
0.0
 11
0.2950589126
 21
0.5238866334
 31
0.0
  0
LINE
  5
17E
330
1F
100
AcDbEntity
  8
0
  6
Continuous
 62
     7
370
    25
100
AcDbLine
 10
0.2950589126
 20
0.5238866334
 30
0.0
 11
1.6561635566
 21
-0.1666918856
 31
0.0
  0
LINE
  5
17F
330
1F
100
AcDbEntity
  8
0
  6
Continuous
 62
     7
370
    25
100
AcDbLine
 10
2.0573903467
 20
-0.2028152572
 30
0.0
 11
14.4323838718
 21
3.6790689798
 31
0.0
  0
LINE
  5
180
330
1F
100
AcDbEntity
  8
0
  6
Continuous
 62
     7
370
    25
100
AcDbLine
 10
14.4461560723
 20
3.8453723835
 30
0.0
 11
13.1341699289
 21
4.5513588743
 31
0.0
  0
LINE
  5
181
330
1F
100
AcDbEntity
  8
0
  6
Continuous
 62
     7
370
    25
100
AcDbLine
 10
13.1341699289
 20
4.5513588743
 30
0.0
 11
13.3571788575
 21
4.62131405
 31
0.0
  0
LINE
  5
182
330
1F
100
AcDbEntity
  8
0
  6
Continuous
 62
     7
370
    25
100
AcDbLine
 10
1.5980760432
 20
-1.201498114
 30
0.0
 11
1.6230728386
 21
-1.1936569247
 31
0.0
  0
LINE
  5
183
330
1F
100
AcDbEntity
  8
0
  6
Continuous
 62
     7
370
    25
100
AcDbLine
 10
1.6249385175
 20
-1.1781410213
 30
0.0
 11
1.6230728386
 21
-1.1936569247
 31
0.0
  0
LINE
  5
184
330
1F
100
AcDbEntity
  8
0
  6
Continuous
 62
     7
370
    25
100
AcDbLine
 10
1.6903968512
 20
-1.1726548601
 30
0.0
 11
1.70476037
 21
-1.1282174436
 31
0.0
  0
LINE
  5
185
330
1F
100
AcDbEntity
  8
0
  6
Continuous
 62
     7
370
    25
100
AcDbLine
 10
1.6860127734
 20
-1.1340983356
 30
0.0
 11
1.6903968512
 21
-1.1726548601
 31
0.0
  0
LINE
  5
186
330
1F
100
AcDbEntity
  8
0
  6
Continuous
 62
     7
370
    25
100
AcDbLine
 10
1.6693482432
 20
-1.1393257951
 30
0.0
 11
1.6860127734
 21
-1.1340983356
 31
0.0
  0
LINE
  5
187
330
1F
100
AcDbEntity
  8
0
  6
Continuous
 62
     7
370
    25
100
AcDbLine
 10
1.6779281649
 20
-1.201333917
 30
0.0
 11
1.6693482432
 21
-1.1393257951
 31
0.0
  0
LINE
  5
188
330
1F
100
AcDbEntity
  8
0
  6
Continuous
 62
     7
370
    25
100
AcDbLine
 10
1.6779281649
 20
-1.201333917
 30
0.0
 11
1.6966757615
 21
-1.1954530251
 31
0.0
  0
LINE
  5
189
330
1F
100
AcDbEntity
  8
0
  6
Continuous
 62
     7
370
    25
100
AcDbLine
 10
1.6966757615
 20
-1.1954530251
 30
0.0
 11
1.7214249003
 21
-1.1229899841
 31
0.0
  0
LINE
  5
18A
330
1F
100
AcDbEntity
  8
0
  6
Continuous
 62
     7
370
    25
100
AcDbLine
 10
1.70476037
 20
-1.1282174436
 30
0.0
 11
1.7214249003
 21
-1.1229899841
 31
0.0
  0
LINE
  5
18B
330
1F
100
AcDbEntity
  8
0
  6
Continuous
 62
     7
370
    25
100
AcDbLine
 10
1.6696894588
 20
-1.1864991919
 30
0.0
 11
1.6675128335
 21
-1.2046010792
 31
0.0
  0
LINE
  5
18C
330
1F
100
AcDbEntity
  8
0
  6
Continuous
 62
     7
370
    25
100
AcDbLine
 10
1.648858796
 20
-1.1930335163
 30
0.0
 11
1.6696894588
 21
-1.1864991919
 31
0.0
  0
LINE
  5
18D
330
1F
100
AcDbEntity
  8
0
  6
Continuous
 62
     7
370
    25
100
AcDbLine
 10
1.6547667792
 20
-1.1438998222
 30
0.0
 11
1.648858796
 21
-1.1930335163
 31
0.0
  0
LINE
  5
18E
330
1F
100
AcDbEntity
  8
0
  6
Continuous
 62
     7
370
    25
100
AcDbLine
 10
1.6381022489
 20
-1.1491272817
 30
0.0
 11
1.6547667792
 21
-1.1438998222
 31
0.0
  0
LINE
  5
18F
330
1F
100
AcDbEntity
  8
0
  6
Continuous
 62
     7
370
    25
100
AcDbLine
 10
1.6381022489
 20
-1.1491272817
 30
0.0
 11
1.6300176403
 21
-1.2163628631
 31
0.0
  0
LINE
  5
190
330
1F
100
AcDbEntity
  8
0
  6
Continuous
 62
     7
370
    25
100
AcDbLine
 10
1.6300176403
 20
-1.2163628631
 30
0.0
 11
1.6675128335
 21
-1.2046010792
 31
0.0
  0
LINE
  5
191
330
1F
100
AcDbEntity
  8
0
  6
Continuous
 62
     7
370
    25
100
AcDbLine
 10
1.8584272058
 20
-1.061406502
 30
0.0
 11
1.8455660215
 21
-1.1683664363
 31
0.0
  0
LINE
  5
192
330
1F
100
AcDbEntity
  8
0
  6
Continuous
 62
     7
370
    25
100
AcDbLine
 10
1.5057501967
 20
-1.1720369703
 30
0.0
 11
1.4928890125
 21
-1.2789969046
 31
0.0
  0
LINE
  5
193
330
1F
100
AcDbEntity
  8
0
  6
Continuous
 62
     7
370
    25
100
AcDbLine
 10
1.7255910328
 20
-1.1216831192
 30
0.0
 11
1.7175064243
 21
-1.1889187007
 31
0.0
  0
LINE
  5
194
330
1F
100
AcDbEntity
  8
0
  6
Continuous
 62
     7
370
    25
100
AcDbLine
 10
1.7175064243
 20
-1.1889187007
 30
0.0
 11
1.7633338826
 21
-1.174543187
 31
0.0
  0
LINE
  5
195
330
1F
100
AcDbEntity
  8
0
  6
Continuous
 62
     7
370
    25
100
AcDbLine
 10
1.7655105079
 20
-1.1564412997
 30
0.0
 11
1.7633338826
 21
-1.174543187
 31
0.0
  0
LINE
  5
196
330
1F
100
AcDbEntity
  8
0
  6
Continuous
 62
     7
370
    25
100
AcDbLine
 10
1.73634758
 20
-1.1655893538
 30
0.0
 11
1.7655105079
 21
-1.1564412997
 31
0.0
  0
LINE
  5
197
330
1F
100
AcDbEntity
  8
0
  6
Continuous
 62
     7
370
    25
100
AcDbLine
 10
1.7400789377
 20
-1.134557547
 30
0.0
 11
1.73634758
 21
-1.1655893538
 31
0.0
  0
LINE
  5
198
330
1F
100
AcDbEntity
  8
0
  6
Continuous
 62
     7
370
    25
100
AcDbLine
 10
1.7400789377
 20
-1.134557547
 30
0.0
 11
1.7692418657
 21
-1.1254094928
 31
0.0
  0
LINE
  5
199
330
1F
100
AcDbEntity
  8
0
  6
Continuous
 62
     7
370
    25
100
AcDbLine
 10
1.7714184911
 20
-1.1073076055
 30
0.0
 11
1.7692418657
 21
-1.1254094928
 31
0.0
  0
LINE
  5
19A
330
1F
100
AcDbEntity
  8
0
  6
Continuous
 62
     7
370
    25
100
AcDbLine
 10
1.7255910328
 20
-1.1216831192
 30
0.0
 11
1.7714184911
 21
-1.1073076055
 31
0.0
  0
LINE
  5
19B
330
1F
100
AcDbEntity
  8
0
  6
Continuous
 62
     7
370
    25
100
AcDbLine
 10
1.5276997358
 20
-1.183759201
 30
0.0
 11
1.5196151273
 21
-1.2509947825
 31
0.0
  0
LINE
  5
19C
330
1F
100
AcDbEntity
  8
0
  6
Continuous
 62
     7
370
    25
100
AcDbLine
 10
1.5196151273
 20
-1.2509947825
 30
0.0
 11
1.5362796575
 21
-1.2457673229
 31
0.0
  0
LINE
  5
19D
330
1F
100
AcDbEntity
  8
0
  6
Continuous
 62
     7
370
    25
100
AcDbLine
 10
1.539234582
 20
-1.2211927179
 30
0.0
 11
1.5362796575
 21
-1.2457673229
 31
0.0
  0
LINE
  5
19E
330
1F
100
AcDbEntity
  8
0
  6
Continuous
 62
     7
370
    25
100
AcDbLine
 10
1.539234582
 20
-1.2211927179
 30
0.0
 11
1.5558991122
 21
-1.2159652584
 31
0.0
  0
LINE
  5
19F
330
1F
100
AcDbEntity
  8
0
  6
Continuous
 62
     7
370
    25
100
AcDbLine
 10
1.5558991122
 20
-1.2159652584
 30
0.0
 11
1.5529441878
 21
-1.2405398634
 31
0.0
  0
LINE
  5
1A0
330
1F
100
AcDbEntity
  8
0
  6
Continuous
 62
     7
370
    25
100
AcDbLine
 10
1.5529441878
 20
-1.2405398634
 30
0.0
 11
1.5696087181
 21
-1.2353124039
 31
0.0
  0
LINE
  5
1A1
330
1F
100
AcDbEntity
  8
0
  6
Continuous
 62
     7
370
    25
100
AcDbLine
 10
1.5776933266
 20
-1.1680768224
 30
0.0
 11
1.5696087181
 21
-1.2353124039
 31
0.0
  0
LINE
  5
1A2
330
1F
100
AcDbEntity
  8
0
  6
Continuous
 62
     7
370
    25
100
AcDbLine
 10
1.5610287964
 20
-1.173304282
 30
0.0
 11
1.5776933266
 21
-1.1680768224
 31
0.0
  0
LINE
  5
1A3
330
1F
100
AcDbEntity
  8
0
  6
Continuous
 62
     7
370
    25
100
AcDbLine
 10
1.5610287964
 20
-1.173304282
 30
0.0
 11
1.5580738719
 21
-1.197878887
 31
0.0
  0
LINE
  5
1A4
330
1F
100
AcDbEntity
  8
0
  6
Continuous
 62
     7
370
    25
100
AcDbLine
 10
1.5580738719
 20
-1.197878887
 30
0.0
 11
1.5414093417
 21
-1.2031063465
 31
0.0
  0
LINE
  5
1A5
330
1F
100
AcDbEntity
  8
0
  6
Continuous
 62
     7
370
    25
100
AcDbLine
 10
1.5443642661
 20
-1.1785317415
 30
0.0
 11
1.5414093417
 21
-1.2031063465
 31
0.0
  0
LINE
  5
1A6
330
1F
100
AcDbEntity
  8
0
  6
Continuous
 62
     7
370
    25
100
AcDbLine
 10
1.5276997358
 20
-1.183759201
 30
0.0
 11
1.5443642661
 21
-1.1785317415
 31
0.0
  0
LINE
  5
1A7
330
1F
100
AcDbEntity
  8
0
  6
Continuous
 62
     7
370
    25
100
AcDbLine
 10
1.7376414842
 20
-1.1577181405
 30
0.0
 11
1.7626382796
 21
-1.1498769512
 31
0.0
  0
LINE
  5
1A8
330
1F
100
AcDbEntity
  8
0
  6
Continuous
 62
     7
370
    25
100
AcDbLine
 10
1.7645039585
 20
-1.1343610478
 30
0.0
 11
1.7626382796
 21
-1.1498769512
 31
0.0
  0
LINE
  5
1A9
330
1F
100
AcDbEntity
  8
0
  6
Continuous
 62
     7
370
    25
100
AcDbLine
 10
1.8085451161
 20
-1.1280112062
 30
0.0
 11
1.8297443471
 21
-1.0890114972
 31
0.0
  0
LINE
  5
1AA
330
1F
100
AcDbEntity
  8
0
  6
Continuous
 62
     7
370
    25
100
AcDbLine
 10
1.8109967505
 20
-1.0948923892
 30
0.0
 11
1.8297443471
 21
-1.0890114972
 31
0.0
  0
LINE
  5
1AB
330
1F
100
AcDbEntity
  8
0
  6
Continuous
 62
     7
370
    25
100
AcDbLine
 10
1.800697721
 20
-1.1138626985
 30
0.0
 11
1.8109967505
 21
-1.0948923892
 31
0.0
  0
LINE
  5
1AC
330
1F
100
AcDbEntity
  8
0
  6
Continuous
 62
     7
370
    25
100
AcDbLine
 10
1.800697721
 20
-1.1138626985
 30
0.0
 11
1.7943322202
 21
-1.1001198487
 31
0.0
  0
LINE
  5
1AD
330
1F
100
AcDbEntity
  8
0
  6
Continuous
 62
     7
370
    25
100
AcDbLine
 10
1.7755846237
 20
-1.1060007406
 30
0.0
 11
1.7943322202
 21
-1.1001198487
 31
0.0
  0
LINE
  5
1AE
330
1F
100
AcDbEntity
  8
0
  6
Continuous
 62
     7
370
    25
100
AcDbLine
 10
1.7886992461
 20
-1.1342366131
 30
0.0
 11
1.7755846237
 21
-1.1060007406
 31
0.0
  0
LINE
  5
1AF
330
1F
100
AcDbEntity
  8
0
  6
Continuous
 62
     7
370
    25
100
AcDbLine
 10
1.7886992461
 20
-1.1342366131
 30
0.0
 11
1.7675000151
 21
-1.1732363221
 31
0.0
  0
LINE
  5
1B0
330
1F
100
AcDbEntity
  8
0
  6
Continuous
 62
     7
370
    25
100
AcDbLine
 10
1.7675000151
 20
-1.1732363221
 30
0.0
 11
1.7862476117
 21
-1.1673554301
 31
0.0
  0
LINE
  5
1B1
330
1F
100
AcDbEntity
  8
0
  6
Continuous
 62
     7
370
    25
100
AcDbLine
 10
1.7965466412
 20
-1.1483851208
 30
0.0
 11
1.7862476117
 21
-1.1673554301
 31
0.0
  0
LINE
  5
1B2
330
1F
100
AcDbEntity
  8
0
  6
Continuous
 62
     7
370
    25
100
AcDbLine
 10
1.7965466412
 20
-1.1483851208
 30
0.0
 11
1.802912142
 21
-1.1621279706
 31
0.0
  0
LINE
  5
1B3
330
1F
100
AcDbEntity
  8
0
  6
Continuous
 62
     7
370
    25
100
AcDbLine
 10
1.802912142
 20
-1.1621279706
 30
0.0
 11
1.8216597385
 21
-1.1562470787
 31
0.0
  0
LINE
  5
1B4
330
1F
100
AcDbEntity
  8
0
  6
Continuous
 62
     7
370
    25
100
AcDbLine
 10
1.8085451161
 20
-1.1280112062
 30
0.0
 11
1.8216597385
 21
-1.1562470787
 31
0.0
  0
LINE
  5
1B5
330
1F
100
AcDbEntity
  8
0
  6
Continuous
 62
     7
370
    25
100
AcDbLine
 10
1.6005134967
 20
-1.1783375205
 30
0.0
 11
1.6296764247
 21
-1.1691894663
 31
0.0
  0
LINE
  5
1B6
330
1F
100
AcDbEntity
  8
0
  6
Continuous
 62
     7
370
    25
100
AcDbLine
 10
1.63185305
 20
-1.151087579
 30
0.0
 11
1.6296764247
 21
-1.1691894663
 31
0.0
  0
LINE
  5
1B7
330
1F
100
AcDbEntity
  8
0
  6
Continuous
 62
     7
370
    25
100
AcDbLine
 10
1.5860255918
 20
-1.1654630927
 30
0.0
 11
1.63185305
 21
-1.151087579
 31
0.0
  0
LINE
  5
1B8
330
1F
100
AcDbEntity
  8
0
  6
Continuous
 62
     7
370
    25
100
AcDbLine
 10
1.5860255918
 20
-1.1654630927
 30
0.0
 11
1.5779409832
 21
-1.2326986741
 31
0.0
  0
LINE
  5
1B9
330
1F
100
AcDbEntity
  8
0
  6
Continuous
 62
     7
370
    25
100
AcDbLine
 10
1.5779409832
 20
-1.2326986741
 30
0.0
 11
1.6237684415
 21
-1.2183231605
 31
0.0
  0
LINE
  5
1BA
330
1F
100
AcDbEntity
  8
0
  6
Continuous
 62
     7
370
    25
100
AcDbLine
 10
1.6259450669
 20
-1.2002212731
 30
0.0
 11
1.6237684415
 21
-1.2183231605
 31
0.0
  0
LINE
  5
1BB
330
1F
100
AcDbEntity
  8
0
  6
Continuous
 62
     7
370
    25
100
AcDbLine
 10
1.5967821389
 20
-1.2093693273
 30
0.0
 11
1.6259450669
 21
-1.2002212731
 31
0.0
  0
LINE
  5
1BC
330
1F
100
AcDbEntity
  8
0
  6
Continuous
 62
     7
370
    25
100
AcDbLine
 10
1.6005134967
 20
-1.1783375205
 30
0.0
 11
1.5967821389
 21
-1.2093693273
 31
0.0
  0
LINE
  5
1BD
330
1F
100
AcDbEntity
  8
0
  6
Continuous
 62
     7
370
    25
100
AcDbLine
 10
1.505098947
 20
-1.1716740205
 30
0.0
 11
1.5057501967
 21
-1.1720369703
 31
0.0
  0
LINE
  5
1BE
330
1F
100
AcDbEntity
  8
0
  6
Continuous
 62
     7
370
    25
100
AcDbLine
 10
1.8572921366
 20
-1.0607739134
 30
0.0
 11
1.8584272058
 21
-1.061406502
 31
0.0
  0
LINE
  5
1BF
330
1F
100
AcDbEntity
  8
0
  6
Continuous
 62
     7
370
    25
100
AcDbLine
 10
1.4922377628
 20
-1.2786339548
 30
0.0
 11
1.4928890125
 21
-1.2789969046
 31
0.0
  0
LINE
  5
1C0
330
1F
100
AcDbEntity
  8
0
  6
Continuous
 62
     7
370
    25
100
AcDbLine
 10
1.5414045922
 20
-1.179460155
 30
0.0
 11
1.538740172
 21
-1.201618784
 31
0.0
  0
LINE
  5
1C1
330
1F
100
AcDbEntity
  8
0
  6
Continuous
 62
     7
370
    25
100
AcDbLine
 10
1.5747336527
 20
-1.169005236
 30
0.0
 11
1.5669395484
 21
-1.2338248414
 31
0.0
  0
LINE
  5
1C2
330
1F
100
AcDbEntity
  8
0
  6
Continuous
 62
     7
370
    25
100
AcDbLine
 10
1.5532346921
 20
-1.2381238873
 30
0.0
 11
1.5669395484
 21
-1.2338248414
 31
0.0
  0
LINE
  5
1C3
330
1F
100
AcDbEntity
  8
0
  6
Continuous
 62
     7
370
    25
100
AcDbLine
 10
1.5365654123
 20
-1.2197051554
 30
0.0
 11
1.5532299425
 21
-1.2144776959
 31
0.0
  0
LINE
  5
1C4
330
1F
100
AcDbEntity
  8
0
  6
Continuous
 62
     7
370
    25
100
AcDbLine
 10
1.5365654123
 20
-1.2197051554
 30
0.0
 11
1.5336104878
 21
-1.2442797604
 31
0.0
  0
LINE
  5
1C5
330
1F
100
AcDbEntity
  8
0
  6
Continuous
 62
     7
370
    25
100
AcDbLine
 10
1.5199056315
 20
-1.2485788064
 30
0.0
 11
1.5336104878
 21
-1.2442797604
 31
0.0
  0
LINE
  5
1C6
330
1F
100
AcDbEntity
  8
0
  6
Continuous
 62
     7
370
    25
100
AcDbLine
 10
1.538740172
 20
-1.201618784
 30
0.0
 11
1.5414093417
 21
-1.2031063465
 31
0.0
  0
LINE
  5
1C7
330
1F
100
AcDbEntity
  8
0
  6
Continuous
 62
     7
370
    25
100
AcDbLine
 10
1.8453056148
 20
-1.16847336
 30
0.0
 11
1.8461888672
 21
-1.1689656078
 31
0.0
  0
LINE
  5
1C8
330
1F
100
AcDbEntity
  8
0
  6
Continuous
 62
     7
370
    25
100
AcDbLine
 10
1.5336104878
 20
-1.2442797604
 30
0.0
 11
1.5362796575
 21
-1.2457673229
 31
0.0
  0
LINE
  5
1C9
330
1F
100
AcDbEntity
  8
0
  6
Continuous
 62
     7
370
    25
100
AcDbLine
 10
1.5365654123
 20
-1.2197051554
 30
0.0
 11
1.539234582
 21
-1.2211927179
 31
0.0
  0
LINE
  5
1CA
330
1F
100
AcDbEntity
  8
0
  6
Continuous
 62
     7
370
    25
100
AcDbLine
 10
1.5532299425
 20
-1.2144776959
 30
0.0
 11
1.5558991122
 21
-1.2159652584
 31
0.0
  0
LINE
  5
1CB
330
1F
100
AcDbEntity
  8
0
  6
Continuous
 62
     7
370
    25
100
AcDbLine
 10
1.5669395484
 20
-1.2338248414
 30
0.0
 11
1.5696087181
 21
-1.2353124039
 31
0.0
  0
LINE
  5
1CC
330
1F
100
AcDbEntity
  8
0
  6
Continuous
 62
     7
370
    25
100
AcDbLine
 10
1.6229853929
 20
-1.2011496867
 30
0.0
 11
1.6210992718
 21
-1.2168355979
 31
0.0
  0
LINE
  5
1CD
330
1F
100
AcDbEntity
  8
0
  6
Continuous
 62
     7
370
    25
100
AcDbLine
 10
1.5782314875
 20
-1.2302826981
 30
0.0
 11
1.6210992718
 21
-1.2168355979
 31
0.0
  0
LINE
  5
1CE
330
1F
100
AcDbEntity
  8
0
  6
Continuous
 62
     7
370
    25
100
AcDbLine
 10
1.6288933761
 20
-1.1520159925
 30
0.0
 11
1.627007255
 21
-1.1677019038
 31
0.0
  0
LINE
  5
1CF
330
1F
100
AcDbEntity
  8
0
  6
Continuous
 62
     7
370
    25
100
AcDbLine
 10
1.597844327
 20
-1.1768499579
 30
0.0
 11
1.627007255
 21
-1.1677019038
 31
0.0
  0
LINE
  5
1D0
330
1F
100
AcDbEntity
  8
0
  6
Continuous
 62
     7
370
    25
100
AcDbLine
 10
1.597844327
 20
-1.1768499579
 30
0.0
 11
1.5941129692
 21
-1.2078817648
 31
0.0
  0
LINE
  5
1D1
330
1F
100
AcDbEntity
  8
0
  6
Continuous
 62
     7
370
    25
100
AcDbLine
 10
1.5941129692
 20
-1.2078817648
 30
0.0
 11
1.5967821389
 21
-1.2093693273
 31
0.0
  0
LINE
  5
1D2
330
1F
100
AcDbEntity
  8
0
  6
Continuous
 62
     7
370
    25
100
AcDbLine
 10
1.597844327
 20
-1.1768499579
 30
0.0
 11
1.6005134967
 21
-1.1783375205
 31
0.0
  0
LINE
  5
1D3
330
1F
100
AcDbEntity
  8
0
  6
Continuous
 62
     7
370
    25
100
AcDbLine
 10
1.627007255
 20
-1.1677019038
 30
0.0
 11
1.6296764247
 21
-1.1691894663
 31
0.0
  0
LINE
  5
1D4
330
1F
100
AcDbEntity
  8
0
  6
Continuous
 62
     7
370
    25
100
AcDbLine
 10
1.6000773265
 20
-1.1985454874
 30
0.0
 11
1.6204036689
 21
-1.1921693622
 31
0.0
  0
LINE
  5
1D5
330
1F
100
AcDbEntity
  8
0
  6
Continuous
 62
     7
370
    25
100
AcDbLine
 10
1.6219419949
 20
-1.1793758866
 30
0.0
 11
1.6204036689
 21
-1.1921693622
 31
0.0
  0
LINE
  5
1D6
330
1F
100
AcDbEntity
  8
0
  6
Continuous
 62
     7
370
    25
100
AcDbLine
 10
1.6210992718
 20
-1.2168355979
 30
0.0
 11
1.6237684415
 21
-1.2183231605
 31
0.0
  0
LINE
  5
1D7
330
1F
100
AcDbEntity
  8
0
  6
Continuous
 62
     7
370
    25
100
AcDbLine
 10
1.6204036689
 20
-1.1921693622
 30
0.0
 11
1.6230728386
 21
-1.1936569247
 31
0.0
  0
LINE
  5
1D8
330
1F
100
AcDbEntity
  8
0
  6
Continuous
 62
     7
370
    25
100
AcDbLine
 10
1.6518071052
 20
-1.1448282357
 30
0.0
 11
1.6461896263
 21
-1.1915459538
 31
0.0
  0
LINE
  5
1D9
330
1F
100
AcDbEntity
  8
0
  6
Continuous
 62
     7
370
    25
100
AcDbLine
 10
1.6667297849
 20
-1.1874276055
 30
0.0
 11
1.6648436638
 21
-1.2031135167
 31
0.0
  0
LINE
  5
1DA
330
1F
100
AcDbEntity
  8
0
  6
Continuous
 62
     7
370
    25
100
AcDbLine
 10
1.6303081446
 20
-1.2139468871
 30
0.0
 11
1.6648436638
 21
-1.2031135167
 31
0.0
  0
LINE
  5
1DB
330
1F
100
AcDbEntity
  8
0
  6
Continuous
 62
     7
370
    25
100
AcDbLine
 10
1.6461896263
 20
-1.1915459538
 30
0.0
 11
1.648858796
 21
-1.1930335163
 31
0.0
  0
LINE
  5
1DC
330
1F
100
AcDbEntity
  8
0
  6
Continuous
 62
     7
370
    25
100
AcDbLine
 10
1.6940065918
 20
-1.1939654625
 30
0.0
 11
1.7178664198
 21
-1.1241062359
 31
0.0
  0
LINE
  5
1DD
330
1F
100
AcDbEntity
  8
0
  6
Continuous
 62
     7
370
    25
100
AcDbLine
 10
1.6776198626
 20
-1.1991057792
 30
0.0
 11
1.6940065918
 21
-1.1939654625
 31
0.0
  0
LINE
  5
1DE
330
1F
100
AcDbEntity
  8
0
  6
Continuous
 62
     7
370
    25
100
AcDbLine
 10
1.6835988471
 20
-1.1348555548
 30
0.0
 11
1.6877276815
 21
-1.1711672975
 31
0.0
  0
LINE
  5
1DF
330
1F
100
AcDbEntity
  8
0
  6
Continuous
 62
     7
370
    25
100
AcDbLine
 10
1.6648436638
 20
-1.2031135167
 30
0.0
 11
1.6675128335
 21
-1.2046010792
 31
0.0
  0
LINE
  5
1E0
330
1F
100
AcDbEntity
  8
0
  6
Continuous
 62
     7
370
    25
100
AcDbLine
 10
1.6877276815
 20
-1.1711672975
 30
0.0
 11
1.6903968512
 21
-1.1726548601
 31
0.0
  0
LINE
  5
1E1
330
1F
100
AcDbEntity
  8
0
  6
Continuous
 62
     7
370
    25
100
AcDbLine
 10
1.6940065918
 20
-1.1939654625
 30
0.0
 11
1.6966757615
 21
-1.1954530251
 31
0.0
  0
LINE
  5
1E2
330
1F
100
AcDbEntity
  8
0
  6
Continuous
 62
     7
370
    25
100
AcDbLine
 10
1.7684588172
 20
-1.1082360191
 30
0.0
 11
1.766572696
 21
-1.1239219303
 31
0.0
  0
LINE
  5
1E3
330
1F
100
AcDbEntity
  8
0
  6
Continuous
 62
     7
370
    25
100
AcDbLine
 10
1.737409768
 20
-1.1330699845
 30
0.0
 11
1.766572696
 21
-1.1239219303
 31
0.0
  0
LINE
  5
1E4
330
1F
100
AcDbEntity
  8
0
  6
Continuous
 62
     7
370
    25
100
AcDbLine
 10
1.737409768
 20
-1.1330699845
 30
0.0
 11
1.7336784103
 21
-1.1641017913
 31
0.0
  0
LINE
  5
1E5
330
1F
100
AcDbEntity
  8
0
  6
Continuous
 62
     7
370
    25
100
AcDbLine
 10
1.762550834
 20
-1.1573697132
 30
0.0
 11
1.7606647129
 21
-1.1730556244
 31
0.0
  0
LINE
  5
1E6
330
1F
100
AcDbEntity
  8
0
  6
Continuous
 62
     7
370
    25
100
AcDbLine
 10
1.7177969285
 20
-1.1865027246
 30
0.0
 11
1.7606647129
 21
-1.1730556244
 31
0.0
  0
LINE
  5
1E7
330
1F
100
AcDbEntity
  8
0
  6
Continuous
 62
     7
370
    25
100
AcDbLine
 10
1.737409768
 20
-1.1330699845
 30
0.0
 11
1.7400789377
 21
-1.134557547
 31
0.0
  0
LINE
  5
1E8
330
1F
100
AcDbEntity
  8
0
  6
Continuous
 62
     7
370
    25
100
AcDbLine
 10
1.766572696
 20
-1.1239219303
 30
0.0
 11
1.7692418657
 21
-1.1254094928
 31
0.0
  0
LINE
  5
1E9
330
1F
100
AcDbEntity
  8
0
  6
Continuous
 62
     7
370
    25
100
AcDbLine
 10
1.7336784103
 20
-1.1641017913
 30
0.0
 11
1.73634758
 21
-1.1655893538
 31
0.0
  0
LINE
  5
1EA
330
1F
100
AcDbEntity
  8
0
  6
Continuous
 62
     7
370
    25
100
AcDbLine
 10
1.7396427676
 20
-1.1547655139
 30
0.0
 11
1.7599691099
 21
-1.1483893887
 31
0.0
  0
LINE
  5
1EB
330
1F
100
AcDbEntity
  8
0
  6
Continuous
 62
     7
370
    25
100
AcDbLine
 10
1.7615074359
 20
-1.1355959131
 30
0.0
 11
1.7599691099
 21
-1.1483893887
 31
0.0
  0
LINE
  5
1EC
330
1F
100
AcDbEntity
  8
0
  6
Continuous
 62
     7
370
    25
100
AcDbLine
 10
1.7606647129
 20
-1.1730556244
 30
0.0
 11
1.7633338826
 21
-1.174543187
 31
0.0
  0
LINE
  5
1ED
330
1F
100
AcDbEntity
  8
0
  6
Continuous
 62
     7
370
    25
100
AcDbLine
 10
1.7599691099
 20
-1.1483893887
 30
0.0
 11
1.7626382796
 21
-1.1498769512
 31
0.0
  0
LINE
  5
1EE
330
1F
100
AcDbEntity
  8
0
  6
Continuous
 62
     7
370
    25
100
AcDbLine
 10
1.801971915
 20
-1.1600980599
 30
0.0
 11
1.8189905688
 21
-1.1547595161
 31
0.0
  0
LINE
  5
1EF
330
1F
100
AcDbEntity
  8
0
  6
Continuous
 62
     7
370
    25
100
AcDbLine
 10
1.7938774715
 20
-1.1468975583
 30
0.0
 11
1.783578442
 21
-1.1658678676
 31
0.0
  0
LINE
  5
1F0
330
1F
100
AcDbEntity
  8
0
  6
Continuous
 62
     7
370
    25
100
AcDbLine
 10
1.769023519
 20
-1.1704335691
 30
0.0
 11
1.783578442
 21
-1.1658678676
 31
0.0
  0
LINE
  5
1F1
330
1F
100
AcDbEntity
  8
0
  6
Continuous
 62
     7
370
    25
100
AcDbLine
 10
1.7980285513
 20
-1.112375136
 30
0.0
 11
1.7926032775
 21
-1.1006621969
 31
0.0
  0
LINE
  5
1F2
330
1F
100
AcDbEntity
  8
0
  6
Continuous
 62
     7
370
    25
100
AcDbLine
 10
1.8058759464
 20
-1.1265236436
 30
0.0
 11
1.8255516735
 21
-1.0903266877
 31
0.0
  0
LINE
  5
1F3
330
1F
100
AcDbEntity
  8
0
  6
Continuous
 62
     7
370
    25
100
AcDbLine
 10
1.8058759464
 20
-1.1265236436
 30
0.0
 11
1.8189905688
 21
-1.1547595161
 31
0.0
  0
LINE
  5
1F4
330
1F
100
AcDbEntity
  8
0
  6
Continuous
 62
     7
370
    25
100
AcDbLine
 10
1.7980285513
 20
-1.112375136
 30
0.0
 11
1.800697721
 21
-1.1138626985
 31
0.0
  0
LINE
  5
1F5
330
1F
100
AcDbEntity
  8
0
  6
Continuous
 62
     7
370
    25
100
AcDbLine
 10
1.783578442
 20
-1.1658678676
 30
0.0
 11
1.7862476117
 21
-1.1673554301
 31
0.0
  0
LINE
  5
1F6
330
1F
100
AcDbEntity
  8
0
  6
Continuous
 62
     7
370
    25
100
AcDbLine
 10
1.8058759464
 20
-1.1265236436
 30
0.0
 11
1.8085451161
 21
-1.1280112062
 31
0.0
  0
LINE
  5
1F7
330
1F
100
AcDbEntity
  8
0
  6
Continuous
 62
     7
370
    25
100
AcDbLine
 10
1.7938774715
 20
-1.1468975583
 30
0.0
 11
1.7965466412
 21
-1.1483851208
 31
0.0
  0
LINE
  5
1F8
330
1F
100
AcDbEntity
  8
0
  6
Continuous
 62
     7
370
    25
100
AcDbLine
 10
1.8189905688
 20
-1.1547595161
 30
0.0
 11
1.8216597385
 21
-1.1562470787
 31
0.0
  0
LINE
  5
1F9
330
1F
100
AcDbEntity
  8
0
  6
Continuous
 62
     7
370
    25
100
AcDbLine
 10
13.3709669227
 20
4.6230094187
 30
0.0
 11
13.76597411
 21
4.4660095786
 31
0.0
  0
LINE
  5
1FA
330
1F
100
AcDbEntity
  8
0
  6
Continuous
 62
     7
370
    25
100
AcDbLine
 10
13.1080374548
 20
4.5159943919
 30
0.0
 11
14.4201933123
 21
3.809917595
 31
0.0
  0
LINE
  5
1FB
330
1F
100
AcDbEntity
  8
0
  6
Continuous
 62
     7
370
    25
100
AcDbLine
 10
13.0070320558
 20
3.6759838092
 30
0.0
 11
13.1080374548
 21
4.5159943919
 31
0.0
  0
LINE
  5
1FC
330
1F
100
AcDbEntity
  8
0
  6
Continuous
 62
     7
370
    25
100
AcDbLine
 10
13.1937379344
 20
3.5062024903
 30
0.0
 11
13.2325272257
 21
3.5226626755
 31
0.0
  0
LINE
  5
1FD
330
1F
100
AcDbEntity
  8
0
  6
Continuous
 62
     7
370
    25
100
AcDbLine
 10
0.5173834575
 20
0.4164290629
 30
0.0
 11
0.5604227863
 21
0.774365346
 31
0.0
  0
LINE
  5
1FE
330
1F
100
AcDbEntity
  8
0
  6
Continuous
 62
     7
370
    25
100
AcDbLine
 10
-0.0303765223
 20
-0.6420406314
 30
0.0
 11
0.1134846732
 21
-0.5969131322
 31
0.0
  0
LINE
  5
1FF
330
1F
100
AcDbEntity
  8
0
  6
Continuous
 62
     7
370
    25
100
AcDbLine
 10
14.4201933123
 20
3.809917595
 30
0.0
 11
14.4040373775
 21
3.6755568935
 31
0.0
  0
LINE
  5
200
330
1F
100
AcDbEntity
  8
0
  6
Continuous
 62
     7
370
    25
100
AcDbLine
 10
13.4821556301
 20
3.3863738541
 30
0.0
 11
13.0070320558
 21
3.6759838092
 31
0.0
  0
ARC
  5
201
330
1F
100
AcDbEntity
  8
0
  6
Continuous
 62
     7
370
    25
100
AcDbCircle
 10
12.7809216628
 20
4.7477883484
 30
0.0
 40
0.0819437108291041
100
AcDbArc
 50
113.3446717796
 51
173.7246021934
  0
ARC
  5
202
330
1F
100
AcDbEntity
  8
0
  6
Continuous
 62
     7
370
    25
100
AcDbCircle
 10
13.2864984602
 20
4.6173337492
 30
0.0
 40
0.3576929155138448
100
AcDbArc
 50
60.5097687895
 51
110.0936148608
  0
ARC
  5
203
330
1F
100
AcDbEntity
  8
0
  6
Continuous
 62
     7
370
    25
100
AcDbCircle
 10
12.5820174422
 20
3.4872632297
 30
0.0
 40
0.0352907235164505
100
AcDbArc
 50
165.0953186029
 51
237.473276957
  0
ARC
  5
204
330
1F
100
AcDbEntity
  8
0
  6
Continuous
 62
     7
370
    25
100
AcDbCircle
 10
-0.167694304
 20
-0.3147187726
 30
0.0
 40
0.3591563901044989
100
AcDbArc
 50
245.2434126454
 51
289.8916643303
  0
ARC
  5
205
330
1F
100
AcDbEntity
  8
0
  6
Continuous
 62
     7
370
    25
100
AcDbCircle
 10
0.3642696278
 20
0.9099679601
 30
0.0
 40
0.0270436420270049
100
AcDbArc
 50
58.9697491645
 51
110.9270619003
  0
ARC
  5
206
330
1F
100
AcDbEntity
  8
0
  6
Continuous
 62
     7
370
    25
100
AcDbCircle
 10
2.3008864378
 20
-3.0882344314
 30
0.0
 40
2.07541365877917
100
AcDbArc
 50
102.2862016407
 51
112.5458059174
  0
ARC
  5
207
330
1F
100
AcDbEntity
  8
0
  6
Continuous
 62
     7
370
    25
100
AcDbCircle
 10
1.0504297805
 20
0.7478310248
 30
0.0
 40
2.075413658780448
100
AcDbArc
 50
282.2862016407
 51
292.5458059173
  0
ARC
  5
208
330
1F
100
AcDbEntity
  8
0
  6
Continuous
 62
     7
370
    25
100
AcDbCircle
 10
1.6471373764
 20
-1.2307969509
 30
0.0
 40
0.0571439958511939
100
AcDbArc
 50
112.8594741354
 51
149.154860064
  0
ARC
  5
209
330
1F
100
AcDbEntity
  8
0
  6
Continuous
 62
     7
370
    25
100
AcDbCircle
 10
1.0507180001
 20
0.7480544149
 30
0.0
 40
2.074717391883001
100
AcDbArc
 50
282.3054598626
 51
292.5265476955
  0
ARC
  5
20A
330
1F
100
AcDbEntity
  8
0
  6
Continuous
 62
     7
370
    25
100
AcDbCircle
 10
2.3005982181
 20
-3.0884578215
 30
0.0
 40
2.074717391883168
100
AcDbArc
 50
102.3054598626
 51
112.5265476955
  0
ARC
  5
20B
330
1F
100
AcDbEntity
  8
0
  6
Continuous
 62
     7
370
    25
100
AcDbCircle
 10
1.7867028174
 20
-1.1870169774
 30
0.0
 40
0.0571439958511919
100
AcDbArc
 50
112.8594741354
 51
149.154860064
  0
ARC
  5
20C
330
1F
100
AcDbEntity
  8
0
  6
Continuous
 62
     7
370
    25
100
AcDbCircle
 10
0.3002124805
 20
0.5097211134
 30
0.0
 40
0.0150738578292035
100
AcDbArc
 50
65.0407223047
 51
109.9919257312
  0
ARC
  5
20D
330
1F
100
AcDbEntity
  8
0
  6
Continuous
 62
     7
370
    25
100
AcDbCircle
 10
13.1515045175
 20
4.5112120377
 30
0.0
 40
0.0437293546051102
100
AcDbArc
 50
113.353705947
 51
173.7214286488
  0
ARC
  5
20E
330
1F
100
AcDbEntity
  8
0
  6
Continuous
 62
     7
370
    25
100
AcDbCircle
 10
13.0267036623
 20
3.6715355713
 30
0.0
 40
0.0201682652843175
100
AcDbArc
 50
167.258290956
 51
231.0661821156
  0
ARC
  5
20F
330
1F
100
AcDbEntity
  8
0
  6
Continuous
 62
     7
370
    25
100
AcDbCircle
 10
13.4623742187
 20
4.5138028446
 30
0.0
 40
0.3533945679789662
100
AcDbArc
 50
60.4944788513
 51
110.0933959494
  0
ENDSEC
  0
SECTION
  2
OBJECTS
  0
DICTIONARY
  5
C
330
0
100
AcDbDictionary
281
     1
  3
ACAD_GROUP
350
D
  3
ACAD_LAYOUT
350
1A
  3
ACAD_MLINESTYLE
350
17
  3
ACAD_PLOTSETTINGS
350
19
  3
ACAD_PLOTSTYLENAME
350
E
  3
ACAD_SCALELIST
350
47
  3
DWGPROPS
350
210
  0
DICTIONARY
  5
D
102
{ACAD_REACTORS
330
C
102
}
330
C
100
AcDbDictionary
281
     1
  0
DICTIONARY
  5
1A
102
{ACAD_REACTORS
330
C
102
}
330
C
100
AcDbDictionary
281
     1
  3
Layout1
350
1E
  3
Layout2
350
26
  3
Model
350
22
  0
DICTIONARY
  5
17
102
{ACAD_REACTORS
330
C
102
}
330
C
100
AcDbDictionary
281
     1
  3
Standard
350
18
  0
DICTIONARY
  5
19
102
{ACAD_REACTORS
330
C
102
}
330
C
100
AcDbDictionary
281
     1
  0
ACDBDICTIONARYWDFLT
  5
E
102
{ACAD_REACTORS
330
C
102
}
330
C
100
AcDbDictionary
281
     1
  3
Normal
350
F
100
AcDbDictionaryWithDefault
340
F
  0
DICTIONARY
  5
47
102
{ACAD_REACTORS
330
C
102
}
330
C
100
AcDbDictionary
281
     1
  3
A0
350
48
  3
A1
350
49
  3
A2
350
4A
  3
A3
350
4B
  3
A4
350
4C
  3
A5
350
4D
  3
A6
350
4E
  3
A7
350
4F
  3
A8
350
50
  3
A9
350
51
  3
B1
350
52
  3
B2
350
53
  3
B3
350
54
  3
B4
350
55
  3
B5
350
56
  3
B6
350
57
  3
B7
350
58
  0
XRECORD
  5
210
102
{ACAD_REACTORS
330
C
102
}
330
C
100
AcDbXrecord
280
     1
  1
DWGPROPS COOKIE
  2

  3

  4

  6

  7

  8
Alan Ramirez
  9

300
=
301
=
302
=
303
=
304
=
305
=
306
=
307
=
308
=
309
=
 40
0.0
 41
2460467.773669155
 42
2460467.773697512
  1

 90
        0
  0
LAYOUT
  5
1E
102
{ACAD_REACTORS
330
1A
102
}
330
1A
100
AcDbPlotSettings
  1

  2
none_device
  4

  6

 40
0.0
 41
0.0
 42
0.0
 43
0.0
 44
0.0
 45
0.0
 46
0.0
 47
0.0
 48
0.0
 49
0.0
140
0.0
141
0.0
142
1.0
143
1.0
 70
   688
 72
     0
 73
     0
 74
     5
  7

 75
    16
147
1.0
148
0.0
149
0.0
100
AcDbLayout
  1
Layout1
 70
     1
 71
     1
 10
0.0
 20
0.0
 11
12.0
 21
9.0
 12
0.0
 22
0.0
 32
0.0
 14
1.0000000000E+20
 24
1.0000000000E+20
 34
1.0000000000E+20
 15
-1.0000000000E+20
 25
-1.0000000000E+20
 35
-1.0000000000E+20
146
0.0
 13
0.0
 23
0.0
 33
0.0
 16
1.0
 26
0.0
 36
0.0
 17
0.0
 27
1.0
 37
0.0
 76
     0
330
1B
  0
LAYOUT
  5
26
102
{ACAD_REACTORS
330
1A
102
}
330
1A
100
AcDbPlotSettings
  1

  2
none_device
  4

  6

 40
0.0
 41
0.0
 42
0.0
 43
0.0
 44
0.0
 45
0.0
 46
0.0
 47
0.0
 48
0.0
 49
0.0
140
0.0
141
0.0
142
1.0
143
1.0
 70
   688
 72
     0
 73
     0
 74
     5
  7

 75
    16
147
1.0
148
0.0
149
0.0
100
AcDbLayout
  1
Layout2
 70
     1
 71
     2
 10
0.0
 20
0.0
 11
0.0
 21
0.0
 12
0.0
 22
0.0
 32
0.0
 14
0.0
 24
0.0
 34
0.0
 15
0.0
 25
0.0
 35
0.0
146
0.0
 13
0.0
 23
0.0
 33
0.0
 16
1.0
 26
0.0
 36
0.0
 17
0.0
 27
1.0
 37
0.0
 76
     0
330
23
  0
LAYOUT
  5
22
102
{ACAD_REACTORS
330
1A
102
}
330
1A
100
AcDbPlotSettings
  1

  2
none_device
  4
ANSI_A_(11.00_x_8.50_Inches)
  6

 40
6.35
 41
19.05
 42
6.35000508
 43
19.05000254
 44
279.4
 45
215.9
 46
7.0115544428
 47
59.3907792394
 48
0.0
 49
0.0
140
0.0
141
0.0
142
0.6758829985
143
1.0
 70
  1696
 72
     0
 73
     0
 74
     0
  7

 75
     0
147
0.5913241897
148
-39.4088153714
149
0.0
100
AcDbLayout
  1
Model
 70
     1
 71
     0
 10
0.0
 20
0.0
 11
12.0
 21
9.0
 12
0.0
 22
0.0
 32
0.0
 14
-0.6969335692
 24
-1.5372118434
 34
0.0
 15
15.4153225813
 25
4.9750266647
 35
0.0
146
0.0
 13
0.0
 23
0.0
 33
0.0
 16
1.0
 26
0.0
 36
0.0
 17
0.0
 27
1.0
 37
0.0
 76
     0
330
1F
331
29
  0
MLINESTYLE
  5
18
102
{ACAD_REACTORS
330
17
102
}
330
17
100
AcDbMlineStyle
  2
Standard
 70
     0
  3

 62
   256
 51
90.0
 52
90.0
 71
     2
 49
0.5
 62
   256
  6
BYLAYER
 49
-0.5
 62
   256
  6
BYLAYER
  0
ACDBPLACEHOLDER
  5
F
102
{ACAD_REACTORS
330
E
102
}
330
E
  0
SCALE
  5
48
102
{ACAD_REACTORS
330
47
102
}
330
47
100
AcDbScale
 70
     0
300
1:1
140
1.0
141
1.0
290
     1
  0
SCALE
  5
49
102
{ACAD_REACTORS
330
47
102
}
330
47
100
AcDbScale
 70
     0
300
1/128" = 1'-0"
140
0.0078125
141
12.0
290
     0
  0
SCALE
  5
4A
102
{ACAD_REACTORS
330
47
102
}
330
47
100
AcDbScale
 70
     0
300
1/64" = 1'-0"
140
0.015625
141
12.0
290
     0
  0
SCALE
  5
4B
102
{ACAD_REACTORS
330
47
102
}
330
47
100
AcDbScale
 70
     0
300
1/32" = 1'-0"
140
0.03125
141
12.0
290
     0
  0
SCALE
  5
4C
102
{ACAD_REACTORS
330
47
102
}
330
47
100
AcDbScale
 70
     0
300
1/16" = 1'-0"
140
0.0625
141
12.0
290
     0
  0
SCALE
  5
4D
102
{ACAD_REACTORS
330
47
102
}
330
47
100
AcDbScale
 70
     0
300
3/32" = 1'-0"
140
0.09375
141
12.0
290
     0
  0
SCALE
  5
4E
102
{ACAD_REACTORS
330
47
102
}
330
47
100
AcDbScale
 70
     0
300
1/8" = 1'-0"
140
0.125
141
12.0
290
     0
  0
SCALE
  5
4F
102
{ACAD_REACTORS
330
47
102
}
330
47
100
AcDbScale
 70
     0
300
3/16" = 1'-0"
140
0.1875
141
12.0
290
     0
  0
SCALE
  5
50
102
{ACAD_REACTORS
330
47
102
}
330
47
100
AcDbScale
 70
     0
300
1/4" = 1'-0"
140
0.25
141
12.0
290
     0
  0
SCALE
  5
51
102
{ACAD_REACTORS
330
47
102
}
330
47
100
AcDbScale
 70
     0
300
3/8" = 1'-0"
140
0.375
141
12.0
290
     0
  0
SCALE
  5
52
102
{ACAD_REACTORS
330
47
102
}
330
47
100
AcDbScale
 70
     0
300
1/2" = 1'-0"
140
0.5
141
12.0
290
     0
  0
SCALE
  5
53
102
{ACAD_REACTORS
330
47
102
}
330
47
100
AcDbScale
 70
     0
300
3/4" = 1'-0"
140
0.75
141
12.0
290
     0
  0
SCALE
  5
54
102
{ACAD_REACTORS
330
47
102
}
330
47
100
AcDbScale
 70
     0
300
1" = 1'-0"
140
1.0
141
12.0
290
     0
  0
SCALE
  5
55
102
{ACAD_REACTORS
330
47
102
}
330
47
100
AcDbScale
 70
     0
300
1-1/2" = 1'-0"
140
1.5
141
12.0
290
     0
  0
SCALE
  5
56
102
{ACAD_REACTORS
330
47
102
}
330
47
100
AcDbScale
 70
     0
300
3" = 1'-0"
140
3.0
141
12.0
290
     0
  0
SCALE
  5
57
102
{ACAD_REACTORS
330
47
102
}
330
47
100
AcDbScale
 70
     0
300
6" = 1'-0"
140
6.0
141
12.0
290
     0
  0
SCALE
  5
58
102
{ACAD_REACTORS
330
47
102
}
330
47
100
AcDbScale
 70
     0
300
1'-0" = 1'-0"
140
12.0
141
12.0
290
     0
  0
ENDSEC
  0
EOF
