  0
SECTION
  2
HEADER
  9
$ACADVER
  1
AC1015
  9
$ACADMAINTVER
 70
     6
  9
$DWGCODEPAGE
  3
ANSI_1252
  9
$INSBASE
 10
0.0
 20
0.0
 30
0.0
  9
$EXTMIN
 10
-1.6718985592
 20
-0.1560419402
 30
0.0
  9
$EXTMAX
 10
3.6414303518
 20
5.3150999275
 30
0.0
  9
$LIMMIN
 10
0.0
 20
0.0
  9
$LIMMAX
 10
12.0
 20
9.0
  9
$ORTHOMODE
 70
     0
  9
$REGENMODE
 70
     1
  9
$FILLMODE
 70
     1
  9
$QTEXTMODE
 70
     0
  9
$MIRRTEXT
 70
     1
  9
$LTSCALE
 40
1.0
  9
$ATTMODE
 70
     1
  9
$TEXTSIZE
 40
0.125
  9
$TRACEWID
 40
0.05
  9
$TEXTSTYLE
  7
Standard
  9
$CLAYER
  8
0
  9
$CELTYPE
  6
ByLayer
  9
$CECOLOR
 62
   256
  9
$CELTSCALE
 40
1.0
  9
$DISPSILH
 70
     0
  9
$DIMSCALE
 40
1.0
  9
$DIMASZ
 40
0.13
  9
$DIMEXO
 40
0.0
  9
$DIMDLI
 40
0.38
  9
$DIMRND
 40
0.0
  9
$DIMDLE
 40
0.0
  9
$DIMEXE
 40
0.125
  9
$DIMTP
 40
0.0
  9
$DIMTM
 40
0.0
  9
$DIMTXT
 40
0.125
  9
$DIMCEN
 40
0.09
  9
$DIMTSZ
 40
0.0
  9
$DIMTOL
 70
     0
  9
$DIMLIM
 70
     0
  9
$DIMTIH
 70
     1
  9
$DIMTOH
 70
     1
  9
$DIMSE1
 70
     0
  9
$DIMSE2
 70
     0
  9
$DIMTAD
 70
     0
  9
$DIMZIN
 70
     1
  9
$DIMBLK
  1

  9
$DIMASO
 70
     1
  9
$DIMSHO
 70
     1
  9
$DIMPOST
  1

  9
$DIMAPOST
  1

  9
$DIMALT
 70
     0
  9
$DIMALTD
 70
     2
  9
$DIMALTF
 40
25.4
  9
$DIMLFAC
 40
1.0
  9
$DIMTOFL
 70
     0
  9
$DIMTVP
 40
0.0
  9
$DIMTIX
 70
     0
  9
$DIMSOXD
 70
     0
  9
$DIMSAH
 70
     0
  9
$DIMBLK1
  1

  9
$DIMBLK2
  1

  9
$DIMSTYLE
  2
Standard
  9
$DIMCLRD
 70
     0
  9
$DIMCLRE
 70
     0
  9
$DIMCLRT
 70
     0
  9
$DIMTFAC
 40
1.0
  9
$DIMGAP
 40
0.06
  9
$DIMJUST
 70
     0
  9
$DIMSD1
 70
     0
  9
$DIMSD2
 70
     0
  9
$DIMTOLJ
 70
     1
  9
$DIMTZIN
 70
     1
  9
$DIMALTZ
 70
     0
  9
$DIMALTTZ
 70
     0
  9
$DIMUPT
 70
     0
  9
$DIMDEC
 70
     3
  9
$DIMTDEC
 70
     3
  9
$DIMALTU
 70
     2
  9
$DIMALTTD
 70
     2
  9
$DIMTXSTY
  7
Standard
  9
$DIMAUNIT
 70
     0
  9
$DIMADEC
 70
     2
  9
$DIMALTRND
 40
0.0
  9
$DIMAZIN
 70
     0
  9
$DIMDSEP
 70
    46
  9
$DIMATFIT
 70
     3
  9
$DIMFRAC
 70
     0
  9
$DIMLDRBLK
  1

  9
$DIMLUNIT
 70
     2
  9
$DIMLWD
 70
    -2
  9
$DIMLWE
 70
    -2
  9
$DIMTMOVE
 70
     0
  9
$LUNITS
 70
     2
  9
$LUPREC
 70
     3
  9
$SKETCHINC
 40
0.1
  9
$FILLETRAD
 40
0.0
  9
$AUNITS
 70
     0
  9
$AUPREC
 70
     2
  9
$MENU
  1
.
  9
$ELEVATION
 40
0.0
  9
$PELEVATION
 40
0.0
  9
$THICKNESS
 40
0.0
  9
$LIMCHECK
 70
     0
  9
$CHAMFERA
 40
0.0
  9
$CHAMFERB
 40
0.0
  9
$CHAMFERC
 40
0.0
  9
$CHAMFERD
 40
0.0
  9
$SKPOLY
 70
     0
  9
$TDCREATE
 40
2460425.427117118
  9
$TDUCREATE
 40
2460425.677117118
  9
$TDUPDATE
 40
2460425.427154965
  9
$TDUUPDATE
 40
2460425.677154965
  9
$TDINDWG
 40
0.0000000116
  9
$TDUSRTIMER
 40
0.0000000116
  9
$USRTIMER
 70
     1
  9
$ANGBASE
 50
0.0
  9
$ANGDIR
 70
     0
  9
$PDMODE
 70
     0
  9
$PDSIZE
 40
-1.0
  9
$PLINEWID
 40
0.0
  9
$SPLFRAME
 70
     0
  9
$SPLINETYPE
 70
     6
  9
$SPLINESEGS
 70
     8
  9
$HANDSEED
  5
2DB
  9
$SURFTAB1
 70
     6
  9
$SURFTAB2
 70
     6
  9
$SURFTYPE
 70
     6
  9
$SURFU
 70
     6
  9
$SURFV
 70
     6
  9
$UCSBASE
  2

  9
$UCSNAME
  2

  9
$UCSORG
 10
0.0
 20
0.0
 30
0.0
  9
$UCSXDIR
 10
1.0
 20
0.0
 30
0.0
  9
$UCSYDIR
 10
0.0
 20
1.0
 30
0.0
  9
$UCSORTHOREF
  2

  9
$UCSORTHOVIEW
 70
     0
  9
$UCSORGTOP
 10
0.0
 20
0.0
 30
0.0
  9
$UCSORGBOTTOM
 10
0.0
 20
0.0
 30
0.0
  9
$UCSORGLEFT
 10
0.0
 20
0.0
 30
0.0
  9
$UCSORGRIGHT
 10
0.0
 20
0.0
 30
0.0
  9
$UCSORGFRONT
 10
0.0
 20
0.0
 30
0.0
  9
$UCSORGBACK
 10
0.0
 20
0.0
 30
0.0
  9
$PUCSBASE
  2

  9
$PUCSNAME
  2

  9
$PUCSORG
 10
0.0
 20
0.0
 30
0.0
  9
$PUCSXDIR
 10
1.0
 20
0.0
 30
0.0
  9
$PUCSYDIR
 10
0.0
 20
1.0
 30
0.0
  9
$PUCSORTHOREF
  2

  9
$PUCSORTHOVIEW
 70
     0
  9
$PUCSORGTOP
 10
0.0
 20
0.0
 30
0.0
  9
$PUCSORGBOTTOM
 10
0.0
 20
0.0
 30
0.0
  9
$PUCSORGLEFT
 10
0.0
 20
0.0
 30
0.0
  9
$PUCSORGRIGHT
 10
0.0
 20
0.0
 30
0.0
  9
$PUCSORGFRONT
 10
0.0
 20
0.0
 30
0.0
  9
$PUCSORGBACK
 10
0.0
 20
0.0
 30
0.0
  9
$USERI1
 70
     0
  9
$USERI2
 70
     0
  9
$USERI3
 70
     0
  9
$USERI4
 70
     0
  9
$USERI5
 70
     0
  9
$USERR1
 40
0.0
  9
$USERR2
 40
0.0
  9
$USERR3
 40
0.0
  9
$USERR4
 40
0.0
  9
$USERR5
 40
0.0
  9
$WORLDVIEW
 70
     1
  9
$SHADEDGE
 70
     3
  9
$SHADEDIF
 70
    70
  9
$TILEMODE
 70
     1
  9
$MAXACTVP
 70
    64
  9
$PINSBASE
 10
0.0
 20
0.0
 30
0.0
  9
$PLIMCHECK
 70
     0
  9
$PEXTMIN
 10
1.0000000000E+20
 20
1.0000000000E+20
 30
1.0000000000E+20
  9
$PEXTMAX
 10
-1.0000000000E+20
 20
-1.0000000000E+20
 30
-1.0000000000E+20
  9
$PLIMMIN
 10
0.0
 20
0.0
  9
$PLIMMAX
 10
12.0
 20
9.0
  9
$UNITMODE
 70
     0
  9
$VISRETAIN
 70
     1
  9
$PLINEGEN
 70
     0
  9
$PSLTSCALE
 70
     1
  9
$TREEDEPTH
 70
  3020
  9
$CMLSTYLE
  2
Standard
  9
$CMLJUST
 70
     0
  9
$CMLSCALE
 40
1.0
  9
$PROXYGRAPHICS
 70
     1
  9
$MEASUREMENT
 70
     0
  9
$CELWEIGHT
370
    -1
  9
$ENDCAPS
280
     0
  9
$JOINSTYLE
280
     0
  9
$LWDISPLAY
290
     1
  9
$INSUNITS
 70
     1
  9
$HYPERLINKBASE
  1

  9
$STYLESHEET
  1

  9
$XEDIT
290
     1
  9
$CEPSNTYPE
380
     0
  9
$PSTYLEMODE
290
     1
  9
$FINGERPRINTGUID
  2
{0126f16b-1d45-4200-974b-02c70d55ffc5}
  9
$VERSIONGUID
  2
{FAEB1C32-E019-11D5-929B-00C0DF256EC4}
  9
$EXTNAMES
290
     1
  9
$PSVPSCALE
 40
0.0
  9
$OLESTARTUP
290
     0
  0
ENDSEC
  0
SECTION
  2
CLASSES
  0
CLASS
  1
ACDBDICTIONARYWDFLT
  2
AcDbDictionaryWithDefault
  3
ObjectDBX Classes
 90
        0
280
     0
281
     0
  0
CLASS
  1
VISUALSTYLE
  2
AcDbVisualStyle
  3
ObjectDBX Classes
 90
     4095
280
     0
281
     0
  0
CLASS
  1
MATERIAL
  2
AcDbMaterial
  3
ObjectDBX Classes
 90
     1153
280
     0
281
     0
  0
CLASS
  1
SCALE
  2
AcDbScale
  3
ObjectDBX Classes
 90
     1153
280
     0
281
     0
  0
CLASS
  1
TABLESTYLE
  2
AcDbTableStyle
  3
ObjectDBX Classes
 90
     4095
280
     0
281
     0
  0
CLASS
  1
MLEADERSTYLE
  2
AcDbMLeaderStyle
  3
ACDB_MLEADERSTYLE_CLASS
 90
     4095
280
     0
281
     0
  0
CLASS
  1
SUN
  2
AcDbSun
  3
SCENEOE
 90
     1153
280
     0
281
     0
  0
CLASS
  1
ACDBPLACEHOLDER
  2
AcDbPlaceHolder
  3
ObjectDBX Classes
 90
        0
280
     0
281
     0
  0
CLASS
  1
LAYOUT
  2
AcDbLayout
  3
ObjectDBX Classes
 90
        0
280
     0
281
     0
  0
ENDSEC
  0
SECTION
  2
TABLES
  0
TABLE
  2
VPORT
  5
8
330
0
100
AcDbSymbolTable
 70
     1
  0
VPORT
  5
29
330
8
100
AcDbSymbolTableRecord
100
AcDbViewportTableRecord
  2
*Active
 70
     0
 10
0.0
 20
0.0
 11
1.0
 21
1.0
 12
0.9847658963
 22
2.5795289936
 13
0.0
 23
0.0
 14
0.5
 24
0.5
 15
0.5
 25
0.5
 16
0.0
 26
0.0
 36
1.0
 17
0.0
 27
0.0
 37
0.0
 40
5.5805647051
 41
0.9711553894
 42
50.0
 43
0.0
 44
0.0
 50
0.0
 51
0.0
 71
     0
 72
   100
 73
     1
 74
     3
 75
     0
 76
     0
 77
     0
 78
     0
281
     0
 65
     1
110
0.0
120
0.0
130
0.0
111
1.0
121
0.0
131
0.0
112
0.0
122
1.0
132
0.0
 79
     0
146
0.0
  0
ENDTAB
  0
TABLE
  2
LTYPE
  5
5
330
0
100
AcDbSymbolTable
 70
     6
  0
LTYPE
  5
14
330
5
100
AcDbSymbolTableRecord
100
AcDbLinetypeTableRecord
  2
ByBlock
 70
     0
  3

 72
    65
 73
     0
 40
0.0
  0
LTYPE
  5
15
330
5
100
AcDbSymbolTableRecord
100
AcDbLinetypeTableRecord
  2
ByLayer
 70
     0
  3

 72
    65
 73
     0
 40
0.0
  0
LTYPE
  5
16
330
5
100
AcDbSymbolTableRecord
100
AcDbLinetypeTableRecord
  2
Continuous
 70
     0
  3
Solid line
 72
    65
 73
     0
 40
0.0
  0
LTYPE
  5
5E
330
5
100
AcDbSymbolTableRecord
100
AcDbLinetypeTableRecord
  2
HIDDEN
 70
     0
  3
Hidden __ __ __ __ __ __ __ __ __ __ __ __ __ __
 72
    65
 73
     2
 40
0.075
 49
0.05
 74
     0
 49
-0.025
 74
     0
  0
LTYPE
  5
5F
330
5
100
AcDbSymbolTableRecord
100
AcDbLinetypeTableRecord
  2
PHANTOM
 70
     0
  3
Phantom ______  __  __  ______  __  __  ______
 72
    65
 73
     6
 40
0.5
 49
0.25
 74
     0
 49
-0.05
 74
     0
 49
0.05
 74
     0
 49
-0.05
 74
     0
 49
0.05
 74
     0
 49
-0.05
 74
     0
  0
LTYPE
  5
60
330
5
100
AcDbSymbolTableRecord
100
AcDbLinetypeTableRecord
  2
CENTER
 70
     0
  3
Center ____ _ ____ _ ____ _ ____ _ ____ _ ____
 72
    65
 73
     4
 40
0.4
 49
0.25
 74
     0
 49
-0.05
 74
     0
 49
0.05
 74
     0
 49
-0.05
 74
     0
  0
LTYPE
  5
61
330
5
100
AcDbSymbolTableRecord
100
AcDbLinetypeTableRecord
  2
CENTERX2
 70
     0
  3
Center (2x) ________  __  ________  __  _____
 72
    65
 73
     4
 40
0.8
 49
0.5
 74
     0
 49
-0.1
 74
     0
 49
0.1
 74
     0
 49
-0.1
 74
     0
  0
LTYPE
  5
62
330
5
100
AcDbSymbolTableRecord
100
AcDbLinetypeTableRecord
  2
DOT2
 70
     0
  3
Dot (.5x) ........................................
 72
    65
 73
     2
 40
0.025
 49
0.0
 74
     0
 49
-0.025
 74
     0
  0
ENDTAB
  0
TABLE
  2
LAYER
  5
2
330
0
100
AcDbSymbolTable
 70
     1
  0
LAYER
  5
10
330
2
100
AcDbSymbolTableRecord
100
AcDbLayerTableRecord
  2
0
 70
     0
 62
     7
  6
Continuous
370
    -3
390
F
  0
ENDTAB
  0
TABLE
  2
STYLE
  5
3
330
0
100
AcDbSymbolTable
 70
     1
  0
STYLE
  5
11
330
3
100
AcDbSymbolTableRecord
100
AcDbTextStyleTableRecord
  2
Standard
 70
     0
 40
0.0
 41
1.0
 50
0.0
 71
     0
 42
0.125
  3
txt
  4

  0
ENDTAB
  0
TABLE
  2
VIEW
  5
6
330
0
100
AcDbSymbolTable
 70
     0
  0
ENDTAB
  0
TABLE
  2
UCS
  5
7
330
0
100
AcDbSymbolTable
 70
     0
  0
ENDTAB
  0
TABLE
  2
APPID
  5
9
330
0
100
AcDbSymbolTable
 70
     1
  0
APPID
  5
12
330
9
100
AcDbSymbolTableRecord
100
AcDbRegAppTableRecord
  2
ACAD
 70
     0
  0
ENDTAB
  0
TABLE
  2
DIMSTYLE
  5
A
330
0
100
AcDbSymbolTable
 70
     1
100
AcDbDimStyleTable
  0
DIMSTYLE
105
27
330
A
100
AcDbSymbolTableRecord
100
AcDbDimStyleTableRecord
  2
Standard
 70
     0
178
     0
340
11
  0
ENDTAB
  0
TABLE
  2
BLOCK_RECORD
  5
1
330
0
100
AcDbSymbolTable
 70
     1
  0
BLOCK_RECORD
  5
1F
330
1
100
AcDbSymbolTableRecord
100
AcDbBlockTableRecord
  2
*Model_Space
340
22
  0
BLOCK_RECORD
  5
1B
330
1
100
AcDbSymbolTableRecord
100
AcDbBlockTableRecord
  2
*Paper_Space
340
1E
  0
BLOCK_RECORD
  5
23
330
1
100
AcDbSymbolTableRecord
100
AcDbBlockTableRecord
  2
*Paper_Space0
340
26
  0
ENDTAB
  0
ENDSEC
  0
SECTION
  2
BLOCKS
  0
BLOCK
  5
20
330
1F
100
AcDbEntity
  8
0
100
AcDbBlockBegin
  2
*Model_Space
 70
     0
 10
0.0
 20
0.0
 30
0.0
  3
*Model_Space
  1

  0
ENDBLK
  5
21
330
1F
100
AcDbEntity
  8
0
100
AcDbBlockEnd
  0
BLOCK
  5
1C
330
1B
100
AcDbEntity
 67
     1
  8
0
100
AcDbBlockBegin
  2
*Paper_Space
 70
     0
 10
0.0
 20
0.0
 30
0.0
  3
*Paper_Space
  1

  0
ENDBLK
  5
1D
330
1B
100
AcDbEntity
 67
     1
  8
0
100
AcDbBlockEnd
  0
BLOCK
  5
24
330
23
100
AcDbEntity
  8
0
100
AcDbBlockBegin
  2
*Paper_Space0
 70
     0
 10
0.0
 20
0.0
 30
0.0
  3
*Paper_Space0
  1

  0
ENDBLK
  5
25
330
23
100
AcDbEntity
  8
0
100
AcDbBlockEnd
  0
ENDSEC
  0
SECTION
  2
ENTITIES
  0
SPLINE
  5
66
330
1F
100
AcDbEntity
  8
0
  6
Continuous
 62
     7
370
    25
100
AcDbSpline
210
0.0
220
0.0
230
1.0
 70
     8
 71
     3
 72
    11
 73
     7
 74
     0
 42
0.00000001
 43
0.00000001
 40
0.0
 40
0.0
 40
0.0
 40
0.0
 40
0.0313914520175491
 40
0.4516753359260772
 40
0.8784586972291595
 40
1.0
 40
1.0
 40
1.0
 40
1.0
 10
0.708831341039134
 20
0.8302396203420338
 30
0.0
 10
0.7089164466189888
 20
0.8306800205845761
 30
0.0
 10
0.7101409867055262
 20
0.8370167114576528
 30
0.0
 10
0.7035424023460151
 20
0.8493668012837671
 30
0.0
 10
0.6933676721216466
 20
0.8601309119789045
 30
0.0
 10
0.6854336392572772
 20
0.8649724259999151
 30
0.0
 10
0.6836749864850356
 20
0.8660455929757083
 30
0.0
  0
LWPOLYLINE
  5
69
330
1F
100
AcDbEntity
  8
0
  6
Continuous
 62
     7
370
    25
100
AcDbPolyline
 90
        3
 70
   128
 43
0.0
 10
0.3589325752
 20
4.0148810438
 10
0.91262506
 20
3.8153449971
 10
1.5826110727
 20
3.5738962271
  0
SPLINE
  5
6A
330
1F
100
AcDbEntity
  8
0
  6
Continuous
 62
     7
370
    25
100
AcDbSpline
210
0.0
220
0.0
230
1.0
 70
     8
 71
     3
 72
    23
 73
    19
 74
     0
 42
0.00000001
 43
0.00000001
 40
0.0
 40
0.0
 40
0.0
 40
0.0
 40
0.1045409393363802
 40
0.1837814286505599
 40
0.2391950981945561
 40
0.2911527366141727
 40
0.345887612812318
 40
0.4021039816733618
 40
0.4582887844915847
 40
0.5110522054223631
 40
0.5555893389161779
 40
0.6012871017205856
 40
0.6541514443977829
 40
0.7087726746280661
 40
0.760641694679458
 40
0.8161122332757463
 40
0.895423508335134
 40
1.0
 40
1.0
 40
1.0
 40
1.0
 10
1.610061262384147
 20
3.574019819301966
 30
0.0
 10
1.643238970200317
 20
3.586630520097037
 30
0.0
 10
1.7015648909402
 20
3.608799945999606
 30
0.0
 10
1.774741596548584
 20
3.639675788450919
 30
0.0
 10
1.830623432594101
 20
3.664554382657139
 30
0.0
 10
1.878187872983575
 20
3.686789464797058
 30
0.0
 10
1.92498480628685
 20
3.709726408747424
 30
0.0
 10
1.971876291982585
 20
3.733881083584471
 30
0.0
 10
2.01705793796555
 20
3.758356042570382
 30
0.0
 10
2.057960164414112
 20
3.781631302675553
 30
0.0
 10
2.09513845866632
 20
3.803749025427296
 30
0.0
 10
2.131473247449425
 20
3.826275013331972
 30
0.0
 10
2.169320787975384
 20
3.850826996658192
 30
0.0
 10
2.207469969541171
 20
3.876847807697601
 30
0.0
 10
2.244998064454114
 20
3.903755374764537
 30
0.0
 10
2.286742744116556
 20
3.935294627316483
 30
0.0
 10
2.338140110754229
 20
3.976465662047386
 30
0.0
 10
2.374305276998072
 20
4.009024163896747
 30
0.0
 10
2.394872312389442
 20
4.027540098686339
 30
0.0
  0
LWPOLYLINE
  5
6E
330
1F
100
AcDbEntity
  8
0
  6
Continuous
 62
     7
370
    25
100
AcDbPolyline
 90
        3
 70
   128
 43
0.0
 10
2.380126836
 20
4.1897580064
 10
1.6235355088
 20
4.5868008114
 10
0.9593610982
 20
4.9353545068
  0
SPLINE
  5
71
330
1F
100
AcDbEntity
  8
0
  6
Continuous
 62
     7
370
    25
100
AcDbSpline
210
0.0
220
0.0
230
1.0
 70
     8
 71
     3
 72
    11
 73
     7
 74
     0
 42
0.00000001
 43
0.00000001
 40
0.0
 40
0.0
 40
0.0
 40
0.0
 40
0.2104577038772797
 40
0.4614003950749338
 40
0.7246619425995634
 40
1.0
 40
1.0
 40
1.0
 40
1.0
 10
0.0138537411654597
 20
4.000966357114783
 30
0.0
 10
0.0342732137662978
 20
4.011707962090733
 30
0.0
 10
0.0790401790599146
 20
4.035257495742076
 30
0.0
 10
0.1609577384822681
 20
4.049024574996557
 30
0.0
 10
0.2568575834402833
 20
4.046193766684041
 30
0.0
 10
0.3267905848676048
 20
4.024600784551831
 30
0.0
 10
0.36254110637766
 20
4.013562213971015
 30
0.0
  0
LWPOLYLINE
  5
72
330
1F
100
AcDbEntity
  8
0
  6
Continuous
 62
     7
370
    25
100
AcDbPolyline
 90
        3
 70
   128
 43
0.0
 10
-0.9520572335
 20
4.8642862822
 10
-0.9795401682
 20
4.6390183602
 10
-0.9976747647
 20
4.4904438015
  0
SPLINE
  5
74
330
1F
100
AcDbEntity
  8
0
  6
Continuous
 62
     7
370
    25
100
AcDbSpline
210
0.0
220
0.0
230
1.0
 70
     8
 71
     3
 72
    26
 73
    22
 74
     0
 42
0.00000001
 43
0.00000001
 40
0.0
 40
0.0
 40
0.0
 40
0.0
 40
0.0763851154687778
 40
0.1347769300537079
 40
0.1760014660152351
 40
0.2315280992957097
 40
0.2883161157786663
 40
0.3457594860529868
 40
0.4028956195087996
 40
0.4601283891622268
 40
0.5176054193966829
 40
0.574773751430801
 40
0.6324606951163505
 40
0.6909249807323893
 40
0.7509053557395474
 40
0.7986420497187977
 40
0.8450039323621227
 40
0.8762175693140073
 40
0.9151028403631668
 40
0.962749290183261
 40
1.0
 40
1.0
 40
1.0
 40
1.0
 10
0.4603848257811258
 20
5.194829018750891
 30
0.0
 10
0.4292236315702418
 20
5.211653981030174
 30
0.0
 10
0.374241583473882
 20
5.241340612389631
 30
0.0
 10
0.2861393165836735
 20
5.270230160989981
 30
0.0
 10
0.2035475708684162
 20
5.290785643714087
 30
0.0
 10
0.116480136224439
 20
5.305599131138628
 30
0.0
 10
0.0153817625256951
 20
5.314731710430043
 30
0.0
 10
-0.0898884766934276
 20
5.31642242109006
 30
0.0
 10
-0.1967321239887634
 20
5.310538834530605
 30
0.0
 10
-0.3029553835841254
 20
5.297129610870612
 30
0.0
 10
-0.4066334927342201
 20
5.27649750042953
 30
0.0
 10
-0.5061005995705721
 20
5.248870248416296
 30
0.0
 10
-0.599820538147628
 20
5.214596035103668
 30
0.0
 10
-0.6869670710560254
 20
5.173703635328708
 30
0.0
 10
-0.759677199579315
 20
5.129753036253737
 30
0.0
 10
-0.8180235678059303
 20
5.08536278049133
 30
0.0
 10
-0.858590760237793
 20
5.046532660479622
 30
0.0
 10
-0.8905442552084883
 20
5.008936110943785
 30
0.0
 10
-0.9171500480736529
 20
4.969211724033928
 30
0.0
 10
-0.9389417433397796
 20
4.925952721460932
 30
0.0
 10
-0.9448305507874502
 20
4.895600620307938
 30
0.0
 10
-0.94741440940343
 20
4.88228289192674
 30
0.0
  0
SPLINE
  5
75
330
1F
100
AcDbEntity
  8
0
  6
Continuous
 62
     7
370
    25
100
AcDbSpline
210
0.0
220
0.0
230
1.0
 70
     8
 71
     3
 72
    12
 73
     8
 74
     0
 42
0.00000001
 43
0.00000001
 40
0.0
 40
0.0
 40
0.0
 40
0.0
 40
0.2484161779472574
 40
0.4967271175850824
 40
0.7465222530264012
 40
0.8731434663042786
 40
1.0
 40
1.0
 40
1.0
 40
1.0
 10
-0.219046037348828
 20
3.74294313892134
 30
0.0
 10
-0.2154483063138482
 20
3.741422746760081
 30
0.0
 10
-0.2082543683762337
 20
3.738382606532092
 30
0.0
 10
-0.1943863761617867
 20
3.737173197710813
 30
0.0
 10
-0.1829738902104991
 20
3.738590123885694
 30
0.0
 10
-0.1747611490100164
 20
3.741123865090731
 30
0.0
 10
-0.1713256771733052
 20
3.742920364729414
 30
0.0
 10
-0.1696063465653215
 20
3.743819448454395
 30
0.0
  0
SPLINE
  5
78
330
1F
100
AcDbEntity
  8
0
  6
Continuous
 62
     7
370
    25
100
AcDbSpline
210
0.0
220
0.0
230
1.0
 70
     8
 71
     3
 72
    10
 73
     6
 74
     0
 42
0.00000001
 43
0.00000001
 40
0.0
 40
0.0
 40
0.0
 40
0.0
 40
0.2844117855119551
 40
0.6533322290476758
 40
1.0
 40
1.0
 40
1.0
 40
1.0
 10
-0.768609022154604
 20
4.084776454317429
 30
0.0
 10
-0.7372102265826123
 20
4.063463043036727
 30
0.0
 10
-0.6650829584965315
 20
4.014503262851927
 30
0.0
 10
-0.5550945243452703
 20
3.939679621457294
 30
0.0
 10
-0.4766645183760603
 20
3.886150567790786
 30
0.0
 10
-0.4386689857573803
 20
3.860218338416338
 30
0.0
  0
SPLINE
  5
79
330
1F
100
AcDbEntity
  8
0
  6
Continuous
 62
     7
370
    25
100
AcDbSpline
210
0.0
220
0.0
230
1.0
 70
     8
 71
     3
 72
     9
 73
     5
 74
     0
 42
0.00000001
 43
0.00000001
 40
0.0
 40
0.0
 40
0.0
 40
0.0
 40
0.5003615190979378
 40
0.9999999999999999
 40
0.9999999999999999
 40
0.9999999999999999
 40
0.9999999999999999
 10
0.9623325806165999
 20
4.933803877298403
 30
0.0
 10
0.8785713649592835
 20
4.977345779622881
 30
0.0
 10
0.7111699712463478
 20
5.064366664847984
 30
0.0
 10
0.5439392572677022
 20
5.15136270011054
 30
0.0
 10
0.4603843573752444
 20
5.194829267013627
 30
0.0
  0
SPLINE
  5
7B
330
1F
100
AcDbEntity
  8
0
  6
Continuous
 62
     7
370
    25
100
AcDbSpline
210
0.0
220
0.0
230
1.0
 70
     8
 71
     3
 72
    12
 73
     8
 74
     0
 42
0.00000001
 43
0.00000001
 40
0.0
 40
0.0
 40
0.0
 40
0.0
 40
0.1272492464242378
 40
0.3939905953125528
 40
0.6609578907037655
 40
0.9282031810269314
 40
1.0
 40
1.0
 40
1.0
 40
1.0
 10
0.0155460074774289
 20
3.85070483482672
 30
0.0
 10
0.0290317590415108
 20
3.853490566466124
 30
0.0
 10
0.0707864997278003
 20
3.862115781136004
 30
0.0
 10
0.1367885184982421
 20
3.882419080588037
 30
0.0
 10
0.2122903686606984
 20
3.91101439136834
 30
0.0
 10
0.2648150828342561
 20
3.936370295113908
 30
0.0
 10
0.2920675138927163
 20
3.951800443737691
 30
0.0
 10
0.2978385901267033
 20
3.955067989440994
 30
0.0
  0
SPLINE
  5
7C
330
1F
100
AcDbEntity
  8
0
  6
Continuous
 62
     7
370
    25
100
AcDbSpline
210
0.0
220
0.0
230
1.0
 70
     8
 71
     3
 72
    16
 73
    12
 74
     0
 42
0.00000001
 43
0.00000001
 40
0.0
 40
0.0
 40
0.0
 40
0.0
 40
0.0030585917889071
 40
0.1317499263252529
 40
0.2614386576020342
 40
0.3922324991717777
 40
0.5238461002527544
 40
0.6558984290185969
 40
0.7880974785745429
 40
0.9202519259281284
 40
1.0
 40
1.0
 40
1.0
 40
1.0
 10
-0.984964850693422
 20
4.150042350949199
 30
0.0
 10
-0.9848576541775504
 20
4.149644007327768
 30
0.0
 10
-0.9802401262290205
 20
4.132485214524491
 30
0.0
 10
-0.9617493681881158
 20
4.099931866588011
 30
0.0
 10
-0.9291049733293467
 20
4.053299945454193
 30
0.0
 10
-0.885759515329266
 20
4.009581575929227
 30
0.0
 10
-0.8337697401331606
 20
3.969166930612979
 30
0.0
 10
-0.7735069629261692
 20
3.932631674701275
 30
0.0
 10
-0.7057039251758879
 20
3.900782987348574
 30
0.0
 10
-0.6419875584033736
 20
3.876618842815757
 30
0.0
 10
-0.5991977097762099
 20
3.865382223099419
 30
0.0
 10
-0.5830940410001703
 20
3.86115339762142
 30
0.0
  0
SPLINE
  5
7D
330
1F
100
AcDbEntity
  8
0
  6
Continuous
 62
     7
370
    25
100
AcDbSpline
210
0.0
220
0.0
230
1.0
 70
     8
 71
     3
 72
     9
 73
     5
 74
     0
 42
0.00000001
 43
0.00000001
 40
0.0
 40
0.0
 40
0.0
 40
0.0
 40
0.3945280864446455
 40
1.0
 40
1.0
 40
1.0
 40
1.0
 10
0.2978385901267036
 20
3.955067989440994
 30
0.0
 10
0.3089092364947395
 20
3.961624973817667
 30
0.0
 10
0.3369697136785085
 20
3.978244790256499
 30
0.0
 10
0.3610362284451734
 20
3.996856419035162
 30
0.0
 10
0.375607827193554
 20
4.008125237526161
 30
0.0
  0
SPLINE
  5
7E
330
1F
100
AcDbEntity
  8
0
  6
Continuous
 62
     7
370
    25
100
AcDbSpline
210
0.0
220
0.0
230
1.0
 70
     8
 71
     3
 72
    10
 73
     6
 74
     0
 42
0.00000001
 43
0.00000001
 40
0.0
 40
0.0
 40
0.0
 40
0.0
 40
0.333086231934855
 40
0.6664193616315871
 40
1.0
 40
1.0
 40
1.0
 40
1.0
 10
2.736296475258363
 20
1.650709684690966
 30
0.0
 10
2.796986388601138
 20
1.671571436741948
 30
0.0
 10
2.918411201246286
 20
1.713310404466831
 30
0.0
 10
3.087554452556428
 20
1.787029530039352
 30
0.0
 10
3.189319243695711
 20
1.842584015352755
 30
0.0
 10
3.240220523017259
 20
1.870371566851112
 30
0.0
  0
SPLINE
  5
7F
330
1F
100
AcDbEntity
  8
0
  6
Continuous
 62
     7
370
    25
100
AcDbSpline
210
0.0
220
0.0
230
1.0
 70
     8
 71
     3
 72
    11
 73
     7
 74
     0
 42
0.00000001
 43
0.00000001
 40
0.0
 40
0.0
 40
0.0
 40
0.0
 40
0.2327098664449753
 40
0.4750136143344834
 40
0.7296936197068037
 40
1.0
 40
1.0
 40
1.0
 40
1.0
 10
2.624379857714227
 20
1.655838052102611
 30
0.0
 10
2.632118339328297
 20
1.652747185619097
 30
0.0
 10
2.647914335334461
 20
1.646438026140003
 30
0.0
 10
2.676090202335577
 20
1.642584881365983
 30
0.0
 10
2.706865276729904
 20
1.643097104245471
 30
0.0
 10
2.726287851846965
 20
1.648120572216552
 30
0.0
 10
2.736288198749695
 20
1.650707068706476
 30
0.0
  0
SPLINE
  5
80
330
1F
100
AcDbEntity
  8
0
  6
Continuous
 62
     7
370
    25
100
AcDbSpline
210
0.0
220
0.0
230
1.0
 70
     8
 71
     3
 72
     9
 73
     5
 74
     0
 42
0.00000001
 43
0.00000001
 40
0.0
 40
0.0
 40
0.0
 40
0.0
 40
0.4524880756965415
 40
1.0
 40
1.0
 40
1.0
 40
1.0
 10
0.3682404555462037
 20
2.699791057321358
 30
0.0
 10
0.7090409068979204
 20
2.542518111794448
 30
0.0
 10
1.462210923206311
 20
2.194944432013359
 30
0.0
 10
2.213626671762095
 20
1.846375663509415
 30
0.0
 10
2.625035754205796
 20
1.655530106313734
 30
0.0
  0
SPLINE
  5
81
330
1F
100
AcDbEntity
  8
0
  6
Continuous
 62
     7
370
    25
100
AcDbSpline
210
0.0
220
0.0
230
1.0
 70
     8
 71
     3
 72
    10
 73
     6
 74
     0
 42
0.00000001
 43
0.00000001
 40
0.0
 40
0.0
 40
0.0
 40
0.0
 40
0.3329095093408465
 40
0.6662481226391305
 40
1.0
 40
1.0
 40
1.0
 40
1.0
 10
3.240220642646269
 20
1.870371635710662
 30
0.0
 10
3.288525655300398
 20
1.899878964900984
 30
0.0
 10
3.385197943390319
 20
1.958931656775333
 30
0.0
 10
3.511184880860857
 20
2.056030366296005
 30
0.0
 10
3.580708212066724
 20
2.125108306890145
 30
0.0
 10
3.615491412599852
 20
2.159668674157166
 30
0.0
  0
SPLINE
  5
82
330
1F
100
AcDbEntity
  8
0
  6
Continuous
 62
     7
370
    25
100
AcDbSpline
210
0.0
220
0.0
230
1.0
 70
     8
 71
     3
 72
    11
 73
     7
 74
     0
 42
0.00000001
 43
0.00000001
 40
0.0
 40
0.0
 40
0.0
 40
0.0
 40
0.1132509637854661
 40
0.510940011725145
 40
0.7423688723841949
 40
1.0
 40
1.0
 40
1.0
 40
1.0
 10
3.639100411383629
 20
2.592178420987171
 30
0.0
 10
3.639933223690804
 20
2.596153729022786
 30
0.0
 10
3.643690517366459
 20
2.614088622170154
 30
0.0
 10
3.636400999394879
 20
2.640606422475694
 30
0.0
 10
3.624291723495603
 20
2.669134703557172
 30
0.0
 10
3.613277758241837
 20
2.681743122001934
 30
0.0
 10
3.60747572913318
 20
2.688385090552325
 30
0.0
  0
SPLINE
  5
85
330
1F
100
AcDbEntity
  8
0
  6
Continuous
 62
     7
370
    25
100
AcDbSpline
210
0.0
220
0.0
230
1.0
 70
     8
 71
     3
 72
     9
 73
     5
 74
     0
 42
0.00000001
 43
0.00000001
 40
0.0
 40
0.0
 40
0.0
 40
0.0
 40
0.6072134488724413
 40
1.0
 40
1.0
 40
1.0
 40
1.0
 10
3.57947706945058
 20
2.709673379849076
 30
0.0
 10
3.232026462736826
 20
2.905978140547491
 30
0.0
 10
2.659821404764301
 20
3.229266040482744
 30
0.0
 10
2.089043910708447
 20
3.553403257060638
 30
0.0
 10
1.864850187357017
 20
3.680719996452356
 30
0.0
  0
SPLINE
  5
86
330
1F
100
AcDbEntity
  8
0
  6
Continuous
 62
     7
370
    25
100
AcDbSpline
210
0.0
220
0.0
230
1.0
 70
     8
 71
     3
 72
    11
 73
     7
 74
     0
 42
0.00000001
 43
0.00000001
 40
0.0
 40
0.0
 40
0.0
 40
0.0
 40
0.2776000117365984
 40
0.5611028135431884
 40
0.8461757220566506
 40
1.0
 40
1.0
 40
1.0
 40
1.0
 10
3.615494955585934
 20
2.159672467713677
 30
0.0
 10
3.619182372586661
 20
2.164081405985237
 30
0.0
 10
3.626635614540328
 20
2.172993032657857
 30
0.0
 10
3.633796042489545
 20
2.188348491670853
 30
0.0
 10
3.637680599361263
 20
2.201960981974501
 30
0.0
 10
3.637692472821843
 20
2.210221365648814
 30
0.0
 10
3.637696634221273
 20
2.213116457240752
 30
0.0
  0
SPLINE
  5
88
330
1F
100
AcDbEntity
  8
0
  6
Continuous
 62
     7
370
    25
100
AcDbSpline
210
0.0
220
0.0
230
1.0
 70
     8
 71
     3
 72
    12
 73
     8
 74
     0
 42
0.00000001
 43
0.00000001
 40
0.0
 40
0.0
 40
0.0
 40
0.0
 40
0.2101236905051943
 40
0.4483938614594039
 40
0.623226435332634
 40
0.8110006949064729
 40
1.0
 40
1.0
 40
1.0
 40
1.0
 10
-0.1253065200353074
 20
2.719639557577786
 30
0.0
 10
-0.1000102627815926
 20
2.73232083815754
 30
0.0
 10
-0.0460292650026522
 20
2.759382081721917
 30
0.0
 10
0.0428417928386038
 20
2.773486671619775
 30
0.0
 10
0.1357372261491266
 20
2.770453480299211
 30
0.0
 10
0.2263710098247446
 20
2.754387010660901
 30
0.0
 10
0.2918174876347848
 20
2.730284329528766
 30
0.0
 10
0.3246471232219756
 20
2.718193805107589
 30
0.0
  0
SPLINE
  5
8A
330
1F
100
AcDbEntity
  8
0
  6
Continuous
 62
     7
370
    25
100
AcDbSpline
210
0.0
220
0.0
230
1.0
 70
     8
 71
     3
 72
    11
 73
     7
 74
     0
 42
0.00000001
 43
0.00000001
 40
0.0
 40
0.0
 40
0.0
 40
0.0
 40
0.1808864962266917
 40
0.5466525427739878
 40
0.9717671917067192
 40
1.0
 40
1.0
 40
1.0
 40
1.0
 10
-0.9861370410819795
 20
4.359489353166735
 30
0.0
 10
-0.9911616006361261
 20
4.35206148633358
 30
0.0
 10
-1.006346196025443
 20
4.329613916302478
 30
0.0
 10
-1.024520825964413
 20
4.287795476418929
 30
0.0
 10
-1.037677502432758
 20
4.251945891974215
 30
0.0
 10
-1.039039894156738
 20
4.231948011636364
 30
0.0
 10
-1.039124738890618
 20
4.230702617374521
 30
0.0
  0
SPLINE
  5
8B
330
1F
100
AcDbEntity
  8
0
  6
Continuous
 62
     7
370
    25
100
AcDbSpline
210
0.0
220
0.0
230
1.0
 70
     8
 71
     3
 72
     9
 73
     5
 74
     0
 42
0.00000001
 43
0.00000001
 40
0.0
 40
0.0
 40
0.0
 40
0.0
 40
0.5483942091358882
 40
1.0
 40
1.0
 40
1.0
 40
1.0
 10
0.4333031257090166
 20
0.848350837113201
 30
0.0
 10
0.4744989577824388
 20
1.162328036505634
 30
0.0
 10
0.5496197949231793
 20
1.734867268616
 30
0.0
 10
0.6245355837953561
 20
2.307288893836517
 30
0.0
 10
0.6583679878771845
 20
2.565797814601949
 30
0.0
  0
SPLINE
  5
8C
330
1F
100
AcDbEntity
  8
0
  6
Continuous
 62
     7
370
    25
100
AcDbSpline
210
0.0
220
0.0
230
1.0
 70
     8
 71
     3
 72
    11
 73
     7
 74
     0
 42
0.00000001
 43
0.00000001
 40
0.0
 40
0.0
 40
0.0
 40
0.0
 40
0.2495897352406158
 40
0.4993771760092005
 40
0.7495219149935493
 40
1.0
 40
1.0
 40
1.0
 40
1.0
 10
-0.7096461269142409
 20
0.2161125340456618
 30
0.0
 10
-0.7041402989114757
 20
0.2135462704823372
 30
0.0
 10
-0.693124281618286
 20
0.2084117105617823
 30
0.0
 10
-0.6718415403910547
 20
0.2061028089768692
 30
0.0
 10
-0.6504312324544093
 20
0.2081633641312483
 30
0.0
 10
-0.6392973092170101
 20
0.2132455398561255
 30
0.0
 10
-0.6337266407666958
 20
0.2157883197339701
 30
0.0
  0
SPLINE
  5
8D
330
1F
100
AcDbEntity
  8
0
  6
Continuous
 62
     7
370
    25
100
AcDbSpline
210
0.0
220
0.0
230
1.0
 70
     8
 71
     3
 72
     9
 73
     5
 74
     0
 42
0.00000001
 43
0.00000001
 40
0.0
 40
0.0
 40
0.0
 40
0.0
 40
0.4491642468276027
 40
1.0
 40
1.0
 40
1.0
 40
1.0
 10
-1.224080340484441
 20
0.5126755560015074
 30
0.0
 10
-1.147070101792329
 20
0.4682024912798122
 30
0.0
 10
-0.9756178118203936
 20
0.3691895688671238
 30
0.0
 10
-0.8038718109319947
 20
0.2703420399487467
 30
0.0
 10
-0.7092679731782864
 20
0.2158932869077621
 30
0.0
  0
SPLINE
  5
8F
330
1F
100
AcDbEntity
  8
0
  6
Continuous
 62
     7
370
    25
100
AcDbSpline
210
0.0
220
0.0
230
1.0
 70
     8
 71
     3
 72
    10
 73
     6
 74
     0
 42
0.00000001
 43
0.00000001
 40
0.0
 40
0.0
 40
0.0
 40
0.0
 40
0.1724786509729511
 40
0.6027422030648885
 40
0.9999999999999999
 40
0.9999999999999999
 40
0.9999999999999999
 40
0.9999999999999999
 10
-1.373107792359861
 20
0.6326026305178082
 30
0.0
 10
-1.366670847291015
 20
0.6248781202077536
 30
0.0
 10
-1.344176362147968
 20
0.5978841221934154
 30
0.0
 10
-1.295228370293167
 20
0.556988000194063
 30
0.0
 10
-1.246909248900976
 20
0.5274328444415838
 30
0.0
 10
-1.223713294214525
 20
0.5132446714402367
 30
0.0
  0
SPLINE
  5
90
330
1F
100
AcDbEntity
  8
0
  6
Continuous
 62
     7
370
    25
100
AcDbSpline
210
0.0
220
0.0
230
1.0
 70
     8
 71
     3
 72
    11
 73
     7
 74
     0
 42
0.00000001
 43
0.00000001
 40
0.0
 40
0.0
 40
0.0
 40
0.0
 40
0.2872190352689733
 40
0.5838804663777336
 40
0.8855132216842124
 40
1.0
 40
1.0
 40
1.0
 40
1.0
 10
0.4122967158244421
 20
0.8196447499893891
 30
0.0
 10
0.4153838591380613
 20
0.8216952965628241
 30
0.0
 10
0.4216596363547173
 20
0.8258638019284427
 30
0.0
 10
0.4283028368487301
 20
0.834167998334429
 30
0.0
 10
0.432146418701246
 20
0.8414449924707934
 30
0.0
 10
0.4326108257888172
 20
0.845854134230512
 30
0.0
 10
0.4327385978999224
 20
0.847067219400568
 30
0.0
  0
LWPOLYLINE
  5
98
330
1F
100
AcDbEntity
  8
0
  6
Continuous
 62
     7
370
    25
100
AcDbPolyline
 90
        9
 70
   128
 43
0.0
 10
-1.3719342726
 20
0.4328542132
 10
-1.4435178075
 20
0.4789164694
 10
-1.5060548121
 20
0.5291766489
 10
-1.5588120974
 20
0.583045497
 10
-1.6011711323
 20
0.6398914508
 10
-1.632635296
 20
0.6990480434
 10
-1.6528356999
 20
0.7598217179
 10
-1.6615355126
 20
0.8214999585
 10
-1.6618696281
 20
0.8413454521
  0
LWPOLYLINE
  5
A9
330
1F
100
AcDbEntity
  8
0
  6
Continuous
 62
     7
370
    25
100
AcDbPolyline
 90
       15
 70
   128
 43
0.0
 10
-1.4227751625
 20
1.2100761737
 10
-1.484087432
 20
1.1655973423
 10
-1.5424023953
 20
1.1129296826
 10
-1.590511497
 20
1.0569309891
 10
-1.6278507019
 20
0.9982577951
 10
-1.653982242
 20
0.9375979903
 10
-1.6685997488
 20
0.8756627554
 10
-1.6715318455
 20
0.8131782244
 10
-1.6627441558
 20
0.7508769713
 10
-1.6423397075
 20
0.6894894213
 10
-1.610557724
 20
0.6297352874
 10
-1.56777082
 20
0.572315132
 10
-1.5144806329
 20
0.5179021541
 10
-1.4513119413
 20
0.467134296
 10
-1.3790053404
 20
0.4206067645
  0
LWPOLYLINE
  5
AA
330
1F
100
AcDbEntity
  8
0
  6
Continuous
 62
     7
370
    25
100
AcDbPolyline
 90
        9
 70
   128
 43
0.0
 10
-1.3790053404
 20
0.2351491289
 10
-1.4513119413
 20
0.2816766605
 10
-1.5144806329
 20
0.3324445185
 10
-1.56777082
 20
0.3868574964
 10
-1.610557724
 20
0.4442776518
 10
-1.6423397075
 20
0.5040317857
 10
-1.6627441558
 20
0.5654193357
 10
-1.6715318455
 20
0.6277205888
 10
-1.6718985592
 20
0.6433531849
  0
SPLINE
  5
AD
330
1F
100
AcDbEntity
  8
0
  6
Continuous
 62
     7
370
    25
100
AcDbSpline
210
0.0
220
0.0
230
1.0
 70
     8
 71
     3
 72
     9
 73
     5
 74
     0
 42
0.00000001
 43
0.00000001
 40
0.0
 40
0.0
 40
0.0
 40
0.0
 40
0.5600003902106864
 40
1.0
 40
1.0
 40
1.0
 40
1.0
 10
0.9376373034933692
 20
4.93420657758851
 30
0.0
 10
0.8443796941364077
 20
4.982674642810251
 30
0.0
 10
0.6778483648959486
 20
5.069224698969146
 30
0.0
 10
0.5114244772955179
 20
5.155829996158847
 30
0.0
 10
0.4381980316917077
 20
5.193936293128002
 30
0.0
  0
SPLINE
  5
AF
330
1F
100
AcDbEntity
  8
0
  6
Continuous
 62
     7
370
    25
100
AcDbSpline
210
0.0
220
0.0
230
1.0
 70
     8
 71
     3
 72
    11
 73
     7
 74
     0
 42
0.00000001
 43
0.00000001
 40
0.0
 40
0.0
 40
0.0
 40
0.0
 40
0.2801097707688636
 40
0.559955700867026
 40
0.7797615690797283
 40
0.9999999999999999
 40
0.9999999999999999
 40
0.9999999999999999
 40
0.9999999999999999
 10
1.585795857907022
 20
3.742637603719444
 30
0.0
 10
1.672407223834503
 20
3.777006871683763
 30
0.0
 10
1.845548374812034
 20
3.845713034551344
 30
0.0
 10
2.055806911511019
 20
3.960363893482209
 30
0.0
 10
2.22790167375146
 20
4.075075387613572
 30
0.0
 10
2.314851211466904
 20
4.150751093092061
 30
0.0
 10
2.358368715939574
 20
4.18862614036845
 30
0.0
  0
SPLINE
  5
B1
330
1F
100
AcDbEntity
  8
0
  6
Continuous
 62
     7
370
    25
100
AcDbSpline
210
0.0
220
0.0
230
1.0
 70
     8
 71
     3
 72
     9
 73
     5
 74
     0
 42
0.00000001
 43
0.00000001
 40
0.0
 40
0.0
 40
0.0
 40
0.0
 40
0.559999959532691
 40
1.0
 40
1.0
 40
1.0
 40
1.0
 10
-0.5130388653881778
 20
4.541075910375574
 30
0.0
 10
-0.4267165033676681
 20
4.50796659892911
 30
0.0
 10
-0.2725694171919051
 20
4.448842824216532
 30
0.0
 10
-0.1183658004762411
 20
4.389755741797731
 30
0.0
 10
-0.0505162028811436
 20
4.363757423142365
 30
0.0
  0
SPLINE
  5
B2
330
1F
100
AcDbEntity
  8
0
  6
Continuous
 62
     7
370
    25
100
AcDbSpline
210
0.0
220
0.0
230
1.0
 70
     8
 71
     3
 72
    23
 73
    19
 74
     0
 42
0.00000001
 43
0.00000001
 40
0.0
 40
0.0
 40
0.0
 40
0.0
 40
0.0630149313644395
 40
0.1254712839067447
 40
0.1879300843246127
 40
0.2505895215637429
 40
0.3130307623634133
 40
0.3754796460942101
 40
0.438141565910787
 40
0.5005959924314796
 40
0.5634509080126842
 40
0.6258862559890515
 40
0.688548170296916
 40
0.7510135015977024
 40
0.8134549860711126
 40
0.8760377298284298
 40
0.9378794042459492
 40
1.0
 40
1.0
 40
1.0
 40
1.0
 10
0.4381980316917076
 20
5.193936293128
 30
0.0
 10
0.4008217805506245
 20
5.213551600243732
 30
0.0
 10
0.326400589941519
 20
5.252608339888534
 30
0.0
 10
0.1817613209259066
 20
5.29038369965117
 30
0.0
 10
0.0222978661345842
 20
5.310549505686924
 30
0.0
 10
-0.1472329212320302
 20
5.310636355825652
 30
0.0
 10
-0.3173933286910529
 20
5.291021728345947
 30
0.0
 10
-0.4798245842155184
 20
5.25267579978921
 30
0.0
 10
-0.6262743016116623
 20
5.197510953653556
 30
0.0
 10
-0.7494830989401317
 20
5.128144103877363
 30
0.0
 10
-0.8429356422798258
 20
5.048348811093605
 30
0.0
 10
-0.9019285499790831
 20
4.961956763770813
 30
0.0
 10
-0.9234272176785192
 20
4.873651479739974
 30
0.0
 10
-0.906483452370493
 20
4.787642181479777
 30
0.0
 10
-0.8515732966546563
 20
4.708682847066201
 30
0.0
 10
-0.7639637627370646
 20
4.639515545898931
 30
0.0
 10
-0.6401307763753273
 20
4.588634663419903
 30
0.0
 10
-0.5554663354659346
 20
4.55695259014261
 30
0.0
 10
-0.5130388653881778
 20
4.541075910375575
 30
0.0
  0
SPLINE
  5
B5
330
1F
100
AcDbEntity
  8
0
  6
Continuous
 62
     7
370
    25
100
AcDbSpline
210
0.0
220
0.0
230
1.0
 70
     8
 71
     3
 72
    15
 73
    11
 74
     0
 42
0.00000001
 43
0.00000001
 40
0.0
 40
0.0
 40
0.0
 40
0.0
 40
0.1248181923489903
 40
0.2495169872088348
 40
0.375136107757899
 40
0.4997556697339389
 40
0.6246276276975964
 40
0.7501667554130212
 40
0.8747146223200614
 40
1.0
 40
1.0
 40
1.0
 40
1.0
 10
-0.160613254386711
 20
3.896453195809888
 30
0.0
 10
-0.1469514026044452
 20
3.915703916681302
 30
0.0
 10
-0.1196407675739885
 20
3.954186943738796
 30
0.0
 10
-0.0685921879683867
 20
3.999501972082161
 30
0.0
 10
-0.0113708169172297
 20
4.034891380078445
 30
0.0
 10
0.0520776979873215
 20
4.058845826738823
 30
0.0
 10
0.1205118564972989
 20
4.071377794984105
 30
0.0
 10
0.1930375805598264
 20
4.071902158167557
 30
0.0
 10
0.2685780255561185
 20
4.061549483411569
 30
0.0
 10
0.3202999162771102
 20
4.044923801544797
 30
0.0
 10
0.3462372034624591
 20
4.036586421003995
 30
0.0
  0
SPLINE
  5
B6
330
1F
100
AcDbEntity
  8
0
  6
Continuous
 62
     7
370
    25
100
AcDbSpline
210
0.0
220
0.0
230
1.0
 70
     8
 71
     3
 72
    11
 73
     7
 74
     0
 42
0.00000001
 43
0.00000001
 40
0.0
 40
0.0
 40
0.0
 40
0.0
 40
0.5722429726978541
 40
0.8100179999734752
 40
0.9090888189859787
 40
1.0
 40
1.0
 40
1.0
 40
1.0
 10
-0.1607015004325145
 20
3.898659104404819
 30
0.0
 10
-0.1607774622070575
 20
3.898271927850704
 30
0.0
 10
-0.1608849871704481
 20
3.897723873976799
 30
0.0
 10
-0.160829752698942
 20
3.897015713810037
 30
0.0
 10
-0.1607280702760806
 20
3.896669315800304
 30
0.0
 10
-0.160650413002585
 20
3.896523144079634
 30
0.0
 10
-0.1606132520376157
 20
3.896453197222801
 30
0.0
  0
SPLINE
  5
B9
330
1F
100
AcDbEntity
  8
0
  6
Continuous
 62
     7
370
    25
100
AcDbSpline
210
0.0
220
0.0
230
1.0
 70
     8
 71
     3
 72
    11
 73
     7
 74
     0
 42
0.00000001
 43
0.00000001
 40
0.0
 40
0.0
 40
0.0
 40
0.0
 40
0.2499999999999873
 40
0.4999999999999689
 40
0.7499999999999357
 40
1.0
 40
1.0
 40
1.0
 40
1.0
 10
1.58579562768873
 20
3.742637788021022
 30
0.0
 10
1.582385726956724
 20
3.739854233621488
 30
0.0
 10
1.57556592549271
 20
3.734287124822418
 30
0.0
 10
1.567601342307129
 20
3.720579059138908
 30
0.0
 10
1.562601987584599
 20
3.705173937219547
 30
0.0
 10
1.562700619592819
 20
3.695647278317457
 30
0.0
 10
1.56274993559693
 20
3.690883948866412
 30
0.0
  0
SPLINE
  5
BA
330
1F
100
AcDbEntity
  8
0
  6
Continuous
 62
     7
370
    25
100
AcDbSpline
210
0.0
220
0.0
230
1.0
 70
     8
 71
     3
 72
    11
 73
     7
 74
     0
 42
0.00000001
 43
0.00000001
 40
0.0
 40
0.0
 40
0.0
 40
0.0
 40
0.240778381840424
 40
0.4999842837496828
 40
0.7591987212917214
 40
1.0
 40
1.0
 40
1.0
 40
1.0
 10
-0.0737667043168793
 20
4.314167387101254
 30
0.0
 10
-0.0736409308166011
 20
4.318650289008716
 30
0.0
 10
-0.0733797579780318
 20
4.327959183279834
 30
0.0
 10
-0.0682247033487817
 20
4.342860277957345
 30
0.0
 10
-0.0602492689777027
 20
4.355954485772267
 30
0.0
 10
-0.0536799191071176
 20
4.361221091680564
 30
0.0
 10
-0.050516202852393
 20
4.363757422831676
 30
0.0
  0
SPLINE
  5
BC
330
1F
100
AcDbEntity
  8
0
  6
Continuous
 62
     7
370
    25
100
AcDbSpline
210
0.0
220
0.0
230
1.0
 70
     8
 71
     3
 72
    11
 73
     7
 74
     0
 42
0.00000001
 43
0.00000001
 40
0.0
 40
0.0
 40
0.0
 40
0.0
 40
0.2500000000000066
 40
0.4999999999999997
 40
0.7499999999999982
 40
1.0
 40
1.0
 40
1.0
 40
1.0
 10
1.585795627688846
 20
3.742637788020942
 30
0.0
 10
1.588496558053776
 20
3.739998408708397
 30
0.0
 10
1.593898418783635
 20
3.734719650083309
 30
0.0
 10
1.601324366654029
 20
3.721433237449919
 30
0.0
 10
1.60705445719313
 20
3.706351916715675
 30
0.0
 10
1.608493836547291
 20
3.696879238124877
 30
0.0
 10
1.609213526224373
 20
3.692142898829476
 30
0.0
  0
SPLINE
  5
BD
330
1F
100
AcDbEntity
  8
0
  6
Continuous
 62
     7
370
    25
100
AcDbSpline
210
0.0
220
0.0
230
1.0
 70
     8
 71
     3
 72
    11
 73
     7
 74
     0
 42
0.00000001
 43
0.00000001
 40
0.0
 40
0.0
 40
0.0
 40
0.0
 40
0.2500000000000181
 40
0.5000000000000513
 40
0.7500000000000576
 40
1.0
 40
1.0
 40
1.0
 40
1.0
 10
2.358368327384966
 20
4.188626232732291
 30
0.0
 10
2.362901255959237
 20
4.187044774266846
 30
0.0
 10
2.371967113107779
 20
4.183881857335956
 30
0.0
 10
2.384014332300725
 20
4.173264082284823
 30
0.0
 10
2.392977463907464
 20
4.160049740201205
 30
0.0
 10
2.394837149053303
 20
4.150819774871205
 30
0.0
 10
2.395766991626223
 20
4.146204792206206
 30
0.0
  0
SPLINE
  5
BF
330
1F
100
AcDbEntity
  8
0
  6
Continuous
 62
     7
370
    25
100
AcDbSpline
210
0.0
220
0.0
230
1.0
 70
     8
 71
     3
 72
    11
 73
     7
 74
     0
 42
0.00000001
 43
0.00000001
 40
0.0
 40
0.0
 40
0.0
 40
0.0
 40
0.2500896030661338
 40
0.5000141739363562
 40
0.7499266708957508
 40
1.0
 40
1.0
 40
1.0
 40
1.0
 10
2.395849372980793
 20
4.145163365840564
 30
0.0
 10
2.345204098520849
 20
4.101463405396925
 30
0.0
 10
2.243946970026099
 20
4.01409232177575
 30
0.0
 10
2.056127785385329
 20
3.89420693242299
 30
0.0
 10
1.845954816815047
 20
3.78432737271088
 30
0.0
 10
1.688202739408905
 20
3.72217896586037
 30
0.0
 10
1.609301328381618
 20
3.691094766690183
 30
0.0
  0
SPLINE
  5
C1
330
1F
100
AcDbEntity
  8
0
  6
Continuous
 62
     7
370
    25
100
AcDbSpline
210
0.0
220
0.0
230
1.0
 70
     8
 71
     3
 72
    11
 73
     7
 74
     0
 42
0.00000001
 43
0.00000001
 40
0.0
 40
0.0
 40
0.0
 40
0.0
 40
0.2501129557546761
 40
0.5000412737943095
 40
0.7499404638493052
 40
1.0
 40
1.0
 40
1.0
 40
1.0
 10
2.402003463888705
 20
4.047705599054025
 30
0.0
 10
2.351471174337385
 20
4.004055116172158
 30
0.0
 10
2.250443899045937
 20
3.916786373950764
 30
0.0
 10
2.062793753015725
 20
3.797086325525746
 30
0.0
 10
1.852844471464805
 20
3.687382347759132
 30
0.0
 10
1.695300122335428
 20
3.625306545697509
 30
0.0
 10
1.616502684064
 20
3.594258690232487
 30
0.0
  0
SPLINE
  5
C3
330
1F
100
AcDbEntity
  8
0
  6
Continuous
 62
     7
370
    25
100
AcDbSpline
210
0.0
220
0.0
230
1.0
 70
     8
 71
     3
 72
    19
 73
    15
 74
     0
 42
0.00000001
 43
0.00000001
 40
0.0
 40
0.0
 40
0.0
 40
0.0
 40
0.0000629372073521
 40
0.0006158330220274
 40
0.0315641323980884
 40
0.0628835432221416
 40
0.1057263100209828
 40
0.1185058194473414
 40
0.2506542154673558
 40
0.5002035184493803
 40
0.749752810246033
 40
0.7752981901475043
 40
0.8255718408794797
 40
1.0
 40
1.0
 40
1.0
 40
1.0
 10
1.609213627811028
 20
3.692142936441551
 30
0.0
 10
1.609212727344269
 20
3.692142617346998
 30
0.0
 10
1.609203916385074
 20
3.69213949504508
 30
0.0
 10
1.608752690341667
 20
3.691973645167546
 30
0.0
 10
1.607844502077164
 20
3.691648379515079
 30
0.0
 10
1.606292679783168
 20
3.691135805308762
 30
0.0
 10
1.60497960192693
 20
3.690739768931017
 30
0.0
 10
1.60210227753866
 20
3.689933194380398
 30
0.0
 10
1.595828323064814
 20
3.68850197965722
 30
0.0
 10
1.585206294760307
 20
3.687404783445041
 30
0.0
 10
1.576607863785922
 20
3.688007769806797
 30
0.0
 10
1.571693847280215
 20
3.688736617220153
 30
0.0
 10
1.567980245931656
 20
3.689370278070197
 30
0.0
 10
1.565030740461214
 20
3.690273115990594
 30
0.0
 10
1.562741142483064
 20
3.690973957503811
 30
0.0
  0
SPLINE
  5
C5
330
1F
100
AcDbEntity
  8
0
  6
Continuous
 62
     7
370
    25
100
AcDbSpline
210
0.0
220
0.0
230
1.0
 70
     8
 71
     3
 72
    11
 73
     7
 74
     0
 42
0.00000001
 43
0.00000001
 40
0.0
 40
0.0
 40
0.0
 40
0.0
 40
0.2500000000000136
 40
0.5000000000000124
 40
0.7500000000000254
 40
1.0
 40
1.0
 40
1.0
 40
1.0
 10
1.616502550893064
 20
3.594260502190552
 30
0.0
 10
1.612738060341405
 20
3.593103094389177
 30
0.0
 10
1.605209079238087
 20
3.59078827878643
 30
0.0
 10
1.592563324856873
 20
3.589790930463702
 30
0.0
 10
1.58022531192339
 20
3.590649204353066
 30
0.0
 10
1.573450916910695
 20
3.592884398900141
 30
0.0
 10
1.570063719404348
 20
3.594001996173679
 30
0.0
  0
SPLINE
  5
C6
330
1F
100
AcDbEntity
  8
0
  6
Continuous
 62
     7
370
    25
100
AcDbSpline
210
0.0
220
0.0
230
1.0
 70
     8
 71
     3
 72
    11
 73
     7
 74
     0
 42
0.00000001
 43
0.00000001
 40
0.0
 40
0.0
 40
0.0
 40
0.0
 40
0.2406470962105174
 40
0.5000031230502512
 40
0.7593573171162392
 40
1.0
 40
1.0
 40
1.0
 40
1.0
 10
-0.1091947783965855
 20
3.88300510510327
 30
0.0
 10
-0.1128605822414257
 20
3.881616945142045
 30
0.0
 10
-0.1204771851415757
 20
3.87873270374942
 30
0.0
 10
-0.1350479348319202
 20
3.880366495830792
 30
0.0
 10
-0.149551764342518
 20
3.886350058529652
 30
0.0
 10
-0.1570192435003294
 20
3.89317056523962
 30
0.0
 10
-0.1606132543867109
 20
3.896453195809886
 30
0.0
  0
SPLINE
  5
C7
330
1F
100
AcDbEntity
  8
0
  6
Continuous
 62
     7
370
    25
100
AcDbSpline
210
0.0
220
0.0
230
1.0
 70
     8
 71
     3
 72
     9
 73
     5
 74
     0
 42
0.00000001
 43
0.00000001
 40
0.0
 40
0.0
 40
0.0
 40
0.0
 40
0.4993196485988355
 40
1.0
 40
1.0
 40
1.0
 40
1.0
 10
-0.1091945529617216
 20
3.88300484554183
 30
0.0
 10
-0.1208777971123364
 20
3.862783343468168
 30
0.0
 10
-0.1442761235819631
 20
3.822285233429025
 30
0.0
 10
-0.1589883562585986
 20
3.773684045979088
 30
0.0
 10
-0.1663544820850323
 20
3.749350386368139
 30
0.0
  0
SPLINE
  5
C8
330
1F
100
AcDbEntity
  8
0
  6
Continuous
 62
     7
370
    25
100
AcDbSpline
210
0.0
220
0.0
230
1.0
 70
     8
 71
     3
 72
    13
 73
     9
 74
     0
 42
0.00000001
 43
0.00000001
 40
0.0
 40
0.0
 40
0.0
 40
0.0
 40
0.2395446532903326
 40
0.3684873084863557
 40
0.4999871246469913
 40
0.6314890151436968
 40
0.7604368960612501
 40
0.9999999999999999
 40
0.9999999999999999
 40
0.9999999999999999
 40
0.9999999999999999
 10
-0.5130388653941365
 20
4.541075910443614
 30
0.0
 10
-0.5163193694135465
 20
4.538482997479187
 30
0.0
 10
-0.5213657107949421
 20
4.534494365271051
 30
0.0
 10
-0.5271095641157059
 20
4.526269420378411
 30
0.0
 10
-0.5309523138020996
 20
4.519160287142098
 30
0.0
 10
-0.5338493826559576
 20
4.511495956912442
 30
0.0
 10
-0.5364515810576557
 20
4.501426389070621
 30
0.0
 10
-0.5364074641009792
 20
4.494449583414758
 30
0.0
 10
-0.5363787843722541
 20
4.489914073519041
 30
0.0
  0
SPLINE
  5
CA
330
1F
100
AcDbEntity
  8
0
  6
Continuous
 62
     7
370
    25
100
AcDbSpline
210
0.0
220
0.0
230
1.0
 70
     8
 71
     3
 72
    23
 73
    19
 74
     0
 42
0.00000001
 43
0.00000001
 40
0.0
 40
0.0
 40
0.0
 40
0.0
 40
0.098924272838203
 40
0.16633807661234
 40
0.2373627667151569
 40
0.3119841183190952
 40
0.3680920275322399
 40
0.4287478008625069
 40
0.4939468447737176
 40
0.5329356934770705
 40
0.590334371158602
 40
0.6259326687894619
 40
0.6661248357032229
 40
0.7109089912905818
 40
0.7602847364445837
 40
0.8734900473935455
 40
0.9639890116239007
 40
1.0
 40
1.0
 40
1.0
 40
1.0
 10
-0.9962593742478432
 20
4.490290995991411
 30
0.0
 10
-0.9980498737626273
 20
4.47636411695003
 30
0.0
 10
-1.00106054280188
 20
4.452946504603818
 30
0.0
 10
-0.9985611752659662
 20
4.41909863299465
 30
0.0
 10
-0.994061206739144
 20
4.388741968463203
 30
0.0
 10
-0.9868164672803572
 20
4.360068425205182
 30
0.0
 10
-0.9776038557559499
 20
4.333043988938218
 30
0.0
 10
-0.9668311440597402
 20
4.30755687485079
 30
0.0
 10
-0.9551376601321433
 20
4.284741342668504
 30
0.0
 10
-0.9421416130099962
 20
4.262643792864169
 30
0.0
 10
-0.9303777328731915
 20
4.24482781459218
 30
0.0
 10
-0.9174126360797522
 20
4.227121878267346
 30
0.0
 10
-0.9048796137956309
 20
4.21130459842515
 30
0.0
 10
-0.8899323251945855
 20
4.193968652017879
 30
0.0
 10
-0.8652451096549206
 20
4.167726417454503
 30
0.0
 10
-0.8315456438358403
 20
4.137002660270552
 30
0.0
 10
-0.7964914598461715
 20
4.109285353116931
 30
0.0
 10
-0.7762434022819757
 20
4.095678637516409
 30
0.0
 10
-0.7704798038412183
 20
4.091805493410098
 30
0.0
  0
SPLINE
  5
CB
330
1F
100
AcDbEntity
  8
0
  6
Continuous
 62
     7
370
    25
100
AcDbSpline
210
0.0
220
0.0
230
1.0
 70
     8
 71
     3
 72
     9
 73
     5
 74
     0
 42
0.00000001
 43
0.00000001
 40
0.0
 40
0.0
 40
0.0
 40
0.0
 40
0.5004946842376078
 40
1.0
 40
1.0
 40
1.0
 40
1.0
 10
-0.223116520030375
 20
3.753055495343127
 30
0.0
 10
-0.215211614631682
 20
3.779702108119782
 30
0.0
 10
-0.1994174301025613
 20
3.832942659150301
 30
0.0
 10
-0.1735982961933499
 20
3.876768075720898
 30
0.0
 10
-0.1607015015573176
 20
3.898659104263412
 30
0.0
  0
SPLINE
  5
CC
330
1F
100
AcDbEntity
  8
0
  6
Continuous
 62
     7
370
    25
100
AcDbSpline
210
0.0
220
0.0
230
1.0
 70
     8
 71
     3
 72
    11
 73
     7
 74
     0
 42
0.00000001
 43
0.00000001
 40
0.0
 40
0.0
 40
0.0
 40
0.0
 40
0.2845072090213072
 40
0.4720831958429692
 40
0.6949408277304661
 40
1.0
 40
1.0
 40
1.0
 40
1.0
 10
-0.2231167389911379
 20
3.753055382914532
 30
0.0
 10
-0.2438492720756819
 20
3.764136302855284
 30
0.0
 10
-0.2782507921993376
 20
3.782522888265563
 30
0.0
 10
-0.3289155740469718
 20
3.809494204391982
 30
0.0
 10
-0.381276994386085
 20
3.837197156579033
 30
0.0
 10
-0.4197740595283685
 20
3.857706893592338
 30
0.0
 10
-0.4420197670615165
 20
3.869558540191721
 30
0.0
  0
SPLINE
  5
CD
330
1F
100
AcDbEntity
  8
0
  6
Continuous
 62
     7
370
    25
100
AcDbSpline
210
0.0
220
0.0
230
1.0
 70
     8
 71
     3
 72
    13
 73
     9
 74
     0
 42
0.00000001
 43
0.00000001
 40
0.0
 40
0.0
 40
0.0
 40
0.0
 40
0.2409965279344952
 40
0.4576040542264031
 40
0.6922171366230109
 40
0.7301354368686849
 40
0.7945029823708332
 40
1.0
 40
1.0
 40
1.0
 40
1.0
 10
-0.1663532981139186
 20
3.749349411641169
 30
0.0
 10
-0.1703257827189626
 20
3.747670171368116
 30
0.0
 10
-0.1778687339647755
 20
3.744481631003841
 30
0.0
 10
-0.1924086874908052
 20
3.743488247719506
 30
0.0
 10
-0.2027783002149882
 20
3.744912218653384
 30
0.0
 10
-0.2094423896082278
 20
3.746738480751027
 30
0.0
 10
-0.2153953677149932
 20
3.748657881560035
 30
0.0
 10
-0.2197788192762775
 20
3.751154359697262
 30
0.0
 10
-0.2231167389064569
 20
3.753055382958056
 30
0.0
  0
SPLINE
  5
CF
330
1F
100
AcDbEntity
  8
0
  6
Continuous
 62
     7
370
    25
100
AcDbSpline
210
0.0
220
0.0
230
1.0
 70
     8
 71
     3
 72
    15
 73
    11
 74
     0
 42
0.00000001
 43
0.00000001
 40
0.0
 40
0.0
 40
0.0
 40
0.0
 40
0.0255645188321025
 40
0.2482208215326011
 40
0.5133837988737739
 40
0.876061644651279
 40
0.9656268972961425
 40
0.9895317802562775
 40
0.9964321746543375
 40
1.0
 40
1.0
 40
1.0
 40
1.0
 10
-0.4382836160213419
 20
3.860050100189153
 30
0.0
 10
-0.4383565507346556
 20
3.860078268059182
 30
0.0
 10
-0.4390647163987886
 20
3.860351766335649
 30
0.0
 10
-0.4401630806339002
 20
3.86155241088027
 30
0.0
 10
-0.4415922353244519
 20
3.863957920395464
 30
0.0
 10
-0.44207057245894
 20
3.866758046089032
 30
0.0
 10
-0.4420569207882838
 20
3.868811260089067
 30
0.0
 10
-0.4420322605406448
 20
3.869343241610121
 30
0.0
 10
-0.442023620776658
 20
3.869496032661931
 30
0.0
 10
-0.4420207486610672
 20
3.869542650315057
 30
0.0
 10
-0.4420197697738206
 20
3.869558538751529
 30
0.0
  0
SPLINE
  5
D2
330
1F
100
AcDbEntity
  8
0
  6
Continuous
 62
     7
370
    25
100
AcDbSpline
210
0.0
220
0.0
230
1.0
 70
     8
 71
     3
 72
    14
 73
    10
 74
     0
 42
0.00000001
 43
0.00000001
 40
0.0
 40
0.0
 40
0.0
 40
0.0
 40
0.25
 40
0.25
 40
0.5
 40
0.5
 40
0.75
 40
0.75
 40
1.0
 40
1.0
 40
1.0
 40
1.0
 10
2.750759201173099
 20
2.038596630909335
 30
0.0
 10
2.745401336073628
 20
2.046378983542957
 30
0.0
 10
2.739283549351948
 20
2.0549744814022
 30
0.0
 10
2.725716559305606
 20
2.073554920821418
 30
0.0
 10
2.718291561752788
 20
2.083510235540865
 30
0.0
 10
2.70270366653223
 20
2.104053781070613
 30
0.0
 10
2.69452657067397
 20
2.1146616327531
 30
0.0
 10
2.678148118717098
 20
2.135555302819518
 30
0.0
 10
2.669922595706135
 20
2.145869477356964
 30
0.0
 10
2.66224236872325
 20
2.155266976490009
 30
0.0
  0
SPLINE
  5
D3
330
1F
100
AcDbEntity
  8
0
  6
Continuous
 62
     7
370
    25
100
AcDbSpline
210
0.0
220
0.0
230
1.0
 70
     8
 71
     3
 72
    13
 73
     9
 74
     0
 42
0.00000001
 43
0.00000001
 40
0.0
 40
0.0
 40
0.0
 40
0.0
 40
0.1504225845777998
 40
0.3073859637435885
 40
0.4708153493618843
 40
0.6407074056200791
 40
0.8171109125009598
 40
1.0
 40
1.0
 40
1.0
 40
1.0
 10
2.662242368723113
 20
2.155266976489407
 30
0.0
 10
2.660985130986001
 20
2.156776808794779
 30
0.0
 10
2.658415987299489
 20
2.159862125135942
 30
0.0
 10
2.654404904345474
 20
2.164275147806514
 30
0.0
 10
2.650183960448639
 20
2.168603850615734
 30
0.0
 10
2.645756935829127
 20
2.17276621760552
 30
0.0
 10
2.641137127283276
 20
2.176751380020537
 30
0.0
 10
2.638001369672515
 20
2.179112134029093
 30
0.0
 10
2.63640518913047
 20
2.180313817985812
 30
0.0
  0
SPLINE
  5
D4
330
1F
100
AcDbEntity
  8
0
  6
Continuous
 62
     7
370
    25
100
AcDbSpline
210
0.0
220
0.0
230
1.0
 70
     8
 71
     3
 72
    14
 73
    10
 74
     0
 42
0.00000001
 43
0.00000001
 40
0.0
 40
0.0
 40
0.0
 40
0.0
 40
0.25
 40
0.25
 40
0.5
 40
0.5
 40
0.75
 40
0.75
 40
1.0
 40
1.0
 40
1.0
 40
1.0
 10
2.63640518913049
 20
2.180313817985105
 30
0.0
 10
2.679200712354933
 20
2.193167492730965
 30
0.0
 10
2.722583394207336
 20
2.207222987302464
 30
0.0
 10
2.810570373614148
 20
2.238279319607803
 30
0.0
 10
2.855291917821245
 20
2.255326815377251
 30
0.0
 10
2.945065947162042
 20
2.292535589304705
 30
0.0
 10
2.99001261054858
 20
2.312653639787044
 30
0.0
 10
3.078820092334465
 20
2.355968178424362
 30
0.0
 10
3.122775307575444
 20
2.37920446389507
 30
0.0
 10
3.166151410162878
 20
2.404244307414171
 30
0.0
  0
SPLINE
  5
D6
330
1F
100
AcDbEntity
  8
0
  6
Continuous
 62
     7
370
    25
100
AcDbSpline
210
0.0
220
0.0
230
1.0
 70
     8
 71
     3
 72
    33
 73
    29
 74
     0
 42
0.00000001
 43
0.00000001
 40
0.0
 40
0.0
 40
0.0
 40
0.0
 40
0.0473815635302208
 40
0.0940488650021033
 40
0.1400018982582918
 40
0.1852407256426386
 40
0.229765667721918
 40
0.2735770758966522
 40
0.3166752617925556
 40
0.3590605023428773
 40
0.4007330441000547
 40
0.441693106856848
 40
0.4819408866526056
 40
0.5214765582353629
 40
0.5603002757308588
 40
0.5984119117290011
 40
0.6358107740741666
 40
0.6724961565370703
 40
0.7084674208203043
 40
0.74372399574192
 40
0.778265375923134
 40
0.8120911200501036
 40
0.8452008487742236
 40
0.8775942423101927
 40
0.9092710377861948
 40
0.9402310263958573
 40
0.9704740503972471
 40
1.0
 40
1.0
 40
1.0
 40
1.0
 10
2.750759186120103
 20
2.038596647135806
 30
0.0
 10
2.759462314840929
 20
2.041443441570948
 30
0.0
 10
2.776737375374526
 20
2.047094115917073
 30
0.0
 10
2.802207705145591
 20
2.055745590354902
 30
0.0
 10
2.827108661269714
 20
2.064432424504853
 30
0.0
 10
2.851427787266154
 20
2.073161916190007
 30
0.0
 10
2.875174721203064
 20
2.081919833034646
 30
0.0
 10
2.898353736575924
 20
2.090697903178385
 30
0.0
 10
2.920970797694622
 20
2.099486639479695
 30
0.0
 10
2.943031667529806
 20
2.108277200279079
 30
0.0
 10
2.964542381617013
 20
2.117060894768661
 30
0.0
 10
2.985509107465659
 20
2.125829305457168
 30
0.0
 10
3.005938163352306
 20
2.134574250536245
 30
0.0
 10
3.025836001147759
 20
2.143287784042877
 30
0.0
 10
3.045209134695964
 20
2.151962181414463
 30
0.0
 10
3.064064102969014
 20
2.160589845805081
 30
0.0
 10
3.082407618372532
 20
2.169163200302437
 30
0.0
 10
3.100246352407644
 20
2.177674893244241
 30
0.0
 10
3.117587063725825
 20
2.186117812805358
 30
0.0
 10
3.134436587762438
 20
2.194485094493962
 30
0.0
 10
3.150801834453973
 20
2.202770109097111
 30
0.0
 10
3.166689746895918
 20
2.210966471669974
 30
0.0
 10
3.182107392488527
 20
2.219067982228715
 30
0.0
 10
3.197061578945171
 20
2.227068811983925
 30
0.0
 10
3.211560186858232
 20
2.234962803802127
 30
0.0
 10
3.225607308375547
 20
2.242745969941963
 30
0.0
 10
3.239220723925734
 20
2.250407460102211
 30
0.0
 10
3.248092612863577
 20
2.255505032043893
 30
0.0
 10
3.252475337375375
 20
2.258023239119746
 30
0.0
  0
SPLINE
  5
D7
330
1F
100
AcDbEntity
  8
0
  6
Continuous
 62
     7
370
    25
100
AcDbSpline
210
0.0
220
0.0
230
1.0
 70
     8
 71
     3
 72
    11
 73
     7
 74
     0
 42
0.00000001
 43
0.00000001
 40
0.0
 40
0.0
 40
0.0
 40
0.0
 40
0.25
 40
0.5
 40
0.5
 40
1.0
 40
1.0
 40
1.0
 40
1.0
 10
3.166151410162878
 20
2.404244307414171
 30
0.0
 10
3.21218292235837
 20
2.430818166830399
 30
0.0
 10
3.295761900264029
 20
2.483943292226902
 30
0.0
 10
3.364253933751481
 20
2.535575342560187
 30
0.0
 10
3.457810134401912
 20
2.611760780458478
 30
0.0
 10
3.507959124140158
 20
2.660816428168673
 30
0.0
 10
3.549115309543699
 20
2.707209549694368
 30
0.0
  0
SPLINE
  5
D8
330
1F
100
AcDbEntity
  8
0
  6
Continuous
 62
     7
370
    25
100
AcDbSpline
210
0.0
220
0.0
230
1.0
 70
     8
 71
     3
 72
    48
 73
    44
 74
     0
 42
0.00000001
 43
0.00000001
 40
0.0
 40
0.0
 40
0.0
 40
0.0
 40
0.03125
 40
0.03125
 40
0.0625000000000001
 40
0.0625000000000001
 40
0.1250000000000002
 40
0.1250000000000002
 40
0.1875000000000002
 40
0.1875000000000002
 40
0.2187500000000003
 40
0.2187500000000003
 40
0.2500000000000004
 40
0.2500000000000004
 40
0.2812500000000004
 40
0.2812500000000004
 40
0.3125000000000005
 40
0.3125000000000005
 40
0.3750000000000006
 40
0.3750000000000006
 40
0.4375000000000008
 40
0.4375000000000008
 40
0.5000000000000009
 40
0.5000000000000009
 40
0.5312500000000009
 40
0.5312500000000009
 40
0.562500000000001
 40
0.562500000000001
 40
0.6250000000000012
 40
0.6250000000000012
 40
0.6562500000000012
 40
0.6562500000000012
 40
0.6875000000000012
 40
0.6875000000000012
 40
0.750000000000001
 40
0.750000000000001
 40
0.8125000000000008
 40
0.8125000000000008
 40
0.8750000000000004
 40
0.8750000000000004
 40
0.9375000000000002
 40
0.9375000000000002
 40
1.0
 40
1.0
 40
1.0
 40
1.0
 10
2.63640518913049
 20
2.180313817985105
 30
0.0
 10
2.619103028336395
 20
2.189227140385373
 30
0.0
 10
2.601117255987868
 20
2.19848889836093
 30
0.0
 10
2.563902583649098
 20
2.217644747730734
 30
0.0
 10
2.544707425114769
 20
2.227521489731622
 30
0.0
 10
2.485119483273174
 20
2.258169963440774
 30
0.0
 10
2.442549506273999
 20
2.280050090086513
 30
0.0
 10
2.349243911839578
 20
2.32797083548191
 30
0.0
 10
2.298538027063156
 20
2.35399600896653
 30
0.0
 10
2.215027448989884
 20
2.396827574580171
 30
0.0
 10
2.185972965088318
 20
2.411724573749235
 30
0.0
 10
2.125509506329846
 20
2.442715525341312
 30
0.0
 10
2.094020165498583
 20
2.45885055385871
 30
0.0
 10
2.029517833440339
 20
2.491891519258106
 30
0.0
 10
1.996549630288418
 20
2.508774507676033
 30
0.0
 10
1.930275255485844
 20
2.542704253274855
 30
0.0
 10
1.896930014942718
 20
2.559771130265554
 30
0.0
 10
1.797250121336129
 20
2.610777946567881
 30
0.0
 10
1.731435912206712
 20
2.644439799879616
 30
0.0
 10
1.603002160839168
 20
2.710107905463729
 30
0.0
 10
1.540203930665875
 20
2.742205623631066
 30
0.0
 10
1.41551247729636
 20
2.805923283529049
 30
0.0
 10
1.353599236474264
 20
2.837553408983903
 30
0.0
 10
1.259104163349798
 20
2.885820512026264
 30
0.0
 10
1.227330511634498
 20
2.902048778665126
 30
0.0
 10
1.16317591204096
 20
2.934813203996413
 30
0.0
 10
1.130713611799139
 20
2.951390886896798
 30
0.0
 10
1.033111687296679
 20
3.001231282488009
 30
0.0
 10
0.9680775905176555
 20
3.034437661588729
 30
0.0
 10
0.877144568892303
 20
3.080867565395609
 30
0.0
 10
0.8480199908617351
 20
3.095738370195372
 30
0.0
 10
0.7923087114076864
 20
3.124184612253236
 30
0.0
 10
0.7656685988968012
 20
3.137787310170566
 30
0.0
 10
0.6890674766881945
 20
3.176901932488289
 30
0.0
 10
0.6424038123730054
 20
3.200731539428011
 30
0.0
 10
0.5562079037627026
 20
3.244754420204378
 30
0.0
 10
0.5166562327560167
 20
3.26495760873431
 30
0.0
 10
0.4438038138061313
 20
3.302177332257724
 30
0.0
 10
0.4105617691024305
 20
3.319163859692253
 30
0.0
 10
0.3490319881827889
 20
3.350611970109628
 30
0.0
 10
0.3207972644962652
 20
3.365046359622257
 30
0.0
 10
0.2678467605292338
 20
3.392123192486104
 30
0.0
 10
0.2428537942798489
 20
3.404907606384944
 30
0.0
 10
0.2196468891961498
 20
3.416781903225842
 30
0.0
  0
SPLINE
  5
D9
330
1F
100
AcDbEntity
  8
0
  6
Continuous
 62
     7
370
    25
100
AcDbSpline
210
0.0
220
0.0
230
1.0
 70
     8
 71
     3
 72
    19
 73
    15
 74
     0
 42
0.00000001
 43
0.00000001
 40
0.0
 40
0.0
 40
0.0
 40
0.0
 40
0.0444337377306419
 40
0.0954869980036282
 40
0.1533470609843962
 40
0.2501949047845831
 40
0.2943790813648308
 40
0.4275103380186738
 40
0.5407777847268939
 40
0.6544104278080926
 40
0.7588728146989905
 40
0.8426338143143448
 40
0.9230634081006542
 40
1.0
 40
1.0
 40
1.0
 40
1.0
 10
2.750759533789348
 20
2.038596271237624
 30
0.0
 10
2.748888387827045
 20
2.038881228356153
 30
0.0
 10
2.744867341660505
 20
2.039493594121396
 30
0.0
 10
2.738162132948007
 20
2.040725432757504
 30
0.0
 10
2.728925459138865
 20
2.042677025161883
 30
0.0
 10
2.719673795043443
 20
2.045007033198671
 30
0.0
 10
2.706684411344911
 20
2.048803278578412
 30
0.0
 10
2.692556336495311
 20
2.053494135770234
 30
0.0
 10
2.674929658462498
 20
2.060489940297688
 30
0.0
 10
2.658849289381258
 20
2.067798156979117
 30
0.0
 10
2.644634329650278
 20
2.075153551185495
 30
0.0
 10
2.632561422817495
 20
2.082123005488238
 30
0.0
 10
2.62225950698402
 20
2.088655215291342
 30
0.0
 10
2.616144695179434
 20
2.093052575821448
 30
0.0
 10
2.613155153440839
 20
2.095202452753808
 30
0.0
  0
SPLINE
  5
DB
330
1F
100
AcDbEntity
  8
0
  6
Continuous
 62
     7
370
    25
100
AcDbSpline
210
0.0
220
0.0
230
1.0
 70
     8
 71
     3
 72
     8
 73
     4
 74
     0
 42
0.00000001
 43
0.00000001
 40
0.0
 40
0.0
 40
0.0
 40
0.0
 40
1.0
 40
1.0
 40
1.0
 40
1.0
 10
2.596949209417262
 20
2.10673000514358
 30
0.0
 10
1.873881767546022
 20
2.479222976880306
 30
0.0
 10
0.7837320457077458
 20
3.034367169335851
 30
0.0
 10
0.1802807578551862
 20
3.343135605362263
 30
0.0
  0
SPLINE
  5
DE
330
1F
100
AcDbEntity
  8
0
  6
Continuous
 62
     7
370
    25
100
AcDbSpline
210
0.0
220
0.0
230
1.0
 70
     8
 71
     3
 72
    24
 73
    20
 74
     0
 42
0.00000001
 43
0.00000001
 40
0.0
 40
0.0
 40
0.0
 40
0.0
 40
0.0447158923605794
 40
0.0901316515032702
 40
0.1362277633981788
 40
0.1829826957977022
 40
0.2303797340256263
 40
0.2784206379931475
 40
0.3271100302738984
 40
0.3764521890489175
 40
0.4264502866684735
 40
0.477102747558659
 40
0.5284061010288775
 40
0.5901050464919644
 40
0.6585561673651928
 40
0.7337545855351029
 40
0.8157267238734263
 40
0.9045141656030076
 40
0.9999999999999999
 40
0.9999999999999999
 40
0.9999999999999999
 40
0.9999999999999999
 10
2.745549355855427
 20
1.67624056439595
 30
0.0
 10
2.743588409336901
 20
1.675654486238472
 30
0.0
 10
2.739635824721142
 20
1.674473156973755
 30
0.0
 10
2.733460537304536
 20
1.672924521647682
 30
0.0
 10
2.727066706807626
 20
1.671537120885422
 30
0.0
 10
2.720455975603221
 20
1.670341945641334
 30
0.0
 10
2.713651517206832
 20
1.669349039253214
 30
0.0
 10
2.706673245064958
 20
1.668571245041482
 30
0.0
 10
2.699543251285693
 20
1.668019803023752
 30
0.0
 10
2.692285138241928
 20
1.667706994087268
 30
0.0
 10
2.684925429148249
 20
1.667644272832669
 30
0.0
 10
2.677492962975731
 20
1.667841080700494
 30
0.0
 10
2.669545949985973
 20
1.668336464629709
 30
0.0
 10
2.660844339646136
 20
1.669235348568995
 30
0.0
 10
2.651202403540622
 20
1.670697895760653
 30
0.0
 10
2.640933620751929
 20
1.672828062160808
 30
0.0
 10
2.630251614064317
 20
1.675765884811924
 30
0.0
 10
2.619323962379945
 20
1.679580917785582
 30
0.0
 10
2.612581837397626
 20
1.682816848940979
 30
0.0
 10
2.60908823570411
 20
1.684493628086166
 30
0.0
  0
LWPOLYLINE
  5
DF
330
1F
100
AcDbEntity
  8
0
  6
Continuous
 62
     7
370
    25
100
AcDbPolyline
 90
        3
 70
   128
 43
0.0
 10
2.6090882357
 20
1.6844936281
 10
2.6112902279
 20
1.9066196417
 10
2.6131551534
 20
2.0952024528
  0
LWPOLYLINE
  5
E0
330
1F
100
AcDbEntity
  8
0
  6
Continuous
 62
     7
370
    25
100
AcDbPolyline
 90
        3
 70
   128
 43
0.0
 10
2.7455493559
 20
1.6762405644
 10
2.748471571
 20
1.8791574693
 10
2.750759369
 20
2.0385964494
  0
SPLINE
  5
E1
330
1F
100
AcDbEntity
  8
0
  6
Continuous
 62
     7
370
    25
100
AcDbSpline
210
0.0
220
0.0
230
1.0
 70
     8
 71
     3
 72
     8
 73
     4
 74
     0
 42
0.00000001
 43
0.00000001
 40
0.0
 40
0.0
 40
0.0
 40
0.0
 40
1.0
 40
1.0
 40
1.0
 40
1.0
 10
0.3522831627185127
 20
2.728751045084969
 30
0.0
 10
0.3366873138583197
 20
2.735959737051638
 30
0.0
 10
0.3211603117792444
 20
2.742645291904934
 30
0.0
 10
0.3057094574604041
 20
2.748841394417391
 30
0.0
  0
SPLINE
  5
E2
330
1F
100
AcDbEntity
  8
0
  6
Continuous
 62
     7
370
    25
100
AcDbSpline
210
0.0
220
0.0
230
1.0
 70
     8
 71
     3
 72
    20
 73
    16
 74
     0
 42
0.00000001
 43
0.00000001
 40
0.0
 40
0.0
 40
0.0
 40
0.0
 40
0.1249999999999996
 40
0.1249999999999996
 40
0.2499999999999991
 40
0.2499999999999991
 40
0.3749999999999987
 40
0.3749999999999987
 40
0.4999999999999982
 40
0.4999999999999982
 40
0.7499999999999976
 40
0.7499999999999976
 40
0.8749999999999988
 40
0.8749999999999988
 40
1.0
 40
1.0
 40
1.0
 40
1.0
 10
0.1802807578551862
 20
3.343135605362263
 30
0.0
 10
0.1860657060666354
 20
3.302435525034399
 30
0.0
 10
0.1916704731966866
 20
3.264796007232768
 30
0.0
 10
0.2025076577246131
 20
3.195075358835672
 30
0.0
 10
0.2077626782843122
 20
3.162840822361806
 30
0.0
 10
0.2180700255421294
 20
3.102438170894132
 30
0.0
 10
0.2231279852210127
 20
3.074230720609514
 30
0.0
 10
0.2332329808270546
 20
3.020657648026772
 30
0.0
 10
0.238275657966616
 20
2.995330051753868
 30
0.0
 10
0.2533998702369688
 20
2.923609174913175
 30
0.0
 10
0.263453980461715
 20
2.881527554919781
 30
0.0
 10
0.2787634938149505
 20
2.82635502327938
 30
0.0
 10
0.2839098297774215
 20
2.809267702404713
 30
0.0
 10
0.2945076671638401
 20
2.777349308644794
 30
0.0
 10
0.299961881639341
 20
2.762500935026176
 30
0.0
 10
0.3057094574604041
 20
2.748841394417391
 30
0.0
  0
SPLINE
  5
E3
330
1F
100
AcDbEntity
  8
0
  6
Continuous
 62
     7
370
    25
100
AcDbSpline
210
0.0
220
0.0
230
1.0
 70
     8
 71
     3
 72
     8
 73
     4
 74
     0
 42
0.00000001
 43
0.00000001
 40
0.0
 40
0.0
 40
0.0
 40
0.0
 40
1.0
 40
1.0
 40
1.0
 40
1.0
 10
2.613155153440791
 20
2.095202452753774
 30
0.0
 10
2.607280423937115
 20
2.100601949650252
 30
0.0
 10
2.601794878834798
 20
2.104233741329307
 30
0.0
 10
2.596949209417262
 20
2.10673000514358
 30
0.0
  0
SPLINE
  5
E4
330
1F
100
AcDbEntity
  8
0
  6
Continuous
 62
     7
370
    25
100
AcDbSpline
210
0.0
220
0.0
230
1.0
 70
     8
 71
     3
 72
    12
 73
     8
 74
     0
 42
0.00000001
 43
0.00000001
 40
0.0
 40
0.0
 40
0.0
 40
0.0
 40
0.2500000000000001
 40
0.2500000000000001
 40
0.5000000000000002
 40
0.5000000000000002
 40
1.0
 40
1.0
 40
1.0
 40
1.0
 10
2.609088235704126
 20
1.684493628086173
 30
0.0
 10
2.421644906215796
 20
1.771856873265223
 30
0.0
 10
2.233824503165604
 20
1.859015894453495
 30
0.0
 10
1.857918648629695
 20
2.033182250442559
 30
0.0
 10
1.669815036274807
 20
2.120180700739293
 30
0.0
 10
1.105305566861938
 20
2.381065164367422
 30
0.0
 10
0.7286395227196175
 20
2.554795352611493
 30
0.0
 10
0.3522831627184719
 20
2.728751045084942
 30
0.0
  0
SPLINE
  5
E5
330
1F
100
AcDbEntity
  8
0
  6
Continuous
 62
     7
370
    25
100
AcDbSpline
210
0.0
220
0.0
230
1.0
 70
     8
 71
     3
 72
    28
 73
    24
 74
     0
 42
0.00000001
 43
0.00000001
 40
0.0
 40
0.0
 40
0.0
 40
0.0
 40
0.0470243520981435
 40
0.0941096825892592
 40
0.1412546338598341
 40
0.1884581090651275
 40
0.2357202367765859
 40
0.2830414968454446
 40
0.3304222975294686
 40
0.377862701257266
 40
0.4253626687314784
 40
0.4729221582845223
 40
0.5205410753707372
 40
0.5682192872891144
 40
0.6159566594895496
 40
0.6637532145159458
 40
0.7116093919519372
 40
0.7595257036149784
 40
0.8075026645041303
 40
0.8555401286907348
 40
0.9036366129390924
 40
0.95179045951047
 40
1.0
 40
1.0
 40
1.0
 40
1.0
 10
3.252475335766804
 20
1.897422153357436
 30
0.0
 10
3.245448018138076
 20
1.893396032781264
 30
0.0
 10
3.231384270271583
 20
1.885338570794358
 30
0.0
 10
3.209898285940997
 20
1.873431616746006
 30
0.0
 10
3.18811403517972
 20
1.861649912732581
 30
0.0
 10
3.166007799520361
 20
1.850009968342113
 30
0.0
 10
3.143590575575208
 20
1.838511231610112
 30
0.0
 10
3.120863843107951
 20
1.82715754850969
 30
0.0
 10
3.097831628986851
 20
1.815951579566283
 30
0.0
 10
3.074497549156292
 20
1.804896285310971
 30
0.0
 10
3.050865516045056
 20
1.793994584964293
 30
0.0
 10
3.026939429223244
 20
1.783249470782747
 30
0.0
 10
3.00272342721924
 20
1.772663842423689
 30
0.0
 10
2.978221762529518
 20
1.762240577991302
 30
0.0
 10
2.953438680745207
 20
1.751982581004273
 30
0.0
 10
2.928378400100418
 20
1.741892708835711
 30
0.0
 10
2.903045183526211
 20
1.731973710289173
 30
0.0
 10
2.877443360498314
 20
1.722228201479875
 30
0.0
 10
2.851576940328976
 20
1.712659308124715
 30
0.0
 10
2.825452106065834
 20
1.703268594151568
 30
0.0
 10
2.799069336968579
 20
1.694063779320379
 30
0.0
 10
2.772453105507958
 20
1.685029629580822
 30
0.0
 10
2.754520727122178
 20
1.679171381396716
 30
0.0
 10
2.745549355855242
 20
1.676240564396157
 30
0.0
  0
SPLINE
  5
E7
330
1F
100
AcDbEntity
  8
0
  6
Continuous
 62
     7
370
    25
100
AcDbSpline
210
0.0
220
0.0
230
1.0
 70
     8
 71
     3
 72
    14
 73
    10
 74
     0
 42
0.00000001
 43
0.00000001
 40
0.0
 40
0.0
 40
0.0
 40
0.0
 40
0.25
 40
0.25
 40
0.5
 40
0.5
 40
0.75
 40
0.75
 40
1.0
 40
1.0
 40
1.0
 40
1.0
 10
3.583526034930673
 20
2.687113813348166
 30
0.0
 10
3.593694917965205
 20
2.67915838803762
 30
0.0
 10
3.602531986672294
 20
2.669201742492873
 30
0.0
 10
3.616662317732274
 20
2.646999219153061
 30
0.0
 10
3.621999026005446
 20
2.634755354177281
 30
0.0
 10
3.62916349260862
 20
2.609331355850911
 30
0.0
 10
3.630995422846492
 20
2.596140253955527
 30
0.0
 10
3.631353686020695
 20
2.569957388954167
 30
0.0
 10
3.629884314907412
 20
2.556993047211798
 30
0.0
 10
3.626863647187758
 20
2.544356055855894
 30
0.0
  0
SPLINE
  5
E8
330
1F
100
AcDbEntity
  8
0
  6
Continuous
 62
     7
370
    25
100
AcDbSpline
210
0.0
220
0.0
230
1.0
 70
     8
 71
     3
 72
    23
 73
    19
 74
     0
 42
0.00000001
 43
0.00000001
 40
0.0
 40
0.0
 40
0.0
 40
0.0
 40
0.0480663502421887
 40
0.0980625811599005
 40
0.149987824642957
 40
0.2038408357913552
 40
0.2596199592042418
 40
0.3173230990352949
 40
0.3769476944101128
 40
0.4384912826529255
 40
0.5019538114120318
 40
0.567336114444032
 40
0.6346392130361403
 40
0.7038643493275281
 40
0.7750128806269365
 40
0.8480851638944412
 40
0.9230809599740437
 40
1.0
 40
1.0
 40
1.0
 40
1.0
 10
3.25247533737653
 20
2.258023239119093
 30
0.0
 10
3.259563635375418
 20
2.262146633407161
 30
0.0
 10
3.274024829002545
 20
2.27055897769772
 30
0.0
 10
3.295741476947092
 20
2.283629076678422
 30
0.0
 10
3.3179705688571
 20
2.297362343517657
 30
0.0
 10
3.340637700600668
 20
2.311790234105076
 30
0.0
 10
3.363703279177947
 20
2.326924716469105
 30
0.0
 10
3.387114188837174
 20
2.342783063362428
 30
0.0
 10
3.410817411721708
 20
2.359380779275389
 30
0.0
 10
3.434756339165717
 20
2.376733806801656
 30
0.0
 10
3.458873103809165
 20
2.394857531865808
 30
0.0
 10
3.483107243335674
 20
2.413767272619196
 30
0.0
 10
3.507395856893019
 20
2.433477819619613
 30
0.0
 10
3.53167122723705
 20
2.454003875311228
 30
0.0
 10
3.555868975771916
 20
2.475357495853211
 30
0.0
 10
3.579895664591482
 20
2.497556818565716
 30
0.0
 10
3.60375720582974
 20
2.520590176241923
 30
0.0
 10
3.619096740652843
 20
2.536367524071687
 30
0.0
 10
3.62686360742692
 20
2.544356068708486
 30
0.0
  0
SPLINE
  5
E9
330
1F
100
AcDbEntity
  8
0
  6
Continuous
 62
     7
370
    25
100
AcDbSpline
210
0.0
220
0.0
230
1.0
 70
     8
 71
     3
 72
     8
 73
     4
 74
     0
 42
0.00000001
 43
0.00000001
 40
0.0
 40
0.0
 40
0.0
 40
0.0
 40
1.0
 40
1.0
 40
1.0
 40
1.0
 10
3.549115309543699
 20
2.707209549694368
 30
0.0
 10
3.562121347454855
 20
2.702044360377732
 30
0.0
 10
3.573725942590841
 20
2.694776945814143
 30
0.0
 10
3.583526034929636
 20
2.68711381334574
 30
0.0
  0
SPLINE
  5
EA
330
1F
100
AcDbEntity
  8
0
  6
Continuous
 62
     7
370
    25
100
AcDbSpline
210
0.0
220
0.0
230
1.0
 70
     8
 71
     3
 72
    29
 73
    25
 74
     0
 42
0.00000001
 43
0.00000001
 40
0.0
 40
0.0
 40
0.0
 40
0.0
 40
0.0460191818598488
 40
0.0919866752356903
 40
0.1379011673064982
 40
0.183761355769716
 40
0.2295664327292739
 40
0.275316745732384
 40
0.3210128046501997
 40
0.3666551106413841
 40
0.4122438848016197
 40
0.4577789332903906
 40
0.503260027014399
 40
0.5486869398913063
 40
0.594059612416001
 40
0.6393784440632543
 40
0.6846439106819797
 40
0.7298564862613024
 40
0.7750166340369492
 40
0.8201241045450475
 40
0.8651775774957372
 40
0.9101756470504896
 40
0.955116915584352
 40
1.0
 40
1.0
 40
1.0
 40
1.0
 10
3.624723176812991
 20
2.183776808024987
 30
0.0
 10
3.620205651881738
 20
2.179021455219678
 30
0.0
 10
3.611175676077609
 20
2.169516090794353
 30
0.0
 10
3.597184281770293
 20
2.155373715622445
 30
0.0
 10
3.582880964298592
 20
2.141329658882021
 30
0.0
 10
3.568237287399034
 20
2.127394238553215
 30
0.0
 10
3.553266218770367
 20
2.113568050793676
 30
0.0
 10
3.537969661605914
 20
2.099853963787898
 30
0.0
 10
3.522352311395862
 20
2.086254015672522
 30
0.0
 10
3.50641804501422
 20
2.072770425913391
 30
0.0
 10
3.490171113795069
 20
2.059405386471753
 30
0.0
 10
3.473615954655264
 20
2.046161097394223
 30
0.0
 10
3.456757013410722
 20
2.033039789974414
 30
0.0
 10
3.43959869348392
 20
2.020043665676805
 30
0.0
 10
3.422145317123298
 20
2.00717484374099
 30
0.0
 10
3.404401315054173
 20
1.994435280049563
 30
0.0
 10
3.386371018247972
 20
1.981826861872344
 30
0.0
 10
3.368058693638165
 20
1.969351470196886
 30
0.0
 10
3.349468814525038
 20
1.95701097123894
 30
0.0
 10
3.330605616522735
 20
1.944807615328589
 30
0.0
 10
3.311476108034114
 20
1.932742589442854
 30
0.0
 10
3.292078868009825
 20
1.92082130274028
 30
0.0
 10
3.272444151681568
 20
1.909033819178014
 30
0.0
 10
3.259128732697444
 20
1.901291036824254
 30
0.0
 10
3.252475335765876
 20
1.897422153357971
 30
0.0
  0
LWPOLYLINE
  5
EB
330
1F
100
AcDbEntity
  8
0
  6
Continuous
 62
     7
370
    25
100
AcDbPolyline
 90
        3
 70
   128
 43
0.0
 10
3.6268636711
 20
2.5443560482
 10
3.6256689449
 20
2.3424289876
 10
3.6247231768
 20
2.183776808
  0
SPLINE
  5
ED
330
1F
100
AcDbEntity
  8
0
  6
Continuous
 62
     7
370
    25
100
AcDbSpline
210
0.0
220
0.0
230
1.0
 70
     8
 71
     3
 72
     8
 73
     4
 74
     0
 42
0.00000001
 43
0.00000001
 40
0.0
 40
0.0
 40
0.0
 40
0.0
 40
1.0
 40
1.0
 40
1.0
 40
1.0
 10
-0.7133425330849942
 20
0.224904134549132
 30
0.0
 10
-0.8852494841515198
 20
0.3236787872643382
 30
0.0
 10
-1.056687556033506
 20
0.4226997569069978
 30
0.0
 10
-1.228180799304907
 20
0.521701086480348
 30
0.0
  0
SPLINE
  5
EE
330
1F
100
AcDbEntity
  8
0
  6
Continuous
 62
     7
370
    25
100
AcDbSpline
210
0.0
220
0.0
230
1.0
 70
     8
 71
     3
 72
    12
 73
     8
 74
     0
 42
0.00000001
 43
0.00000001
 40
0.0
 40
0.0
 40
0.0
 40
0.0
 40
0.1907553934825029
 40
0.3861327195348177
 40
0.586132361994237
 40
0.7907546779438933
 40
1.0
 40
1.0
 40
1.0
 40
1.0
 10
-1.091552508935983
 20
1.599612762035349
 30
0.0
 10
-1.100041677010862
 20
1.530927494803806
 30
0.0
 10
-1.117225702560533
 20
1.391892741741768
 30
0.0
 10
-1.143670271516043
 20
1.181109336712875
 30
0.0
 10
-1.170997430643058
 20
0.9655285055602215
 30
0.0
 10
-1.199213700872494
 20
0.7451545694371912
 30
0.0
 10
-1.218453463090273
 20
0.5967381963927716
 30
0.0
 10
-1.228180800702223
 20
0.5217010856737008
 30
0.0
  0
SPLINE
  5
EF
330
1F
100
AcDbEntity
  8
0
  6
Continuous
 62
     7
370
    25
100
AcDbSpline
210
0.0
220
0.0
230
1.0
 70
     8
 71
     3
 72
    15
 73
    11
 74
     0
 42
0.00000001
 43
0.00000001
 40
0.0
 40
0.0
 40
0.0
 40
0.0
 40
0.1096089863838428
 40
0.2348053511506243
 40
0.3854352622935491
 40
0.5145739327746106
 40
0.6519510987480293
 40
0.7599794888008822
 40
0.8879141695230909
 40
1.0
 40
1.0
 40
1.0
 40
1.0
 10
-0.8181446074122013
 20
3.871079614972118
 30
0.0
 10
-0.828071731601813
 20
3.788033832843726
 30
0.0
 10
-0.8493377058449729
 20
3.610132415473172
 30
0.0
 10
-0.884391604490524
 20
3.318224415117216
 30
0.0
 10
-0.9212655414596972
 20
3.011568416073573
 30
0.0
 10
-0.9592150466711149
 20
2.695675093440591
 30
0.0
 10
-0.9932043661282408
 20
2.411989075702263
 30
0.0
 10
-1.027130985255634
 20
2.129254828936304
 30
0.0
 10
-1.058933120657951
 20
1.865804488075369
 30
0.0
 10
-1.081168795858313
 20
1.684349437146784
 30
0.0
 10
-1.091552508935983
 20
1.599612762035349
 30
0.0
  0
SPLINE
  5
F0
330
1F
100
AcDbEntity
  8
0
  6
Continuous
 62
     7
370
    25
100
AcDbSpline
210
0.0
220
0.0
230
1.0
 70
     8
 71
     3
 72
    16
 73
    12
 74
     0
 42
0.00000001
 43
0.00000001
 40
0.0
 40
0.0
 40
0.0
 40
0.0
 40
0.1025321985032965
 40
0.205064711899009
 40
0.3075979733601509
 40
0.4101322421785857
 40
0.5126676191216181
 40
0.6278034219108056
 40
0.7591459860806781
 40
0.910781110928047
 40
1.0
 40
1.0
 40
1.0
 40
1.0
 10
0.1802807579192758
 20
3.343135605400755
 30
0.0
 10
0.1458190652040512
 20
3.360976838399805
 30
0.0
 10
0.0768955739363551
 20
3.396659359191122
 30
0.0
 10
-0.026135595535496
 20
3.450391373131942
 30
0.0
 10
-0.1289353630145707
 20
3.504258294868036
 30
0.0
 10
-0.2314988775631679
 20
3.558264203725024
 30
0.0
 10
-0.3380475466082776
 20
3.614602140134973
 30
0.0
 10
-0.4539569608795679
 20
3.676159052897699
 30
0.0
 10
-0.5859191067604513
 20
3.746566063552971
 30
0.0
 10
-0.7090752571818366
 20
3.812527165431842
 30
0.0
 10
-0.7886631014443812
 20
3.855252855328768
 30
0.0
 10
-0.8181446074122013
 20
3.871079614972116
 30
0.0
  0
SPLINE
  5
F1
330
1F
100
AcDbEntity
  8
0
  6
Continuous
 62
     7
370
    25
100
AcDbSpline
210
0.0
220
0.0
230
1.0
 70
     8
 71
     3
 72
    33
 73
    29
 74
     0
 42
0.00000001
 43
0.00000001
 40
0.0
 40
0.0
 40
0.0
 40
0.0
 40
0.0128169462815284
 40
0.0256367622915684
 40
0.0384589994635164
 40
0.0512832025706136
 40
0.0719541728653062
 40
0.0892961060998487
 40
0.1213584935524602
 40
0.1922171147761766
 40
0.2445096205193373
 40
0.3072395548831449
 40
0.369672116557561
 40
0.4317373272960114
 40
0.4938629556251413
 40
0.5558442641624047
 40
0.6175426529251599
 40
0.6888138066187455
 40
0.7426445130473703
 40
0.7617830557036498
 40
0.8008439547272104
 40
0.836718370029927
 40
0.8683600158306263
 40
0.8980823607457248
 40
0.926111673355982
 40
0.9524431254297498
 40
0.9770732345748369
 40
1.0
 40
1.0
 40
1.0
 40
1.0
 10
0.3057094594229089
 20
2.748841395604242
 30
0.0
 10
0.300926290929
 20
2.750741864079246
 30
0.0
 10
0.2913588829844431
 20
2.754543226546259
 30
0.0
 10
0.2770573358604072
 20
2.759888417724849
 30
0.0
 10
0.2627956079626632
 20
2.764968586559458
 30
0.0
 10
0.2456807053907791
 20
2.770746249652695
 30
0.0
 10
0.2269944378267843
 20
2.776539373447945
 30
0.0
 10
0.2013900548744872
 20
2.783778582575359
 30
0.0
 10
0.1578341091446591
 20
2.794439588474246
 30
0.0
 10
0.1027681282239
 20
2.803453131038288
 30
0.0
 10
0.0390658783868304
 20
2.807160196386964
 30
0.0
 10
-0.01955217731323
 20
2.804554061899314
 30
0.0
 10
-0.0784776900271979
 20
2.794748057673024
 30
0.0
 10
-0.1338435351477828
 20
2.777786478628352
 30
0.0
 10
-0.185428733751203
 20
2.753952002877461
 30
0.0
 10
-0.2330406296956356
 20
2.723547636920336
 30
0.0
 10
-0.2785348500677141
 20
2.684749545161899
 30
0.0
 10
-0.3172328453369755
 20
2.640697232770975
 30
0.0
 10
-0.3433860496194333
 20
2.602021847934278
 30
0.0
 10
-0.361930214450308
 20
2.569957810098076
 30
0.0
 10
-0.376305704488266
 20
2.541687825718196
 30
0.0
 10
-0.3908145188169608
 20
2.507800089768243
 30
0.0
 10
-0.4025761678094212
 20
2.475422183441758
 30
0.0
 10
-0.4121290082198957
 20
2.444475625459761
 30
0.0
 10
-0.4199851684780408
 20
2.41436179049634
 30
0.0
 10
-0.4263393101892726
 20
2.385206229533961
 30
0.0
 10
-0.4314517893541131
 20
2.357260856751579
 30
0.0
 10
-0.43406150211911
 20
2.338757241062482
 30
0.0
 10
-0.4353196224840588
 20
2.329836805052865
 30
0.0
  0
SPLINE
  5
F2
330
1F
100
AcDbEntity
  8
0
  6
Continuous
 62
     7
370
    25
100
AcDbSpline
210
0.0
220
0.0
230
1.0
 70
     8
 71
     3
 72
    11
 73
     7
 74
     0
 42
0.00000001
 43
0.00000001
 40
0.0
 40
0.0
 40
0.0
 40
0.0
 40
0.25
 40
0.5
 40
0.75
 40
1.0
 40
1.0
 40
1.0
 40
1.0
 10
-0.4353196224841154
 20
2.32983680505283
 30
0.0
 10
-0.4583927464266906
 20
2.155486311601752
 30
0.0
 10
-0.5042284900823509
 20
1.808940076514511
 30
0.0
 10
-0.5708202314046777
 20
1.304978337359172
 30
0.0
 10
-0.6389846737310897
 20
0.7886703652057874
 30
0.0
 10
-0.6880918232696037
 20
0.4164014458164564
 30
0.0
 10
-0.7133425330849942
 20
0.224904134549132
 30
0.0
  0
SPLINE
  5
F3
330
1F
100
AcDbEntity
  8
0
  6
Continuous
 62
     7
370
    25
100
AcDbSpline
210
0.0
220
0.0
230
1.0
 70
     8
 71
     3
 72
    14
 73
    10
 74
     0
 42
0.00000001
 43
0.00000001
 40
0.0
 40
0.0
 40
0.0
 40
0.0
 40
0.25
 40
0.25
 40
0.5
 40
0.5
 40
0.75
 40
0.75
 40
1.0
 40
1.0
 40
1.0
 40
1.0
 10
-0.8181444692676243
 20
3.871079691126373
 30
0.0
 10
-0.8183446948802526
 20
3.876877684265828
 30
0.0
 10
-0.8176418770997224
 20
3.883632873284651
 30
0.0
 10
-0.8139014703230011
 20
3.898023938563387
 30
0.0
 10
-0.8108487677823348
 20
3.905630379764266
 30
0.0
 10
-0.802866830273074
 20
3.919824374835456
 30
0.0
 10
-0.7979646529667291
 20
3.926364279828162
 30
0.0
 10
-0.7876684920952107
 20
3.936972894577053
 30
0.0
 10
-0.7823074632277693
 20
3.94103970071831
 30
0.0
 10
-0.7773110711144651
 20
3.943836570858606
 30
0.0
  0
SPLINE
  5
F5
330
1F
100
AcDbEntity
  8
0
  6
Continuous
 62
     7
370
    25
100
AcDbSpline
210
0.0
220
0.0
230
1.0
 70
     8
 71
     3
 72
     9
 73
     5
 74
     0
 42
0.00000001
 43
0.00000001
 40
0.0
 40
0.0
 40
0.0
 40
0.0
 40
0.7395698594281856
 40
1.0
 40
1.0
 40
1.0
 40
1.0
 10
-1.04108219120566
 20
4.217811596437026
 30
0.0
 10
-1.040890919060476
 20
4.220953236752378
 30
0.0
 10
-1.040632292856681
 20
4.225201165836159
 30
0.0
 10
-1.039629392664808
 20
4.22941853694375
 30
0.0
 10
-1.039368207226859
 20
4.230516867494143
 30
0.0
  0
SPLINE
  5
F7
330
1F
100
AcDbEntity
  8
0
  6
Continuous
 62
     7
370
    25
100
AcDbSpline
210
0.0
220
0.0
230
1.0
 70
     8
 71
     3
 72
    12
 73
     8
 74
     0
 42
0.00000001
 43
0.00000001
 40
0.0
 40
0.0
 40
0.0
 40
0.0
 40
0.1867477415099028
 40
0.4011577765901513
 40
0.6337763431507353
 40
0.8562738027554728
 40
1.0
 40
1.0
 40
1.0
 40
1.0
 10
-1.376146535399979
 20
0.6407928990343762
 30
0.0
 10
-1.38831262516252
 20
0.6550530161446734
 30
0.0
 10
-1.414446925258879
 20
0.6856855519259885
 30
0.0
 10
-1.442310406514834
 20
0.7373401375990456
 30
0.0
 10
-1.46092488735716
 20
0.7933055064650423
 30
0.0
 10
-1.467894733048584
 20
0.8442821907345284
 30
0.0
 10
-1.463999362672254
 20
0.8753323623878462
 30
0.0
 10
-1.462470606240009
 20
0.8875181483469387
 30
0.0
  0
SPLINE
  5
F8
330
1F
100
AcDbEntity
  8
0
  6
Continuous
 62
     7
370
    25
100
AcDbSpline
210
0.0
220
0.0
230
1.0
 70
     8
 71
     3
 72
    22
 73
    18
 74
     0
 42
0.00000001
 43
0.00000001
 40
0.0
 40
0.0
 40
0.0
 40
0.0
 40
0.0522670642502281
 40
0.1052521217018663
 40
0.1589008867453647
 40
0.2131562750919125
 40
0.2679916204204416
 40
0.3234203928146863
 40
0.3794524644026771
 40
0.4360974533543407
 40
0.4933618373607248
 40
0.5591823228988272
 40
0.63244192636894
 40
0.7131492478860514
 40
0.8013459215623607
 40
0.897045304152703
 40
1.0
 40
1.0
 40
1.0
 40
1.0
 10
-0.6297835591999468
 20
0.2226344988530888
 30
0.0
 10
-0.6309545503523426
 20
0.2219921684091932
 30
0.0
 10
-0.6333126185746889
 20
0.2206986838214602
 30
0.0
 10
-0.6372130393995221
 20
0.2189902074774075
 30
0.0
 10
-0.6413816337518502
 20
0.217457290932017
 30
0.0
 10
-0.6458221785140458
 20
0.2161381801398903
 30
0.0
 10
-0.6505013100496512
 20
0.2150484292264452
 30
0.0
 10
-0.655389263492485
 20
0.2142028618083746
 30
0.0
 10
-0.6604539172981878
 20
0.2136153827178282
 30
0.0
 10
-0.6656609839979523
 20
0.2133018116767763
 30
0.0
 10
-0.6712159529468058
 20
0.2132702427606375
 30
0.0
 10
-0.6772900445498373
 20
0.2135904914004677
 30
0.0
 10
-0.6840188597208876
 20
0.214395591462511
 30
0.0
 10
-0.6912486769455569
 20
0.2158080055827414
 30
0.0
 10
-0.6987773346143642
 20
0.2179639834278439
 30
0.0
 10
-0.7064237622406694
 20
0.2209316211889255
 30
0.0
 10
-0.710980798252902
 20
0.2235481099913866
 30
0.0
 10
-0.7133425330851013
 20
0.2249041345490694
 30
0.0
  0
SPLINE
  5
F9
330
1F
100
AcDbEntity
  8
0
  6
Continuous
 62
     7
370
    25
100
AcDbSpline
210
0.0
220
0.0
230
1.0
 70
     8
 71
     3
 72
    11
 73
     7
 74
     0
 42
0.00000001
 43
0.00000001
 40
0.0
 40
0.0
 40
0.0
 40
0.0
 40
0.25
 40
0.5
 40
0.75
 40
1.0
 40
1.0
 40
1.0
 40
1.0
 10
-0.3524638653433976
 20
2.323477787035741
 30
0.0
 10
-0.375479347513843
 20
2.149436583424523
 30
0.0
 10
-0.4212017152180804
 20
1.803508710590445
 30
0.0
 10
-0.4876524693914703
 20
1.300299955062126
 30
0.0
 10
-0.5556337054289867
 20
0.785091541807755
 30
0.0
 10
-0.6046051208211065
 20
0.4136698250197242
 30
0.0
 10
-0.6297835591999138
 20
0.222634498853065
 30
0.0
  0
SPLINE
  5
FD
330
1F
100
AcDbEntity
  8
0
  6
Continuous
 62
     7
370
    25
100
AcDbSpline
210
0.0
220
0.0
230
1.0
 70
     8
 71
     3
 72
     8
 73
     4
 74
     0
 42
0.00000001
 43
0.00000001
 40
0.6470588235294118
 40
0.6470588235294118
 40
0.6470588235294118
 40
0.6470588235294118
 40
0.7058823529411765
 40
0.7058823529411765
 40
0.7058823529411765
 40
0.7058823529411765
 10
-0.1040503169586876
 20
0.6897438895085793
 30
0.0
 10
-0.1055572666063102
 20
0.6782854006083643
 30
0.0
 10
-0.11414942975516
 20
0.6681143628459945
 30
0.0
 10
-0.1232081914322521
 20
0.6628848510430977
 30
0.0
  0
SPLINE
  5
FE
330
1F
100
AcDbEntity
  8
0
  6
Continuous
 62
     7
370
    25
100
AcDbSpline
210
0.0
220
0.0
230
1.0
 70
     8
 71
     3
 72
     8
 73
     4
 74
     0
 42
0.00000001
 43
0.00000001
 40
0.5882352941176471
 40
0.5882352941176471
 40
0.5882352941176471
 40
0.5882352941176471
 40
0.6470588235294118
 40
0.6470588235294118
 40
0.6470588235294118
 40
0.6470588235294118
 10
-0.1232081914322521
 20
0.6628848510430977
 30
0.0
 10
-0.1290877564789659
 20
0.6594906503892222
 30
0.0
 10
-0.1331123731857322
 20
0.6595403475896314
 30
0.0
 10
-0.1368325901207178
 20
0.6613569234815817
 30
0.0
  0
SPLINE
  5
100
330
1F
100
AcDbEntity
  8
0
  6
Continuous
 62
     7
370
    25
100
AcDbSpline
210
0.0
220
0.0
230
1.0
 70
     8
 71
     3
 72
     8
 73
     4
 74
     0
 42
0.00000001
 43
0.00000001
 40
0.4705882352941177
 40
0.4705882352941177
 40
0.4705882352941177
 40
0.4705882352941177
 40
0.5294117647058824
 40
0.5294117647058824
 40
0.5294117647058824
 40
0.5294117647058824
 10
-0.1493167147264373
 20
0.6474518414289788
 30
0.0
 10
-0.1441570257607346
 20
0.6437487197789139
 30
0.0
 10
-0.1384284077039461
 20
0.6419460487735941
 30
0.0
 10
-0.1241442939469725
 20
0.650192092123527
 30
0.0
  0
SPLINE
  5
101
330
1F
100
AcDbEntity
  8
0
  6
Continuous
 62
     7
370
    25
100
AcDbSpline
210
0.0
220
0.0
230
1.0
 70
     8
 71
     3
 72
     8
 73
     4
 74
     0
 42
0.00000001
 43
0.00000001
 40
0.411764705882353
 40
0.411764705882353
 40
0.411764705882353
 40
0.411764705882353
 40
0.4705882352941177
 40
0.4705882352941177
 40
0.4705882352941177
 40
0.4705882352941177
 10
-0.1241442939469725
 20
0.650192092123527
 30
0.0
 10
-0.1123489733490051
 20
0.6570013857648435
 30
0.0
 10
-0.0940449101316978
 20
0.6756468860109379
 30
0.0
 10
-0.0914329418940293
 20
0.6955076750600331
 30
0.0
  0
SPLINE
  5
105
330
1F
100
AcDbEntity
  8
0
  6
Continuous
 62
     7
370
    25
100
AcDbSpline
210
0.0
220
0.0
230
1.0
 70
     8
 71
     3
 72
     8
 73
     4
 74
     0
 42
0.00000001
 43
0.00000001
 40
0.1764705882352941
 40
0.1764705882352941
 40
0.1764705882352941
 40
0.1764705882352941
 40
0.2352941176470588
 40
0.2352941176470588
 40
0.2352941176470588
 40
0.2352941176470588
 10
-0.1016263026524367
 20
0.7138677433745795
 30
0.0
 10
-0.1029519358694404
 20
0.7037879417523007
 30
0.0
 10
-0.1089410861816063
 20
0.6940834284692905
 30
0.0
 10
-0.1195226329346993
 20
0.6879748315538713
 30
0.0
  0
SPLINE
  5
106
330
1F
100
AcDbEntity
  8
0
  6
Continuous
 62
     7
370
    25
100
AcDbSpline
210
0.0
220
0.0
230
1.0
 70
     8
 71
     3
 72
     8
 73
     4
 74
     0
 42
0.00000001
 43
0.00000001
 40
0.1176470588235294
 40
0.1176470588235294
 40
0.1176470588235294
 40
0.1176470588235294
 40
0.1764705882352941
 40
0.1764705882352941
 40
0.1764705882352941
 40
0.1764705882352941
 10
-0.1195226329346993
 20
0.6879748315538713
 30
0.0
 10
-0.1279299655299251
 20
0.6831213817552311
 30
0.0
 10
-0.1338638253875985
 20
0.6839307087407415
 30
0.0
 10
-0.1324343048594911
 20
0.6948004449192495
 30
0.0
  0
SPLINE
  5
10A
330
1F
100
AcDbEntity
  8
0
  6
Continuous
 62
     7
370
    25
100
AcDbSpline
210
0.0
220
0.0
230
1.0
 70
     8
 71
     3
 72
     8
 73
     4
 74
     0
 42
0.00000001
 43
0.00000001
 40
0.8823529411764707
 40
0.8823529411764707
 40
0.8823529411764707
 40
0.8823529411764707
 40
0.9411764705882354
 40
0.9411764705882354
 40
0.9411764705882354
 40
0.9411764705882354
 10
-0.1460097655443365
 20
0.6874829466722898
 30
0.0
 10
-0.1484159046150562
 20
0.6691872339537253
 30
0.0
 10
-0.1383006541920536
 20
0.6649821521841368
 30
0.0
 10
-0.1241668702232139
 20
0.6731414119946197
 30
0.0
  0
SPLINE
  5
10B
330
1F
100
AcDbEntity
  8
0
  6
Continuous
 62
     7
370
    25
100
AcDbSpline
210
0.0
220
0.0
230
1.0
 70
     8
 71
     3
 72
     8
 73
     4
 74
     0
 42
0.00000001
 43
0.00000001
 40
0.823529411764706
 40
0.823529411764706
 40
0.823529411764706
 40
0.823529411764706
 40
0.8823529411764707
 40
0.8823529411764707
 40
0.8823529411764707
 40
0.8823529411764707
 10
-0.1241668702232139
 20
0.6731414119946197
 30
0.0
 10
-0.1153864970426599
 20
0.6782102135392788
 30
0.0
 10
-0.1100409184418
 20
0.6837840347846855
 30
0.0
 10
-0.103880653305131
 20
0.6930487445886181
 30
0.0
  0
SPLINE
  5
10C
330
1F
100
AcDbEntity
  8
0
  6
Continuous
 62
     7
370
    25
100
AcDbSpline
210
0.0
220
0.0
230
1.0
 70
     8
 71
     3
 72
     8
 73
     4
 74
     0
 42
0.00000001
 43
0.00000001
 40
0.6363636363636365
 40
0.6363636363636365
 40
0.6363636363636365
 40
0.6363636363636365
 40
0.7272727272727274
 40
0.7272727272727274
 40
0.7272727272727274
 40
0.7272727272727274
 10
-0.235951178010077
 20
0.6499796682424838
 30
0.0
 10
-0.2351749413596754
 20
0.655881988241427
 30
0.0
 10
-0.2302540621788186
 20
0.6623342846210418
 30
0.0
 10
-0.2252681242059488
 20
0.6652126053460005
 30
0.0
  0
SPLINE
  5
10D
330
1F
100
AcDbEntity
  8
0
  6
Continuous
 62
     7
370
    25
100
AcDbSpline
210
0.0
220
0.0
230
1.0
 70
     8
 71
     3
 72
     8
 73
     4
 74
     0
 42
0.00000001
 43
0.00000001
 40
0.5454545454545455
 40
0.5454545454545455
 40
0.5454545454545455
 40
0.5454545454545455
 40
0.6363636363636365
 40
0.6363636363636365
 40
0.6363636363636365
 40
0.6363636363636365
 10
-0.2252681242059488
 20
0.6652126053460005
 30
0.0
 10
-0.2239569143872976
 20
0.6659695506622735
 30
0.0
 10
-0.2215484496913569
 20
0.6665998927201571
 30
0.0
 10
-0.2203701282699866
 20
0.6662877033744411
 30
0.0
  0
SPLINE
  5
10F
330
1F
100
AcDbEntity
  8
0
  6
Continuous
 62
     7
370
    25
100
AcDbSpline
210
0.0
220
0.0
230
1.0
 70
     8
 71
     3
 72
     8
 73
     4
 74
     0
 42
0.00000001
 43
0.00000001
 40
0.3636363636363636
 40
0.3636363636363636
 40
0.3636363636363636
 40
0.3636363636363636
 40
0.4545454545454546
 40
0.4545454545454546
 40
0.4545454545454546
 40
0.4545454545454546
 10
-0.2137429691718632
 20
0.6828973792158801
 30
0.0
 10
-0.2154140106266153
 20
0.6830426867138107
 30
0.0
 10
-0.2179218567515956
 20
0.6823413032836112
 30
0.0
 10
-0.2209590752487587
 20
0.6805879543662801
 30
0.0
  0
SPLINE
  5
110
330
1F
100
AcDbEntity
  8
0
  6
Continuous
 62
     7
370
    25
100
AcDbSpline
210
0.0
220
0.0
230
1.0
 70
     8
 71
     3
 72
     8
 73
     4
 74
     0
 42
0.00000001
 43
0.00000001
 40
0.2727272727272727
 40
0.2727272727272727
 40
0.2727272727272727
 40
0.2727272727272727
 40
0.3636363636363636
 40
0.3636363636363636
 40
0.3636363636363636
 40
0.3636363636363636
 10
-0.2209590752487587
 20
0.6805879543662801
 30
0.0
 10
-0.2264238414356315
 20
0.6774332119971778
 30
0.0
 10
-0.2315995879437149
 20
0.6711946637770292
 30
0.0
 10
-0.2345416971703785
 20
0.6645505247905237
 30
0.0
  0
SPLINE
  5
119
330
1F
100
AcDbEntity
  8
0
  6
Continuous
 62
     7
370
    25
100
AcDbSpline
210
0.0
220
0.0
230
1.0
 70
     8
 71
     3
 72
     8
 73
     4
 74
     0
 42
0.00000001
 43
0.00000001
 40
0.3333333333333333
 40
0.3333333333333333
 40
0.3333333333333333
 40
0.3333333333333333
 40
0.4444444444444444
 40
0.4444444444444444
 40
0.4444444444444444
 40
0.4444444444444444
 10
-0.01340286955497
 20
0.7666516577985402
 30
0.0
 10
-0.0100671919590317
 20
0.7920153617338679
 30
0.0
 10
-0.0282808290302977
 20
0.7918187382943909
 30
0.0
 10
-0.0414959309605979
 20
0.7841898223360705
 30
0.0
  0
SPLINE
  5
11A
330
1F
100
AcDbEntity
  8
0
  6
Continuous
 62
     7
370
    25
100
AcDbSpline
210
0.0
220
0.0
230
1.0
 70
     8
 71
     3
 72
     8
 73
     4
 74
     0
 42
0.00000001
 43
0.00000001
 40
0.2222222222222222
 40
0.2222222222222222
 40
0.2222222222222222
 40
0.2222222222222222
 40
0.3333333333333333
 40
0.3333333333333333
 40
0.3333333333333333
 40
0.3333333333333333
 10
-0.0414959309605979
 20
0.7841898223360705
 30
0.0
 10
-0.0636138970099035
 20
0.7714213923194813
 30
0.0
 10
-0.0787050251354226
 20
0.746945577754677
 30
0.0
 10
-0.0809691459718595
 20
0.7297297381186415
 30
0.0
  0
SPLINE
  5
11B
330
1F
100
AcDbEntity
  8
0
  6
Continuous
 62
     7
370
    25
100
AcDbSpline
210
0.0
220
0.0
230
1.0
 70
     8
 71
     3
 72
     8
 73
     4
 74
     0
 42
0.00000001
 43
0.00000001
 40
0.1111111111111111
 40
0.1111111111111111
 40
0.1111111111111111
 40
0.1111111111111111
 40
0.2222222222222222
 40
0.2222222222222222
 40
0.2222222222222222
 40
0.2222222222222222
 10
-0.0809691459718595
 20
0.7297297381186415
 30
0.0
 10
-0.0832270413514486
 20
0.712561235384854
 30
0.0
 10
-0.0726260239756238
 20
0.7028953092038438
 30
0.0
 10
-0.0505080579263181
 20
0.7156637392204331
 30
0.0
  0
SPLINE
  5
11C
330
1F
100
AcDbEntity
  8
0
  6
Continuous
 62
     7
370
    25
100
AcDbSpline
210
0.0
220
0.0
230
1.0
 70
     8
 71
     3
 72
     8
 73
     4
 74
     0
 42
0.00000001
 43
0.00000001
 40
0.0
 40
0.0
 40
0.0
 40
0.0
 40
0.1111111111111111
 40
0.1111111111111111
 40
0.1111111111111111
 40
0.1111111111111111
 10
-0.0505080579263181
 20
0.7156637392204331
 30
0.0
 10
-0.0391036208911587
 20
0.7223567381403522
 30
0.0
 10
-0.0278174403146383
 20
0.7343317875003734
 30
0.0
 10
-0.0189427444648094
 20
0.7485289835945341
 30
0.0
  0
SPLINE
  5
11E
330
1F
100
AcDbEntity
  8
0
  6
Continuous
 62
     7
370
    25
100
AcDbSpline
210
0.0
220
0.0
230
1.0
 70
     8
 71
     3
 72
     8
 73
     4
 74
     0
 42
0.00000001
 43
0.00000001
 40
0.7777777777777779
 40
0.7777777777777779
 40
0.7777777777777779
 40
0.7777777777777779
 40
0.8888888888888891
 40
0.8888888888888891
 40
0.8888888888888891
 40
0.8888888888888891
 10
-0.0296106522834835
 20
0.7484535455647053
 30
0.0
 10
-0.0351868061270329
 20
0.7393073209202572
 30
0.0
 10
-0.0419390975606712
 20
0.7320547630085884
 30
0.0
 10
-0.0492857699841022
 20
0.727813619293824
 30
0.0
  0
SPLINE
  5
11F
330
1F
100
AcDbEntity
  8
0
  6
Continuous
 62
     7
370
    25
100
AcDbSpline
210
0.0
220
0.0
230
1.0
 70
     8
 71
     3
 72
     8
 73
     4
 74
     0
 42
0.00000001
 43
0.00000001
 40
0.6666666666666667
 40
0.6666666666666667
 40
0.6666666666666667
 40
0.6666666666666667
 40
0.7777777777777779
 40
0.7777777777777779
 40
0.7777777777777779
 40
0.7777777777777779
 10
-0.0492857699841022
 20
0.727813619293824
 30
0.0
 10
-0.0588428470699605
 20
0.7222964361287036
 30
0.0
 10
-0.0669299831039029
 20
0.7241810834298774
 30
0.0
 10
-0.0663933842107249
 20
0.7336796240428647
 30
0.0
  0
SPLINE
  5
120
330
1F
100
AcDbEntity
  8
0
  6
Continuous
 62
     7
370
    25
100
AcDbSpline
210
0.0
220
0.0
230
1.0
 70
     8
 71
     3
 72
     8
 73
     4
 74
     0
 42
0.00000001
 43
0.00000001
 40
0.5
 40
0.5
 40
0.5
 40
0.5
 40
0.625
 40
0.625
 40
0.625
 40
0.625
 10
0.0223462116156318
 20
0.7577216137999689
 30
0.0
 10
0.0344115690552389
 20
0.7646867963917743
 30
0.0
 10
0.0459888475645738
 20
0.7774669007766789
 30
0.0
 10
0.0528547884579949
 20
0.7898674595526581
 30
0.0
  0
SPLINE
  5
122
330
1F
100
AcDbEntity
  8
0
  6
Continuous
 62
     7
370
    25
100
AcDbSpline
210
0.0
220
0.0
230
1.0
 70
     8
 71
     3
 72
     8
 73
     4
 74
     0
 42
0.00000001
 43
0.00000001
 40
0.25
 40
0.25
 40
0.25
 40
0.25
 40
0.375
 40
0.375
 40
0.375
 40
0.375
 10
0.0418604054484757
 20
0.7902241555386949
 30
0.0
 10
0.0374321008146568
 20
0.7822162755081294
 30
0.0
 10
0.0315198297426827
 20
0.7751697892606633
 30
0.0
 10
0.0240757213454754
 20
0.7708723969555228
 30
0.0
  0
SPLINE
  5
123
330
1F
100
AcDbEntity
  8
0
  6
Continuous
 62
     7
370
    25
100
AcDbSpline
210
0.0
220
0.0
230
1.0
 70
     8
 71
     3
 72
     8
 73
     4
 74
     0
 42
0.00000001
 43
0.00000001
 40
0.125
 40
0.125
 40
0.125
 40
0.125
 40
0.25
 40
0.25
 40
0.25
 40
0.25
 10
0.0240757213454754
 20
0.7708723969555228
 30
0.0
 10
0.0121217193044552
 20
0.7639714984669963
 30
0.0
 10
0.0047181787636365
 20
0.7684133227216293
 30
0.0
 10
0.0062527538760091
 20
0.7800818691255721
 30
0.0
  0
SPLINE
  5
124
330
1F
100
AcDbEntity
  8
0
  6
Continuous
 62
     7
370
    25
100
AcDbSpline
210
0.0
220
0.0
230
1.0
 70
     8
 71
     3
 72
     8
 73
     4
 74
     0
 42
0.00000001
 43
0.00000001
 40
0.0
 40
0.0
 40
0.0
 40
0.0
 40
0.125
 40
0.125
 40
0.125
 40
0.125
 10
0.0062527538760091
 20
0.7800818691255721
 30
0.0
 10
0.0077904417168063
 20
0.7917740839806312
 30
0.0
 10
0.0175563472777404
 20
0.8061166827375169
 30
0.0
 10
0.0294936460089635
 20
0.8130079386105462
 30
0.0
  0
SPLINE
  5
126
330
1F
100
AcDbEntity
  8
0
  6
Continuous
 62
     7
370
    25
100
AcDbSpline
210
0.0
220
0.0
230
1.0
 70
     8
 71
     3
 72
     8
 73
     4
 74
     0
 42
0.00000001
 43
0.00000001
 40
0.75
 40
0.75
 40
0.75
 40
0.75
 40
0.875
 40
0.875
 40
0.875
 40
0.875
 10
0.031358338581352
 20
0.8262476969156063
 30
0.0
 10
0.0092236692222291
 20
0.8134696242835084
 30
0.0
 10
-0.0058646750183039
 20
0.7889954168212985
 30
0.0
 10
-0.0081287958547406
 20
0.7717795771852632
 30
0.0
  0
SPLINE
  5
127
330
1F
100
AcDbEntity
  8
0
  6
Continuous
 62
     7
370
    25
100
AcDbSpline
210
0.0
220
0.0
230
1.0
 70
     8
 71
     3
 72
     8
 73
     4
 74
     0
 42
0.00000001
 43
0.00000001
 40
0.625
 40
0.625
 40
0.625
 40
0.625
 40
0.75
 40
0.75
 40
0.75
 40
0.75
 10
-0.0081287958547406
 20
0.7717795771852632
 30
0.0
 10
-0.0103866912343296
 20
0.7546110744514756
 30
0.0
 10
0.0002115422565088
 20
0.744943541167871
 30
0.0
 10
0.0223462116156318
 20
0.7577216137999689
 30
0.0
  0
SPLINE
  5
128
330
1F
100
AcDbEntity
  8
0
  6
Continuous
 62
     7
370
    25
100
AcDbSpline
210
0.0
220
0.0
230
1.0
 70
     8
 71
     3
 72
     8
 73
     4
 74
     0
 42
0.00000001
 43
0.00000001
 40
0.7333333333333333
 40
0.7333333333333333
 40
0.7333333333333333
 40
0.7333333333333333
 40
0.7999999999999999
 40
0.7999999999999999
 40
0.7999999999999999
 40
0.7999999999999999
 10
0.0676349451712364
 20
0.8088489769075917
 30
0.0
 10
0.0658548536045259
 20
0.7953135814212666
 30
0.0
 10
0.0717349586493329
 20
0.7941150764460402
 30
0.0
 10
0.0848598144082732
 20
0.7953655597682896
 30
0.0
  0
SPLINE
  5
12B
330
1F
100
AcDbEntity
  8
0
  6
Continuous
 62
     7
370
    25
100
AcDbSpline
210
0.0
220
0.0
230
1.0
 70
     8
 71
     3
 72
     8
 73
     4
 74
     0
 42
0.00000001
 43
0.00000001
 40
0.5333333333333333
 40
0.5333333333333333
 40
0.5333333333333333
 40
0.5333333333333333
 40
0.6
 40
0.6
 40
0.6
 40
0.6
 10
0.0855725683933688
 20
0.8099005522779956
 30
0.0
 10
0.0818072144739569
 20
0.8099850932656665
 30
0.0
 10
0.0806739647527707
 20
0.8123026737185491
 30
0.0
 10
0.0815929978195616
 20
0.8192907839127966
 30
0.0
  0
SPLINE
  5
13A
330
1F
100
AcDbEntity
  8
0
  6
Continuous
 62
     7
370
    25
100
AcDbSpline
210
0.0
220
0.0
230
1.0
 70
     8
 71
     3
 72
     8
 73
     4
 74
     0
 42
0.00000001
 43
0.00000001
 40
0.3636363636363636
 40
0.3636363636363636
 40
0.3636363636363636
 40
0.3636363636363636
 40
0.4545454545454546
 40
0.4545454545454546
 40
0.4545454545454546
 40
0.4545454545454546
 10
0.1552892314501469
 20
0.888856966169237
 30
0.0
 10
0.1525071912074124
 20
0.8923497245836973
 30
0.0
 10
0.1458261205846115
 20
0.8923285408957751
 30
0.0
 10
0.1364277249417452
 20
0.88690296257783
 30
0.0
  0
SPLINE
  5
13B
330
1F
100
AcDbEntity
  8
0
  6
Continuous
 62
     7
370
    25
100
AcDbSpline
210
0.0
220
0.0
230
1.0
 70
     8
 71
     3
 72
     8
 73
     4
 74
     0
 42
0.00000001
 43
0.00000001
 40
0.2727272727272727
 40
0.2727272727272727
 40
0.2727272727272727
 40
0.2727272727272727
 40
0.3636363636363636
 40
0.3636363636363636
 40
0.3636363636363636
 40
0.3636363636363636
 10
0.1364277249417452
 20
0.88690296257783
 30
0.0
 10
0.115826976198528
 20
0.8750104034686089
 30
0.0
 10
0.1004642474082297
 20
0.8492322767754943
 30
0.0
 10
0.098363155722931
 20
0.8332560722670617
 30
0.0
  0
SPLINE
  5
13C
330
1F
100
AcDbEntity
  8
0
  6
Continuous
 62
     7
370
    25
100
AcDbSpline
210
0.0
220
0.0
230
1.0
 70
     8
 71
     3
 72
     8
 73
     4
 74
     0
 42
0.00000001
 43
0.00000001
 40
0.1818181818181818
 40
0.1818181818181818
 40
0.1818181818181818
 40
0.1818181818181818
 40
0.2727272727272727
 40
0.2727272727272727
 40
0.2727272727272727
 40
0.2727272727272727
 10
0.098363155722931
 20
0.8332560722670617
 30
0.0
 10
0.0961566203623154
 20
0.8164780989768209
 30
0.0
 10
0.1058961671942478
 20
0.8059539765007971
 30
0.0
 10
0.1267112750798011
 20
0.8179702825088622
 30
0.0
  0
SPLINE
  5
13D
330
1F
100
AcDbEntity
  8
0
  6
Continuous
 62
     7
370
    25
100
AcDbSpline
210
0.0
220
0.0
230
1.0
 70
     8
 71
     3
 72
     8
 73
     4
 74
     0
 42
0.00000001
 43
0.00000001
 40
0.0909090909090909
 40
0.0909090909090909
 40
0.0909090909090909
 40
0.0909090909090909
 40
0.1818181818181818
 40
0.1818181818181818
 40
0.1818181818181818
 40
0.1818181818181818
 10
0.1267112750798011
 20
0.8179702825088622
 30
0.0
 10
0.1353942122865789
 20
0.8229828354631452
 30
0.0
 10
0.1437246050099435
 20
0.8312612372918768
 30
0.0
 10
0.1488194254236378
 20
0.8396620905088026
 30
0.0
  0
SPLINE
  5
142
330
1F
100
AcDbEntity
  8
0
  6
Continuous
 62
     7
370
    25
100
AcDbSpline
210
0.0
220
0.0
230
1.0
 70
     8
 71
     3
 72
     8
 73
     4
 74
     0
 42
0.00000001
 43
0.00000001
 40
0.25
 40
0.25
 40
0.25
 40
0.25
 40
0.5
 40
0.5
 40
0.5
 40
0.5
 10
-0.1902089732550796
 20
0.635016117434036
 30
0.0
 10
-0.1681077105155307
 20
0.6477749048351517
 30
0.0
 10
-0.1529884146969315
 20
0.6722888517742946
 30
0.0
 10
-0.1507305193173425
 20
0.6894573545080821
 30
0.0
  0
SPLINE
  5
143
330
1F
100
AcDbEntity
  8
0
  6
Continuous
 62
     7
370
    25
100
AcDbSpline
210
0.0
220
0.0
230
1.0
 70
     8
 71
     3
 72
     8
 73
     4
 74
     0
 42
0.00000001
 43
0.00000001
 40
0.0
 40
0.0
 40
0.0
 40
0.0
 40
0.25
 40
0.25
 40
0.25
 40
0.25
 10
-0.1507305193173425
 20
0.6894573545080821
 30
0.0
 10
-0.1484663984809056
 20
0.7066731941441176
 30
0.0
 10
-0.1590955835498105
 20
0.716300987950789
 30
0.0
 10
-0.1811968462893594
 20
0.7035422005496733
 30
0.0
  0
SPLINE
  5
144
330
1F
100
AcDbEntity
  8
0
  6
Continuous
 62
     7
370
    25
100
AcDbSpline
210
0.0
220
0.0
230
1.0
 70
     8
 71
     3
 72
     8
 73
     4
 74
     0
 42
0.00000001
 43
0.00000001
 40
0.75
 40
0.75
 40
0.75
 40
0.75
 40
1.0
 40
1.0
 40
1.0
 40
1.0
 10
-0.1811968462893594
 20
0.7035422005496733
 30
0.0
 10
-0.2033621383830704
 20
0.6907464497891871
 30
0.0
 10
-0.2184365631987922
 20
0.6662802778398799
 30
0.0
 10
-0.220700684035229
 20
0.6490644382038447
 30
0.0
  0
SPLINE
  5
145
330
1F
100
AcDbEntity
  8
0
  6
Continuous
 62
     7
370
    25
100
AcDbSpline
210
0.0
220
0.0
230
1.0
 70
     8
 71
     3
 72
     8
 73
     4
 74
     0
 42
0.00000001
 43
0.00000001
 40
0.5
 40
0.5
 40
0.5
 40
0.5
 40
0.75
 40
0.75
 40
0.75
 40
0.75
 10
-0.220700684035229
 20
0.6490644382038447
 30
0.0
 10
-0.222958579414818
 20
0.631895935470057
 30
0.0
 10
-0.2123742653487906
 20
0.6222203666735497
 30
0.0
 10
-0.1902089732550796
 20
0.635016117434036
 30
0.0
  0
SPLINE
  5
14E
330
1F
100
AcDbEntity
  8
0
  6
Continuous
 62
     7
370
    25
100
AcDbSpline
210
0.0
220
0.0
230
1.0
 70
     8
 71
     3
 72
     8
 73
     4
 74
     0
 42
0.00000001
 43
0.00000001
 40
0.5454545454545455
 40
0.5454545454545455
 40
0.5454545454545455
 40
0.5454545454545455
 40
0.6363636363636365
 40
0.6363636363636365
 40
0.6363636363636365
 40
0.6363636363636365
 10
-0.2869513471382947
 20
0.605186830328985
 30
0.0
 10
-0.2686194646417744
 20
0.615769600833622
 30
0.0
 10
-0.2557187792701088
 20
0.6346612762398981
 30
0.0
 10
-0.2535503748326693
 20
0.6511493110038804
 30
0.0
  0
SPLINE
  5
14F
330
1F
100
AcDbEntity
  8
0
  6
Continuous
 62
     7
370
    25
100
AcDbSpline
210
0.0
220
0.0
230
1.0
 70
     8
 71
     3
 72
     8
 73
     4
 74
     0
 42
0.00000001
 43
0.00000001
 40
0.4545454545454546
 40
0.4545454545454546
 40
0.4545454545454546
 40
0.4545454545454546
 40
0.5454545454545455
 40
0.5454545454545455
 40
0.5454545454545455
 40
0.5454545454545455
 10
-0.2535503748326693
 20
0.6511493110038804
 30
0.0
 10
-0.2513757449383867
 20
0.6676846826701137
 30
0.0
 10
-0.2610244072904708
 20
0.6735206215752354
 30
0.0
 10
-0.2793562897869908
 20
0.6629378510705982
 30
0.0
  0
SPLINE
  5
151
330
1F
100
AcDbEntity
  8
0
  6
Continuous
 62
     7
370
    25
100
AcDbSpline
210
0.0
220
0.0
230
1.0
 70
     8
 71
     3
 72
     8
 73
     4
 74
     0
 42
0.00000001
 43
0.00000001
 40
0.5454545454545455
 40
0.5454545454545455
 40
0.5454545454545455
 40
0.5454545454545455
 40
0.6363636363636365
 40
0.6363636363636365
 40
0.6363636363636365
 40
0.6363636363636365
 10
-0.2870590252676807
 20
0.6052665426831672
 30
0.0
 10
-0.2687271427711607
 20
0.6158493131878043
 30
0.0
 10
-0.255826457399495
 20
0.6347409885940805
 30
0.0
 10
-0.2536580529620555
 20
0.6512290233580628
 30
0.0
  0
SPLINE
  5
156
330
1F
100
AcDbEntity
  8
0
  6
Continuous
 62
     7
370
    25
100
AcDbSpline
210
0.0
220
0.0
230
1.0
 70
     8
 71
     3
 72
     9
 73
     5
 74
     0
 42
0.00000001
 43
0.00000001
 40
0.0
 40
0.0
 40
0.0
 40
0.0
 40
0.5242468126716964
 40
0.9999999999999999
 40
0.9999999999999999
 40
0.9999999999999999
 40
0.9999999999999999
 10
-0.2536580529620555
 20
0.6512290233580628
 30
0.0
 10
-0.2534776819519613
 20
0.6554606157590392
 30
0.0
 10
-0.2531336245237911
 20
0.6635323718454732
 30
0.0
 10
-0.2579793458453865
 20
0.6663387046019963
 30
0.0
 10
-0.2602847132090401
 20
0.6676738263556158
 30
0.0
  0
SPLINE
  5
157
330
1F
100
AcDbEntity
  8
0
  6
Continuous
 62
     7
370
    25
100
AcDbSpline
210
0.0
220
0.0
230
1.0
 70
     8
 71
     3
 72
    10
 73
     6
 74
     0
 42
0.00000001
 43
0.00000001
 40
0.0
 40
0.0
 40
0.0
 40
0.0
 40
0.1654032894510076
 40
0.5403375532129797
 40
1.0
 40
1.0
 40
1.0
 40
1.0
 10
-0.2710029824439235
 20
0.6494161689862974
 30
0.0
 10
-0.2713551332586372
 20
0.6498270069269799
 30
0.0
 10
-0.2725055354677831
 20
0.6511691275605659
 30
0.0
 10
-0.2767739003923831
 20
0.6504785697898873
 30
0.0
 10
-0.2805196547629303
 20
0.6485955244016973
 30
0.0
 10
-0.2825826662716821
 20
0.6475584184083403
 30
0.0
  0
SPLINE
  5
160
330
1F
100
AcDbEntity
  8
0
  6
Continuous
 62
     7
370
    25
100
AcDbSpline
210
0.0
220
0.0
230
1.0
 70
     8
 71
     3
 72
     8
 73
     4
 74
     0
 42
0.00000001
 43
0.00000001
 40
0.2
 40
0.2
 40
0.2
 40
0.2
 40
0.4
 40
0.4
 40
0.4
 40
0.4
 10
-0.286183414966846
 20
0.6192807050967588
 30
0.0
 10
-0.2754292673458896
 20
0.6254889423722908
 30
0.0
 10
-0.2697180235495097
 20
0.6348799230598626
 30
0.0
 10
-0.2687308995484728
 20
0.6423857806224361
 30
0.0
  0
SPLINE
  5
162
330
1F
100
AcDbEntity
  8
0
  6
Continuous
 62
     7
370
    25
100
AcDbSpline
210
0.0
220
0.0
230
1.0
 70
     8
 71
     3
 72
     8
 73
     4
 74
     0
 42
0.00000001
 43
0.00000001
 40
0.4
 40
0.4
 40
0.4
 40
0.4
 40
0.6000000000000001
 40
0.6000000000000001
 40
0.6000000000000001
 40
0.6000000000000001
 10
-0.2687308995484728
 20
0.6423857806224361
 30
0.0
 10
-0.2677402737279598
 20
0.6499182651925295
 30
0.0
 10
-0.2717208405213395
 20
0.6536869433296902
 30
0.0
 10
-0.2824749881422959
 20
0.6474787060541579
 30
0.0
  0
SPLINE
  5
16A
330
1F
100
AcDbEntity
  8
0
  6
Continuous
 62
     7
370
    25
100
AcDbSpline
210
0.0
220
0.0
230
1.0
 70
     8
 71
     3
 72
     8
 73
     4
 74
     0
 42
0.00000001
 43
0.00000001
 40
0.5454545454545455
 40
0.5454545454545455
 40
0.5454545454545455
 40
0.5454545454545455
 40
0.6363636363636365
 40
0.6363636363636365
 40
0.6363636363636365
 40
0.6363636363636365
 10
-0.2253758023353349
 20
0.6652923177001825
 30
0.0
 10
-0.2240645925166838
 20
0.6660492630164558
 30
0.0
 10
-0.221656127820743
 20
0.6666796050743394
 30
0.0
 10
-0.2204778063993728
 20
0.6663674157286235
 30
0.0
  0
SPLINE
  5
16B
330
1F
100
AcDbEntity
  8
0
  6
Continuous
 62
     7
370
    25
100
AcDbSpline
210
0.0
220
0.0
230
1.0
 70
     8
 71
     3
 72
     8
 73
     4
 74
     0
 42
0.00000001
 43
0.00000001
 40
0.6363636363636365
 40
0.6363636363636365
 40
0.6363636363636365
 40
0.6363636363636365
 40
0.7272727272727274
 40
0.7272727272727274
 40
0.7272727272727274
 40
0.7272727272727274
 10
-0.236058856139463
 20
0.6500593805966659
 30
0.0
 10
-0.2352826194890616
 20
0.655961700595609
 30
0.0
 10
-0.2303617403082047
 20
0.6624139969752242
 30
0.0
 10
-0.2253758023353349
 20
0.6652923177001825
 30
0.0
  0
SPLINE
  5
172
330
1F
100
AcDbEntity
  8
0
  6
Continuous
 62
     7
370
    25
100
AcDbSpline
210
0.0
220
0.0
230
1.0
 70
     8
 71
     3
 72
     9
 73
     5
 74
     0
 42
0.00000001
 43
0.00000001
 40
0.0
 40
0.0
 40
0.0
 40
0.0
 40
0.7282387906795075
 40
1.0
 40
1.0
 40
1.0
 40
1.0
 10
-0.1508381974467286
 20
0.6895370668622642
 30
0.0
 10
-0.1505164012174213
 20
0.6943487306950039
 30
0.0
 10
-0.150074518371539
 20
0.7009559917944164
 30
0.0
 10
-0.1535261116103474
 20
0.703635047415551
 30
0.0
 10
-0.1544641207630084
 20
0.7043631108109877
 30
0.0
  0
SPLINE
  5
173
330
1F
100
AcDbEntity
  8
0
  6
Continuous
 62
     7
370
    25
100
AcDbSpline
210
0.0
220
0.0
230
1.0
 70
     8
 71
     3
 72
     8
 73
     4
 74
     0
 42
0.00000001
 43
0.00000001
 40
0.25
 40
0.25
 40
0.25
 40
0.25
 40
0.5
 40
0.5
 40
0.5
 40
0.5
 10
-0.1903166513844657
 20
0.635095829788218
 30
0.0
 10
-0.1682153886449168
 20
0.6478546171893338
 30
0.0
 10
-0.1530960928263176
 20
0.6723685641284768
 30
0.0
 10
-0.1508381974467286
 20
0.6895370668622642
 30
0.0
  0
SPLINE
  5
174
330
1F
100
AcDbEntity
  8
0
  6
Continuous
 62
     7
370
    25
100
AcDbSpline
210
0.0
220
0.0
230
1.0
 70
     8
 71
     3
 72
    10
 73
     6
 74
     0
 42
0.00000001
 43
0.00000001
 40
0.0
 40
0.0
 40
0.0
 40
0.0
 40
0.2606548303969763
 40
0.6071200705002966
 40
1.0
 40
1.0
 40
1.0
 40
1.0
 10
-0.2171860776338345
 20
0.6343376929795319
 30
0.0
 10
-0.2158852020813473
 20
0.6326311582713089
 30
0.0
 10
-0.2128551885729258
 20
0.6286562790381505
 30
0.0
 10
-0.2030185530395129
 20
0.6289253156858768
 30
0.0
 10
-0.1947241868036169
 20
0.6329546732748834
 30
0.0
 10
-0.1903166513844657
 20
0.635095829788218
 30
0.0
  0
SPLINE
  5
175
330
1F
100
AcDbEntity
  8
0
  6
Continuous
 62
     7
370
    25
100
AcDbSpline
210
0.0
220
0.0
230
1.0
 70
     8
 71
     3
 72
     9
 73
     5
 74
     0
 42
0.00000001
 43
0.00000001
 40
0.0
 40
0.0
 40
0.0
 40
0.0
 40
0.8733057422949247
 40
1.0
 40
1.0
 40
1.0
 40
1.0
 10
-0.2063961896992375
 20
0.657464120626747
 30
0.0
 10
-0.2067040099337922
 20
0.6542384832022754
 30
0.0
 10
-0.2070564869869556
 20
0.6505448885443553
 30
0.0
 10
-0.2052566981722701
 20
0.6490358144786428
 30
0.0
 10
-0.2050286752643676
 20
0.6488446234600656
 30
0.0
  0
SPLINE
  5
176
330
1F
100
AcDbEntity
  8
0
  6
Continuous
 62
     7
370
    25
100
AcDbSpline
210
0.0
220
0.0
230
1.0
 70
     8
 71
     3
 72
     9
 73
     5
 74
     0
 42
0.00000001
 43
0.00000001
 40
0.0
 40
0.0
 40
0.0
 40
0.0
 40
0.4422745301086733
 40
1.0
 40
1.0
 40
1.0
 40
1.0
 10
-0.1711369283856828
 20
0.6933212109934557
 30
0.0
 10
-0.1726495845430495
 20
0.6935233935884344
 30
0.0
 10
-0.1760697592408668
 20
0.6939805363385017
 30
0.0
 10
-0.1805415557201378
 20
0.6917200348035304
 30
0.0
 10
-0.1830355905127975
 20
0.6904592955227485
 30
0.0
  0
SPLINE
  5
177
330
1F
100
AcDbEntity
  8
0
  6
Continuous
 62
     7
370
    25
100
AcDbSpline
210
0.0
220
0.0
230
1.0
 70
     8
 71
     3
 72
     8
 73
     4
 74
     0
 42
0.00000001
 43
0.00000001
 40
0.5
 40
0.5
 40
0.5
 40
0.5
 40
0.75
 40
0.75
 40
0.75
 40
0.75
 10
-0.1830355905127975
 20
0.6904592955227485
 30
0.0
 10
-0.1949673214740681
 20
0.6835712538548964
 30
0.0
 10
-0.2048585018584404
 20
0.6691563354818058
 30
0.0
 10
-0.2063961896992375
 20
0.657464120626747
 30
0.0
  0
SPLINE
  5
17B
330
1F
100
AcDbEntity
  8
0
  6
Continuous
 62
     7
370
    25
100
AcDbSpline
210
0.0
220
0.0
230
1.0
 70
     8
 71
     3
 72
     8
 73
     4
 74
     0
 42
0.00000001
 43
0.00000001
 40
0.5
 40
0.5
 40
0.5
 40
0.5
 40
0.75
 40
0.75
 40
0.75
 40
0.75
 10
-0.1829279123834114
 20
0.6903795831685662
 30
0.0
 10
-0.1948596433446821
 20
0.683491541500714
 30
0.0
 10
-0.2047508237290542
 20
0.669076623127624
 30
0.0
 10
-0.2062885115698514
 20
0.6573844082725648
 30
0.0
  0
SPLINE
  5
17C
330
1F
100
AcDbEntity
  8
0
  6
Continuous
 62
     7
370
    25
100
AcDbSpline
210
0.0
220
0.0
230
1.0
 70
     8
 71
     3
 72
     8
 73
     4
 74
     0
 42
0.00000001
 43
0.00000001
 40
0.25
 40
0.25
 40
0.25
 40
0.25
 40
0.5
 40
0.5
 40
0.5
 40
0.5
 10
-0.1651649628624296
 20
0.6811245276187107
 30
0.0
 10
-0.1636272750216324
 20
0.6928167424737698
 30
0.0
 10
-0.1710240202717825
 20
0.6972515538106017
 30
0.0
 10
-0.1829279123834114
 20
0.6903795831685662
 30
0.0
  0
SPLINE
  5
17D
330
1F
100
AcDbEntity
  8
0
  6
Continuous
 62
     7
370
    25
100
AcDbSpline
210
0.0
220
0.0
230
1.0
 70
     8
 71
     3
 72
     8
 73
     4
 74
     0
 42
0.00000001
 43
0.00000001
 40
0.0
 40
0.0
 40
0.0
 40
0.0
 40
0.25
 40
0.25
 40
0.25
 40
0.25
 10
-0.188479463525236
 20
0.6481669005895898
 30
0.0
 10
-0.1765755714136073
 20
0.655038871231625
 30
0.0
 10
-0.1666995379748022
 20
0.6694559812147679
 30
0.0
 10
-0.1651649628624296
 20
0.6811245276187107
 30
0.0
  0
SPLINE
  5
17E
330
1F
100
AcDbEntity
  8
0
  6
Continuous
 62
     7
370
    25
100
AcDbSpline
210
0.0
220
0.0
230
1.0
 70
     8
 71
     3
 72
     8
 73
     4
 74
     0
 42
0.00000001
 43
0.00000001
 40
0.75
 40
0.75
 40
0.75
 40
0.75
 40
1.0
 40
1.0
 40
1.0
 40
1.0
 10
-0.2062885115698514
 20
0.6573844082725648
 30
0.0
 10
-0.207823086682224
 20
0.6457158618686221
 30
0.0
 10
-0.2004111944865067
 20
0.6412788589217376
 30
0.0
 10
-0.188479463525236
 20
0.6481669005895898
 30
0.0
  0
SPLINE
  5
182
330
1F
100
AcDbEntity
  8
0
  6
Continuous
 62
     7
370
    25
100
AcDbSpline
210
0.0
220
0.0
230
1.0
 70
     8
 71
     3
 72
     9
 73
     5
 74
     0
 42
0.00000001
 43
0.00000001
 40
0.0
 40
0.0
 40
0.0
 40
0.0
 40
0.4463279251681038
 40
1.0
 40
1.0
 40
1.0
 40
1.0
 10
-0.130626129466722
 20
0.6860946654874543
 30
0.0
 10
-0.131372836616676
 20
0.6869827818686016
 30
0.0
 10
-0.1330458378067153
 20
0.6889726111646574
 30
0.0
 10
-0.1327215384735418
 20
0.692774923251276
 30
0.0
 10
-0.1325419829888771
 20
0.6948801572734319
 30
0.0
  0
SPLINE
  5
184
330
1F
100
AcDbEntity
  8
0
  6
Continuous
 62
     7
370
    25
100
AcDbSpline
210
0.0
220
0.0
230
1.0
 70
     8
 71
     3
 72
     8
 73
     4
 74
     0
 42
0.00000001
 43
0.00000001
 40
0.411764705882353
 40
0.411764705882353
 40
0.411764705882353
 40
0.411764705882353
 40
0.4705882352941177
 40
0.4705882352941177
 40
0.4705882352941177
 40
0.4705882352941177
 10
-0.1242519720763588
 20
0.6502718044777094
 30
0.0
 10
-0.1124566514783911
 20
0.6570810981190253
 30
0.0
 10
-0.0941525882610839
 20
0.6757265983651204
 30
0.0
 10
-0.0915406200234154
 20
0.6955873874142151
 30
0.0
  0
SPLINE
  5
185
330
1F
100
AcDbEntity
  8
0
  6
Continuous
 62
     7
370
    25
100
AcDbSpline
210
0.0
220
0.0
230
1.0
 70
     8
 71
     3
 72
     8
 73
     4
 74
     0
 42
0.00000001
 43
0.00000001
 40
0.4705882352941177
 40
0.4705882352941177
 40
0.4705882352941177
 40
0.4705882352941177
 40
0.5294117647058824
 40
0.5294117647058824
 40
0.5294117647058824
 40
0.5294117647058824
 10
-0.1494243928558234
 20
0.6475315537831612
 30
0.0
 10
-0.1442647038901207
 20
0.6438284321330963
 30
0.0
 10
-0.1385360858333322
 20
0.6420257611277764
 30
0.0
 10
-0.1242519720763588
 20
0.6502718044777094
 30
0.0
  0
SPLINE
  5
187
330
1F
100
AcDbEntity
  8
0
  6
Continuous
 62
     7
370
    25
100
AcDbSpline
210
0.0
220
0.0
230
1.0
 70
     8
 71
     3
 72
     8
 73
     4
 74
     0
 42
0.00000001
 43
0.00000001
 40
0.823529411764706
 40
0.823529411764706
 40
0.823529411764706
 40
0.823529411764706
 40
0.8823529411764707
 40
0.8823529411764707
 40
0.8823529411764707
 40
0.8823529411764707
 10
-0.1242745483526001
 20
0.6732211243488015
 30
0.0
 10
-0.1154941751720462
 20
0.6782899258934612
 30
0.0
 10
-0.1101485965711862
 20
0.6838637471388679
 30
0.0
 10
-0.1039883314345171
 20
0.6931284569428005
 30
0.0
  0
SPLINE
  5
188
330
1F
100
AcDbEntity
  8
0
  6
Continuous
 62
     7
370
    25
100
AcDbSpline
210
0.0
220
0.0
230
1.0
 70
     8
 71
     3
 72
    11
 73
     7
 74
     0
 42
0.00000001
 43
0.00000001
 40
0.0
 40
0.0
 40
0.0
 40
0.0
 40
0.0153471209011718
 40
0.308116978992088
 40
0.6473080367456079
 40
1.0
 40
1.0
 40
1.0
 40
1.0
 10
-0.1441264680085759
 20
0.6731625005109882
 30
0.0
 10
-0.144091540425637
 20
0.6730652110247572
 30
0.0
 10
-0.1433903156546895
 20
0.671111975445382
 30
0.0
 10
-0.1397702110825663
 20
0.6693497375559558
 30
0.0
 10
-0.1331240544603542
 20
0.6688691571833458
 30
0.0
 10
-0.1272625097053026
 20
0.671751719215874
 30
0.0
 10
-0.1242745483526001
 20
0.6732211243488015
 30
0.0
  0
SPLINE
  5
18C
330
1F
100
AcDbEntity
  8
0
  6
Continuous
 62
     7
370
    25
100
AcDbSpline
210
0.0
220
0.0
230
1.0
 70
     8
 71
     3
 72
     8
 73
     4
 74
     0
 42
0.00000001
 43
0.00000001
 40
0.0
 40
0.0
 40
0.0
 40
0.0
 40
0.1111111111111111
 40
0.1111111111111111
 40
0.1111111111111111
 40
0.1111111111111111
 10
-0.0506157360557042
 20
0.7157434515746155
 30
0.0
 10
-0.0392112990205449
 20
0.7224364504945343
 30
0.0
 10
-0.0279251184440244
 20
0.7344114998545558
 30
0.0
 10
-0.0190504225941954
 20
0.7486086959487162
 30
0.0
  0
SPLINE
  5
18D
330
1F
100
AcDbEntity
  8
0
  6
Continuous
 62
     7
370
    25
100
AcDbSpline
210
0.0
220
0.0
230
1.0
 70
     8
 71
     3
 72
    10
 73
     6
 74
     0
 42
0.00000001
 43
0.00000001
 40
0.0
 40
0.0
 40
0.0
 40
0.0
 40
0.2608141701599759
 40
0.6073868466154937
 40
1.0
 40
1.0
 40
1.0
 40
1.0
 10
-0.0774510018287874
 20
0.7150025336923563
 30
0.0
 10
-0.0761505790453333
 20
0.7132968501611843
 30
0.0
 10
-0.0731221404707549
 20
0.7093246359954916
 30
0.0
 10
-0.0632998229167689
 20
0.7095848215129187
 30
0.0
 10
-0.0550157570966647
 20
0.7136070658693001
 30
0.0
 10
-0.0506157360557042
 20
0.7157434515746155
 30
0.0
  0
SPLINE
  5
18E
330
1F
100
AcDbEntity
  8
0
  6
Continuous
 62
     7
370
    25
100
AcDbSpline
210
0.0
220
0.0
230
1.0
 70
     8
 71
     3
 72
     9
 73
     5
 74
     0
 42
0.00000001
 43
0.00000001
 40
0.0
 40
0.0
 40
0.0
 40
0.0
 40
0.5867579430685564
 40
1.0
 40
1.0
 40
1.0
 40
1.0
 10
-0.0135105476843561
 20
0.7667313701527225
 30
0.0
 10
-0.0131880592195673
 20
0.7709653442679517
 30
0.0
 10
-0.0126384484838313
 20
0.778181222919865
 30
0.0
 10
-0.0155145837169874
 20
0.7823407830891395
 30
0.0
 10
-0.0167031237567498
 20
0.7840596882894205
 30
0.0
  0
SPLINE
  5
191
330
1F
100
AcDbEntity
  8
0
  6
Continuous
 62
     7
370
    25
100
AcDbSpline
210
0.0
220
0.0
230
1.0
 70
     8
 71
     3
 72
     9
 73
     5
 74
     0
 42
0.00000001
 43
0.00000001
 40
0.0
 40
0.0
 40
0.0
 40
0.0
 40
0.2890919032839491
 40
1.0
 40
1.0
 40
1.0
 40
1.0
 10
-0.0644956380151913
 20
0.7273691096426758
 30
0.0
 10
-0.0649310920480295
 20
0.7277350492689467
 30
0.0
 10
-0.0664373744028506
 20
0.7290008738116418
 30
0.0
 10
-0.066474599042434
 20
0.7317821234851566
 30
0.0
 10
-0.066501062340111
 20
0.733759336397047
 30
0.0
  0
SPLINE
  5
192
330
1F
100
AcDbEntity
  8
0
  6
Continuous
 62
     7
370
    25
100
AcDbSpline
210
0.0
220
0.0
230
1.0
 70
     8
 71
     3
 72
    10
 73
     6
 74
     0
 42
0.00000001
 43
0.00000001
 40
0.0
 40
0.0
 40
0.0
 40
0.0
 40
0.3846465743675268
 40
0.6863206143115941
 40
1.0
 40
1.0
 40
1.0
 40
1.0
 10
-0.0308082648185138
 20
0.7717852657173532
 30
0.0
 10
-0.0321157697727961
 20
0.7726758039760155
 30
0.0
 10
-0.0344487363536479
 20
0.7742647815088533
 30
0.0
 10
-0.0396676286760465
 20
0.7735607147298905
 30
0.0
 10
-0.0432375969186639
 20
0.7717583818962841
 30
0.0
 10
-0.0450574055012202
 20
0.770839634014982
 30
0.0
  0
SPLINE
  5
193
330
1F
100
AcDbEntity
  8
0
  6
Continuous
 62
     7
370
    25
100
AcDbSpline
210
0.0
220
0.0
230
1.0
 70
     8
 71
     3
 72
     8
 73
     4
 74
     0
 42
0.00000001
 43
0.00000001
 40
0.3333333333333333
 40
0.3333333333333333
 40
0.3333333333333333
 40
0.3333333333333333
 40
0.6666666666666666
 40
0.6666666666666666
 40
0.6666666666666666
 40
0.6666666666666666
 10
-0.0450574055012202
 20
0.770839634014982
 30
0.0
 10
-0.0536958005485388
 20
0.7658527947020242
 30
0.0
 10
-0.0615125199549401
 20
0.7562770437845394
 30
0.0
 10
-0.0649816617787961
 20
0.7453124991017737
 30
0.0
  0
SPLINE
  5
198
330
1F
100
AcDbEntity
  8
0
  6
Continuous
 62
     7
370
    25
100
AcDbSpline
210
0.0
220
0.0
230
1.0
 70
     8
 71
     3
 72
     8
 73
     4
 74
     0
 42
0.00000001
 43
0.00000001
 40
0.3333333333333333
 40
0.3333333333333333
 40
0.3333333333333333
 40
0.3333333333333333
 40
0.6666666666666666
 40
0.6666666666666666
 40
0.6666666666666666
 40
0.6666666666666666
 10
-0.0449497273718339
 20
0.7707599216607999
 30
0.0
 10
-0.0535881224191528
 20
0.7657730823478421
 30
0.0
 10
-0.061404841825554
 20
0.7561973314303571
 30
0.0
 10
-0.0648739836494099
 20
0.7452327867475915
 30
0.0
  0
SPLINE
  5
199
330
1F
100
AcDbEntity
  8
0
  6
Continuous
 62
     7
370
    25
100
AcDbSpline
210
0.0
220
0.0
230
1.0
 70
     8
 71
     3
 72
     9
 73
     5
 74
     0
 42
0.00000001
 43
0.00000001
 40
0.0
 40
0.0
 40
0.0
 40
0.0
 40
0.9879483359939089
 40
1.0
 40
1.0
 40
1.0
 40
1.0
 10
-0.0282269219661677
 20
0.7663886851413697
 30
0.0
 10
-0.028631248628442
 20
0.7686488806637337
 30
0.0
 10
-0.0290405075416294
 20
0.7709366475843492
 30
0.0
 10
-0.0306808182160144
 20
0.7716963971170737
 30
0.0
 10
-0.0307005866891277
 20
0.7717055533631708
 30
0.0
  0
SPLINE
  5
19A
330
1F
100
AcDbEntity
  8
0
  6
Continuous
 62
     7
370
    25
100
AcDbSpline
210
0.0
220
0.0
230
1.0
 70
     8
 71
     3
 72
    10
 73
     6
 74
     0
 42
0.00000001
 43
0.00000001
 40
0.0
 40
0.0
 40
0.0
 40
0.0
 40
0.2535768687197852
 40
0.6195071977653448
 40
1.0
 40
1.0
 40
1.0
 40
1.0
 10
-0.0326703524023883
 20
0.7726280504891131
 30
0.0
 10
-0.0333990877487016
 20
0.7730819679162351
 30
0.0
 10
-0.0351794425365267
 20
0.7741909220361941
 30
0.0
 10
-0.0395833501850867
 20
0.7734421763226795
 30
0.0
 10
-0.0431378194620178
 20
0.7716655602823271
 30
0.0
 10
-0.0449497273718339
 20
0.7707599216607999
 30
0.0
  0
SPLINE
  5
1A2
330
1F
100
AcDbEntity
  8
0
  6
Continuous
 62
     7
370
    25
100
AcDbSpline
210
0.0
220
0.0
230
1.0
 70
     8
 71
     3
 72
     8
 73
     4
 74
     0
 42
0.00000001
 43
0.00000001
 40
0.0
 40
0.0
 40
0.0
 40
0.0
 40
0.125
 40
0.125
 40
0.125
 40
0.125
 10
0.006145075746623
 20
0.7801615814797545
 30
0.0
 10
0.0076827635874202
 20
0.7918537963348133
 30
0.0
 10
0.0174486691483543
 20
0.8061963950916993
 30
0.0
 10
0.0293859678795773
 20
0.8130876509647286
 30
0.0
  0
SPLINE
  5
1A3
330
1F
100
AcDbEntity
  8
0
  6
Continuous
 62
     7
370
    25
100
AcDbSpline
210
0.0
220
0.0
230
1.0
 70
     8
 71
     3
 72
    10
 73
     6
 74
     0
 42
0.00000001
 43
0.00000001
 40
0.0
 40
0.0
 40
0.0
 40
0.0
 40
0.0337391200252659
 40
0.5082649192196423
 40
1.0
 40
1.0
 40
1.0
 40
1.0
 10
0.0092777352320357
 20
0.7692198546939132
 30
0.0
 10
0.0091626526940819
 20
0.7692466832472898
 30
0.0
 10
0.0074289851647317
 20
0.7696508435367232
 30
0.0
 10
0.0060043468352006
 20
0.7734185978996702
 30
0.0
 10
0.00609761241717
 20
0.7778873902853315
 30
0.0
 10
0.006145075746623
 20
0.7801615814797545
 30
0.0
  0
SPLINE
  5
1A4
330
1F
100
AcDbEntity
  8
0
  6
Continuous
 62
     7
370
    25
100
AcDbSpline
210
0.0
220
0.0
230
1.0
 70
     8
 71
     3
 72
     8
 73
     4
 74
     0
 42
0.00000001
 43
0.00000001
 40
0.5
 40
0.5
 40
0.5
 40
0.5
 40
0.625
 40
0.625
 40
0.625
 40
0.625
 10
0.0222385334862455
 20
0.7578013261541513
 30
0.0
 10
0.0343038909258529
 20
0.7647665087459564
 30
0.0
 10
0.0458811694351877
 20
0.777546613130861
 30
0.0
 10
0.0527471103286088
 20
0.7899471719068402
 30
0.0
  0
SPLINE
  5
1A5
330
1F
100
AcDbEntity
  8
0
  6
Continuous
 62
     7
370
    25
100
AcDbSpline
210
0.0
220
0.0
230
1.0
 70
     8
 71
     3
 72
    10
 73
     6
 74
     0
 42
0.00000001
 43
0.00000001
 40
0.0
 40
0.0
 40
0.0
 40
0.0
 40
0.2608034042656246
 40
0.6073236647916427
 40
1.0
 40
1.0
 40
1.0
 40
1.0
 10
-0.0046118681534769
 20
0.7570541298279271
 30
0.0
 10
-0.0033107334220377
 20
0.7553478830393637
 30
0.0
 10
-0.0002808269846183
 20
0.7513746064803902
 30
0.0
 10
0.0095476499436544
 20
0.7516382754710076
 30
0.0
 10
0.0178357339282509
 20
0.7556632026158984
 30
0.0
 10
0.0222385334862455
 20
0.7578013261541513
 30
0.0
  0
SPLINE
  5
1AB
330
1F
100
AcDbEntity
  8
0
  6
Continuous
 62
     7
370
    25
100
AcDbSpline
210
0.0
220
0.0
230
1.0
 70
     8
 71
     3
 72
    10
 73
     6
 74
     0
 42
0.00000001
 43
0.00000001
 40
0.0
 40
0.0
 40
0.0
 40
0.0
 40
0.3109633266874471
 40
0.6175885505238324
 40
1.0
 40
1.0
 40
1.0
 40
1.0
 10
0.0828044421821824
 20
0.8107805514250527
 30
0.0
 10
0.0823007533420553
 20
0.8113300284467609
 30
0.0
 10
0.0813004023874818
 20
0.8124213169951505
 30
0.0
 10
0.0810868563862453
 20
0.815607578973587
 30
0.0
 10
0.0813431038176772
 20
0.8180274702951013
 30
0.0
 10
0.0814853196901755
 20
0.8193704962669787
 30
0.0
  0
SPLINE
  5
1AD
330
1F
100
AcDbEntity
  8
0
  6
Continuous
 62
     7
370
    25
100
AcDbSpline
210
0.0
220
0.0
230
1.0
 70
     8
 71
     3
 72
     9
 73
     5
 74
     0
 42
0.00000001
 43
0.00000001
 40
0.0
 40
0.0
 40
0.0
 40
0.0
 40
0.1304689375538921
 40
0.9999999999999999
 40
0.9999999999999999
 40
0.9999999999999999
 40
0.9999999999999999
 10
0.0703255283507744
 20
0.7971303676569814
 30
0.0
 10
0.0707604051341158
 20
0.7967520574612182
 30
0.0
 10
0.0740935876639542
 20
0.7938524385721855
 30
0.0
 10
0.079794775961402
 20
0.7947044348734411
 30
0.0
 10
0.084752136278887
 20
0.795445272122472
 30
0.0
  0
SPLINE
  5
1B9
330
1F
100
AcDbEntity
  8
0
  6
Continuous
 62
     7
370
    25
100
AcDbSpline
210
0.0
220
0.0
230
1.0
 70
     8
 71
     3
 72
     8
 73
     4
 74
     0
 42
0.00000001
 43
0.00000001
 40
0.0909090909090909
 40
0.0909090909090909
 40
0.0909090909090909
 40
0.0909090909090909
 40
0.1818181818181818
 40
0.1818181818181818
 40
0.1818181818181818
 40
0.1818181818181818
 10
0.126603596950415
 20
0.8180499948630443
 30
0.0
 10
0.1352865341571929
 20
0.8230625478173274
 30
0.0
 10
0.1436169268805574
 20
0.8313409496460589
 30
0.0
 10
0.1487117472942517
 20
0.8397418028629847
 30
0.0
  0
SPLINE
  5
1BA
330
1F
100
AcDbEntity
  8
0
  6
Continuous
 62
     7
370
    25
100
AcDbSpline
210
0.0
220
0.0
230
1.0
 70
     8
 71
     3
 72
    10
 73
     6
 74
     0
 42
0.00000001
 43
0.00000001
 40
0.0
 40
0.0
 40
0.0
 40
0.0
 40
0.2428836816689029
 40
0.6008863784432997
 40
1.0
 40
1.0
 40
1.0
 40
1.0
 10
0.1020158421528033
 20
0.8179248116345481
 30
0.0
 10
0.1030727655925436
 20
0.8163798615559054
 30
0.0
 10
0.105687560022674
 20
0.8125577049941614
 30
0.0
 10
0.1146011684301875
 20
0.8123351637293142
 30
0.0
 10
0.1224605346157308
 20
0.8160773189517206
 30
0.0
 10
0.126603596950415
 20
0.8180499948630443
 30
0.0
  0
SPLINE
  5
1BE
330
1F
100
AcDbEntity
  8
0
  6
Continuous
 62
     7
370
    25
100
AcDbSpline
210
0.0
220
0.0
230
1.0
 70
     8
 71
     3
 72
     9
 73
     5
 74
     0
 42
0.00000001
 43
0.00000001
 40
0.0
 40
0.0
 40
0.0
 40
0.0
 40
0.8796621036665504
 40
0.9999999999999999
 40
0.9999999999999999
 40
0.9999999999999999
 40
0.9999999999999999
 10
0.1126537306340917
 20
0.8416477191770502
 30
0.0
 10
0.1123726376765734
 20
0.8384327708079429
 30
0.0
 10
0.1120530911639448
 20
0.8347780170613542
 30
0.0
 10
0.1138569583567142
 20
0.8332959406137948
 30
0.0
 10
0.114074031939957
 20
0.83311759065189
 30
0.0
  0
SPLINE
  5
1BF
330
1F
100
AcDbEntity
  8
0
  6
Continuous
 62
     7
370
    25
100
AcDbSpline
210
0.0
220
0.0
230
1.0
 70
     8
 71
     3
 72
     9
 73
     5
 74
     0
 42
0.00000001
 43
0.00000001
 40
0.0
 40
0.0
 40
0.0
 40
0.0
 40
0.454897735179025
 40
1.0
 40
1.0
 40
1.0
 40
1.0
 10
0.1468163043064351
 20
0.8768683872458475
 30
0.0
 10
0.1453592725362187
 20
0.8771042088765085
 30
0.0
 10
0.1421562850127858
 20
0.8776226146904407
 30
0.0
 10
0.1379253243792065
 20
0.8755464225463286
 30
0.0
 10
0.1356190181554741
 20
0.8744146855063697
 30
0.0
  0
SPLINE
  5
1C0
330
1F
100
AcDbEntity
  8
0
  6
Continuous
 62
     7
370
    25
100
AcDbSpline
210
0.0
220
0.0
230
1.0
 70
     8
 71
     3
 72
     8
 73
     4
 74
     0
 42
0.00000001
 43
0.00000001
 40
0.5
 40
0.5
 40
0.5
 40
0.5
 40
0.75
 40
0.75
 40
0.75
 40
0.75
 10
0.1356190181554741
 20
0.8744146855063697
 30
0.0
 10
0.1246171047726077
 20
0.8680634161010116
 30
0.0
 10
0.1141914184748889
 20
0.853339934032109
 30
0.0
 10
0.1126537306340917
 20
0.84164771917705
 30
0.0
  0
SPLINE
  5
1C4
330
1F
100
AcDbEntity
  8
0
  6
Continuous
 62
     7
370
    25
100
AcDbSpline
210
0.0
220
0.0
230
1.0
 70
     8
 71
     3
 72
     8
 73
     4
 74
     0
 42
0.00000001
 43
0.00000001
 40
0.5
 40
0.5
 40
0.5
 40
0.5
 40
0.75
 40
0.75
 40
0.75
 40
0.75
 10
0.1357266962848601
 20
0.8743349731521876
 30
0.0
 10
0.1247247829019939
 20
0.8679837037468291
 30
0.0
 10
0.114299096604275
 20
0.8532602216779266
 30
0.0
 10
0.1127614087634778
 20
0.8415680068228678
 30
0.0
  0
SPLINE
  5
1C5
330
1F
100
AcDbEntity
  8
0
  6
Continuous
 62
     7
370
    25
100
AcDbSpline
210
0.0
220
0.0
230
1.0
 70
     8
 71
     3
 72
     8
 73
     4
 74
     0
 42
0.00000001
 43
0.00000001
 40
0.25
 40
0.25
 40
0.25
 40
0.25
 40
0.5
 40
0.5
 40
0.5
 40
0.5
 10
0.1528632716886312
 20
0.8647183195212976
 30
0.0
 10
0.1544009595294284
 20
0.8764105343763567
 30
0.0
 10
0.1464752761358839
 20
0.8805399962225536
 30
0.0
 10
0.1357266962848601
 20
0.8743349731521876
 30
0.0
  0
SPLINE
  5
1C6
330
1F
100
AcDbEntity
  8
0
  6
Continuous
 62
     7
370
    25
100
AcDbSpline
210
0.0
220
0.0
230
1.0
 70
     8
 71
     3
 72
     8
 73
     4
 74
     0
 42
0.00000001
 43
0.00000001
 40
0.0
 40
0.0
 40
0.0
 40
0.0
 40
0.25
 40
0.25
 40
0.25
 40
0.25
 10
0.1301751451430355
 20
0.8321222905732109
 30
0.0
 10
0.1409237249940592
 20
0.8383273136435773
 30
0.0
 10
0.1513286965762586
 20
0.8530497731173549
 30
0.0
 10
0.1528632716886312
 20
0.8647183195212976
 30
0.0
  0
SPLINE
  5
1C7
330
1F
100
AcDbEntity
  8
0
  6
Continuous
 62
     7
370
    25
100
AcDbSpline
210
0.0
220
0.0
230
1.0
 70
     8
 71
     3
 72
     8
 73
     4
 74
     0
 42
0.00000001
 43
0.00000001
 40
0.75
 40
0.75
 40
0.75
 40
0.75
 40
1.0
 40
1.0
 40
1.0
 40
1.0
 10
0.1127614087634778
 20
0.8415680068228678
 30
0.0
 10
0.1112268336511052
 20
0.829899460418925
 30
0.0
 10
0.1191732317601691
 20
0.8257710211678525
 30
0.0
 10
0.1301751451430355
 20
0.8321222905732109
 30
0.0
  0
SPLINE
  5
1D4
330
1F
100
AcDbEntity
  8
0
  6
Continuous
 62
     7
370
    25
100
AcDbSpline
210
0.0
220
0.0
230
1.0
 70
     8
 71
     3
 72
    11
 73
     7
 74
     0
 42
0.00000001
 43
0.00000001
 40
0.0
 40
0.0
 40
0.0
 40
0.0
 40
0.1381503203770642
 40
0.3654339728911027
 40
0.5880698023432192
 40
0.9999999999999999
 40
0.9999999999999999
 40
0.9999999999999999
 40
0.9999999999999999
 10
0.3590066817841578
 20
4.015073144465812
 30
0.0
 10
0.358028027183449
 20
4.015399383311004
 30
0.0
 10
0.3554392989210096
 20
4.016262347341662
 30
0.0
 10
0.3520830587971502
 20
4.019539970670017
 30
0.0
 10
0.3480063155135298
 20
4.025682936825219
 30
0.0
 10
0.3469335754671531
 20
4.03229450452541
 30
0.0
 10
0.3462372034578425
 20
4.036586421005669
 30
0.0
  0
SPLINE
  5
1D5
330
1F
100
AcDbEntity
  8
0
  6
Continuous
 62
     7
370
    25
100
AcDbSpline
210
0.0
220
0.0
230
1.0
 70
     8
 71
     3
 72
    10
 73
     6
 74
     0
 42
0.00000001
 43
0.00000001
 40
0.0
 40
0.0
 40
0.0
 40
0.0
 40
0.1188928638847905
 40
0.559446431942484
 40
1.0
 40
1.0
 40
1.0
 40
1.0
 10
1.582753915286961
 20
3.574465706484955
 30
0.0
 10
1.581911669882166
 20
3.574586646415165
 30
0.0
 10
1.577948512034538
 20
3.57515572524987
 30
0.0
 10
1.572789403979441
 20
3.581682875324494
 30
0.0
 10
1.570972485302746
 20
3.589895583656694
 30
0.0
 10
1.570064025964398
 20
3.594001937822795
 30
0.0
  0
SPLINE
  5
1D6
330
1F
100
AcDbEntity
  8
0
  6
Continuous
 62
     7
370
    25
100
AcDbSpline
210
0.0
220
0.0
230
1.0
 70
     8
 71
     3
 72
    10
 73
     6
 74
     0
 42
0.00000001
 43
0.00000001
 40
0.0
 40
0.0
 40
0.0
 40
0.0
 40
0.4011924652703971
 40
0.8023849305408252
 40
0.9999999999999999
 40
0.9999999999999999
 40
0.9999999999999999
 40
0.9999999999999999
 10
1.616501722221819
 20
3.594260199982974
 30
0.0
 10
1.616518159271084
 20
3.590268400851058
 30
0.0
 10
1.616551033369612
 20
3.582284802587228
 30
0.0
 10
1.61379733968252
 20
3.57557531865197
 30
0.0
 10
1.610802205351567
 20
3.574909609184747
 30
0.0
 10
1.609813768091642
 20
3.574689915518628
 30
0.0
  0
SPLINE
  5
1D7
330
1F
100
AcDbEntity
  8
0
  6
Continuous
 62
     7
370
    25
100
AcDbSpline
210
0.0
220
0.0
230
1.0
 70
     8
 71
     3
 72
     9
 73
     5
 74
     0
 42
0.00000001
 43
0.00000001
 40
0.0
 40
0.0
 40
0.0
 40
0.0
 40
0.4709352449501413
 40
1.0
 40
1.0
 40
1.0
 40
1.0
 10
2.394659265802972
 20
4.027725335059201
 30
0.0
 10
2.396876439359017
 20
4.030172681495864
 30
0.0
 10
2.401584461491189
 20
4.035369460592155
 30
0.0
 10
2.401859423817457
 20
4.043439350690448
 30
0.0
 10
2.40200489669325
 20
4.047708845118581
 30
0.0
  0
SPLINE
  5
1D8
330
1F
100
AcDbEntity
  8
0
  6
Continuous
 62
     7
370
    25
100
AcDbSpline
210
0.0
220
0.0
230
1.0
 70
     8
 71
     3
 72
     9
 73
     5
 74
     0
 42
0.00000001
 43
0.00000001
 40
0.0
 40
0.0
 40
0.0
 40
0.0
 40
0.4999999999999926
 40
0.9999999999999999
 40
0.9999999999999999
 40
0.9999999999999999
 40
0.9999999999999999
 10
2.38064095098673
 20
4.189478545367196
 30
0.0
 10
2.377257047744838
 20
4.190766483854188
 30
0.0
 10
2.370489241261053
 20
4.193342360828171
 30
0.0
 10
2.362408632010238
 20
4.190198275430945
 30
0.0
 10
2.35836832738483
 20
4.188626232732333
 30
0.0
  0
SPLINE
  5
1D9
330
1F
100
AcDbEntity
  8
0
  6
Continuous
 62
     7
370
    25
100
AcDbSpline
210
0.0
220
0.0
230
1.0
 70
     8
 71
     3
 72
    12
 73
     8
 74
     0
 42
0.00000001
 43
0.00000001
 40
0.0
 40
0.0
 40
0.0
 40
0.0
 40
0.4625430800935781
 40
0.7311702565519623
 40
0.8655515542247411
 40
0.9327939532973183
 40
1.0
 40
1.0
 40
1.0
 40
1.0
 10
2.40114399468649
 20
4.157954173346782
 30
0.0
 10
2.401133616018906
 20
4.156107033485507
 30
0.0
 10
2.401117209821588
 20
4.153187146053656
 30
0.0
 10
2.398987106726425
 20
4.149761412877766
 30
0.0
 10
2.397508334414832
 20
4.147959590022968
 30
0.0
 10
2.396551183048541
 20
4.146948642004839
 30
0.0
 10
2.39602832077649
 20
4.146452678128366
 30
0.0
 10
2.395766960326601
 20
4.146204763239853
 30
0.0
  0
SPLINE
  5
1DA
330
1F
100
AcDbEntity
  8
0
  6
Continuous
 62
     7
370
    25
100
AcDbSpline
210
0.0
220
0.0
230
1.0
 70
     8
 71
     3
 72
     9
 73
     5
 74
     0
 42
0.00000001
 43
0.00000001
 40
0.0
 40
0.0
 40
0.0
 40
0.0
 40
0.5500747323661845
 40
1.0
 40
1.0
 40
1.0
 40
1.0
 10
2.395849348893278
 20
4.145163662488192
 30
0.0
 10
2.397737748856037
 20
4.147230178312736
 30
0.0
 10
2.401170736869569
 20
4.150986969350298
 30
0.0
 10
2.401171376927107
 20
4.154999440065885
 30
0.0
 10
2.401171664905168
 20
4.15680475202647
 30
0.0
  0
SPLINE
  5
1DB
330
1F
100
AcDbEntity
  8
0
  6
Continuous
 62
     7
370
    25
100
AcDbSpline
210
0.0
220
0.0
230
1.0
 70
     8
 71
     3
 72
    10
 73
     6
 74
     0
 42
0.00000001
 43
0.00000001
 40
0.0
 40
0.0
 40
0.0
 40
0.0
 40
0.4784636025016095
 40
0.9935099202946192
 40
0.9999999999999999
 40
0.9999999999999999
 40
0.9999999999999999
 40
0.9999999999999999
 10
0.9376373035169425
 20
4.934206577333067
 30
0.0
 10
0.941276948191839
 20
4.935533841772682
 30
0.0
 10
0.948834520119884
 20
4.938289851593948
 30
0.0
 10
0.956674070414694
 20
4.93788371492674
 30
0.0
 10
0.9593054343646861
 20
4.935353483164771
 30
0.0
 10
0.9593381794652224
 20
4.935321996568846
 30
0.0
  0
SPLINE
  5
1DC
330
1F
100
AcDbEntity
  8
0
  6
Continuous
 62
     7
370
    25
100
AcDbSpline
210
0.0
220
0.0
230
1.0
 70
     8
 71
     3
 72
     9
 73
     5
 74
     0
 42
0.00000001
 43
0.00000001
 40
0.0
 40
0.0
 40
0.0
 40
0.0
 40
0.4533005509229714
 40
1.0
 40
1.0
 40
1.0
 40
1.0
 10
2.407320921515217
 20
4.059378396584711
 30
0.0
 10
2.407318424598349
 20
4.057555357424145
 30
0.0
 10
2.407312916295166
 20
4.053533656685302
 30
0.0
 10
2.403881084379439
 20
4.04976769345809
 30
0.0
 10
2.402004903761787
 20
4.04770884343653
 30
0.0
  0
SPLINE
  5
1DD
330
1F
100
AcDbEntity
  8
0
  6
Continuous
 62
     7
370
    25
100
AcDbSpline
210
0.0
220
0.0
230
1.0
 70
     8
 71
     3
 72
    10
 73
     6
 74
     0
 42
0.00000001
 43
0.00000001
 40
0.0
 40
0.0
 40
0.0
 40
0.0
 40
0.2388411412245315
 40
0.6192690455106491
 40
1.0
 40
1.0
 40
1.0
 40
1.0
 10
0.0143669380093011
 20
4.000837783845855
 30
0.0
 10
0.0027124379089128
 20
3.994151385831393
 30
0.0
 10
-0.027505434590224
 20
3.976814844500651
 30
0.0
 10
-0.0696699889729043
 20
3.937874064986306
 30
0.0
 10
-0.0960163520471606
 20
3.901299612353822
 30
0.0
 10
-0.1091947783965852
 20
3.883005105103269
 30
0.0
  0
SPLINE
  5
1DF
330
1F
100
AcDbEntity
  8
0
  6
Continuous
 62
     7
370
    25
100
AcDbSpline
210
0.0
220
0.0
230
1.0
 70
     8
 71
     3
 72
    12
 73
     8
 74
     0
 42
0.00000001
 43
0.00000001
 40
0.0
 40
0.0
 40
0.0
 40
0.0
 40
0.1137509173612927
 40
0.3202831569566784
 40
0.5394511463359518
 40
0.7647654454348829
 40
1.0
 40
1.0
 40
1.0
 40
1.0
 10
-0.7704798038412183
 20
4.091805493410098
 30
0.0
 10
-0.7581116762186356
 20
4.083319538871486
 30
0.0
 10
-0.7232873156552653
 20
4.059426032142347
 30
0.0
 10
-0.6632451140987136
 20
4.02008770182004
 30
0.0
 10
-0.5924492835559209
 20
3.971558832057889
 30
0.0
 10
-0.5178843606670537
 20
3.921292090488416
 30
0.0
 10
-0.4676685204705452
 20
3.887048921290071
 30
0.0
 10
-0.4420197739656731
 20
3.869558536525926
 30
0.0
  0
SPLINE
  5
1E0
330
1F
100
AcDbEntity
  8
0
  6
Continuous
 62
     7
370
    25
100
AcDbSpline
210
0.0
220
0.0
230
1.0
 70
     8
 71
     3
 72
    14
 73
    10
 74
     0
 42
0.00000001
 43
0.00000001
 40
0.0
 40
0.0
 40
0.0
 40
0.0
 40
0.1200745914033713
 40
0.2421254006273958
 40
0.3693145740187163
 40
0.5611122365010068
 40
0.7526366650409739
 40
0.9441623181270004
 40
1.0
 40
1.0
 40
1.0
 40
1.0
 10
-0.5363787843729808
 20
4.489914073519275
 30
0.0
 10
-0.5640173357688375
 20
4.500648637395883
 30
0.0
 10
-0.6197493207897327
 20
4.522294437300818
 30
0.0
 10
-0.7087929149685704
 20
4.552729205842191
 30
0.0
 10
-0.8019265813749367
 20
4.60022335079576
 30
0.0
 10
-0.8857181164273804
 20
4.665745373608122
 30
0.0
 10
-0.9407821440952763
 20
4.750935997771315
 30
0.0
 10
-0.9611074786015078
 20
4.821108425833864
 30
0.0
 10
-0.9496646167706081
 20
4.861319372235688
 30
0.0
 10
-0.9470816030885832
 20
4.87039624708203
 30
0.0
  0
SPLINE
  5
1E1
330
1F
100
AcDbEntity
  8
0
  6
Continuous
 62
     7
370
    25
100
AcDbSpline
210
0.0
220
0.0
230
1.0
 70
     8
 71
     3
 72
     9
 73
     5
 74
     0
 42
0.00000001
 43
0.00000001
 40
0.0
 40
0.0
 40
0.0
 40
0.0
 40
0.5544690909890324
 40
1.0
 40
1.0
 40
1.0
 40
1.0
 10
0.4381980316917076
 20
5.193936293128
 30
0.0
 10
0.4426920660499933
 20
5.195659641578
 30
0.0
 10
0.4507971785464705
 20
5.19876774711175
 30
0.0
 10
0.4571975254241281
 20
5.195522910324542
 30
0.0
 10
0.4600490777865164
 20
5.194077235241146
 30
0.0
  0
LWPOLYLINE
  5
1E6
330
1F
100
AcDbEntity
  8
0
  6
Continuous
 62
     7
370
    25
100
AcDbPolyline
 90
       11
 70
   128
 43
0.0
 10
-0.4054877909
 20
3.8412389522
 10
-0.4967469817
 20
3.8542650768
 10
-0.5846689888
 20
3.8737643935
 10
-0.6671253993
 20
3.8993512354
 10
-0.7428158264
 20
3.9306220825
 10
-0.8105465867
 20
3.967083775
 10
-0.8692495258
 20
4.0081612901
 10
-0.9179988633
 20
4.0532068111
 10
-0.9560257929
 20
4.101509943
 10
-0.9827306072
 20
4.1523089166
 10
-0.9853088425
 20
4.158953369
  0
LWPOLYLINE
  5
1E8
330
1F
100
AcDbEntity
  8
0
  6
Continuous
 62
     7
370
    25
100
AcDbPolyline
 90
        3
 70
   128
 43
0.0
 10
0.3663602784
 20
4.0120486677
 10
0.3646215626
 20
4.0107598134
 10
0.3012388517
 20
3.9694251867
  0
SPLINE
  5
1E9
330
1F
100
AcDbEntity
  8
0
  6
Continuous
 62
     7
370
    25
100
AcDbSpline
210
0.0
220
0.0
230
1.0
 70
     8
 71
     3
 72
    38
 73
    34
 74
     0
 42
0.00000001
 43
0.00000001
 40
0.0
 40
0.0
 40
0.0
 40
0.0
 40
0.0624999999999996
 40
0.0624999999999996
 40
0.1249999999999992
 40
0.1249999999999992
 40
0.1874999999999988
 40
0.1874999999999988
 40
0.2499999999999988
 40
0.2499999999999988
 40
0.3124999999999987
 40
0.3124999999999987
 40
0.3749999999999987
 40
0.3749999999999987
 40
0.4999999999999986
 40
0.4999999999999986
 40
0.5624999999999988
 40
0.5624999999999988
 40
0.593749999999999
 40
0.593749999999999
 40
0.6249999999999991
 40
0.6249999999999991
 40
0.6562499999999992
 40
0.6562499999999992
 40
0.6874999999999993
 40
0.6874999999999993
 40
0.7499999999999997
 40
0.7499999999999997
 40
0.8750000000000003
 40
0.8750000000000003
 40
0.9375000000000001
 40
0.9375000000000001
 40
1.0
 40
1.0
 40
1.0
 40
1.0
 10
1.845872403104656
 20
3.671849622109191
 30
0.0
 10
1.886441044010336
 20
3.648816180890266
 30
0.0
 10
1.92732659700834
 20
3.625602490630808
 30
0.0
 10
2.008678104346332
 20
3.579414680226866
 30
0.0
 10
2.04926614240509
 20
3.556371258445847
 30
0.0
 10
2.129735010020067
 20
3.510688930661781
 30
0.0
 10
2.169532859081102
 20
3.488097107935193
 30
0.0
 10
2.247753664110693
 20
3.443698246306383
 30
0.0
 10
2.286273723783499
 20
3.421836055080095
 30
0.0
 10
2.362649017237297
 20
3.378494359148604
 30
0.0
 10
2.400509437198861
 20
3.357011918404504
 30
0.0
 10
2.47619718152405
 20
3.314072361886186
 30
0.0
 10
2.514040515610372
 20
3.292606195105208
 30
0.0
 10
2.629056828709418
 20
3.227377026733595
 30
0.0
 10
2.7077761740554
 20
3.182749427952606
 30
0.0
 10
2.826385956404179
 20
3.115544540573197
 30
0.0
 10
2.865984109565681
 20
3.093114181735746
 30
0.0
 10
2.925238790883464
 20
3.05956048836306
 30
0.0
 10
2.944978750824758
 20
3.048384362056002
 30
0.0
 10
2.984321499398511
 20
3.026113752438014
 30
0.0
 10
3.003901067683234
 20
3.015032389245783
 30
0.0
 10
3.042526995363824
 20
2.993175448116953
 30
0.0
 10
3.061571821696781
 20
2.982400739751706
 30
0.0
 10
3.098785158449561
 20
2.961351329173705
 30
0.0
 10
3.116966813305402
 20
2.951069171281911
 30
0.0
 10
3.17018307590366
 20
2.920980187003785
 30
0.0
 10
3.203851362164639
 20
2.901952114200803
 30
0.0
 10
3.299427156058792
 20
2.847958559953104
 30
0.0
 10
3.356014274350463
 20
2.816021928657045
 30
0.0
 10
3.433210210100476
 20
2.772491189299188
 30
0.0
 10
3.457694474923538
 20
2.758691463957168
 30
0.0
 10
3.504873723669537
 20
2.732113360586611
 30
0.0
 10
3.52752553108187
 20
2.719359325244199
 30
0.0
 10
3.549115309543699
 20
2.707209549694368
 30
0.0
  0
SPLINE
  5
1EA
330
1F
100
AcDbEntity
  8
0
  6
Continuous
 62
     7
370
    25
100
AcDbSpline
210
0.0
220
0.0
230
1.0
 70
     8
 71
     3
 72
    10
 73
     6
 74
     0
 42
0.00000001
 43
0.00000001
 40
0.0
 40
0.0
 40
0.0
 40
0.0
 40
0.3208562478785182
 40
0.6322006442234482
 40
1.0
 40
1.0
 40
1.0
 40
1.0
 10
0.2196468891961498
 20
3.416781903225842
 30
0.0
 10
0.1223429813505808
 20
3.467325987809809
 30
0.0
 10
-0.0693802393507925
 20
3.566915766868019
 30
0.0
 10
-0.3701823677633158
 20
3.725904586110191
 30
0.0
 10
-0.5731839532880525
 20
3.834629296331178
 30
0.0
 10
-0.6831221690846123
 20
3.89351061306472
 30
0.0
  0
SPLINE
  5
1F1
330
1F
100
AcDbEntity
  8
0
  6
Continuous
 62
     7
370
    25
100
AcDbSpline
210
0.0
220
0.0
230
1.0
 70
     8
 71
     3
 72
    11
 73
     7
 74
     0
 42
0.00000001
 43
0.00000001
 40
0.0
 40
0.0
 40
0.0
 40
0.0
 40
0.2098157643333189
 40
0.3414758095624769
 40
0.5982092676524227
 40
1.0
 40
1.0
 40
1.0
 40
1.0
 10
3.639832933259296
 20
2.592035644583203
 30
0.0
 10
3.640034088132226
 20
2.588671207248647
 30
0.0
 10
3.640361468314071
 20
2.583195575013909
 30
0.0
 10
3.638125167824248
 20
2.57351838293587
 30
0.0
 10
3.634745627068176
 20
2.560830148449727
 30
0.0
 10
3.6298504318011
 20
2.550598662920405
 30
0.0
 10
3.62686368640905
 20
2.544356043251264
 30
0.0
  0
SPLINE
  5
1F2
330
1F
100
AcDbEntity
  8
0
  6
Continuous
 62
     7
370
    25
100
AcDbSpline
210
0.0
220
0.0
230
1.0
 70
     8
 71
     3
 72
     9
 73
     5
 74
     0
 42
0.00000001
 43
0.00000001
 40
0.0
 40
0.0
 40
0.0
 40
0.0
 40
0.3393050243227971
 40
1.0
 40
1.0
 40
1.0
 40
1.0
 10
3.636461353860288
 20
2.214158641522579
 30
0.0
 10
3.636818938761281
 20
2.210603720605686
 30
0.0
 10
3.63787281322632
 20
2.200126655245432
 30
0.0
 10
3.629954660520934
 20
2.190281471476257
 30
0.0
 10
3.624723176811842
 20
2.183776808025345
 30
0.0
  0
SPLINE
  5
1F5
330
1F
100
AcDbEntity
  8
0
  6
Continuous
 62
     7
370
    25
100
AcDbSpline
210
0.0
220
0.0
230
1.0
 70
     8
 71
     3
 72
    11
 73
     7
 74
     0
 42
0.00000001
 43
0.00000001
 40
0.0
 40
0.0
 40
0.0
 40
0.0
 40
0.2056995299014778
 40
0.4485359789179967
 40
0.7133070590044489
 40
1.0
 40
1.0
 40
1.0
 40
1.0
 10
-0.1197205872351376
 20
2.722020410999246
 30
0.0
 10
-0.1446234639667168
 20
2.705922414111128
 30
0.0
 10
-0.1989251738346152
 20
2.67082009376898
 30
0.0
 10
-0.2663395463216252
 20
2.587194051933276
 30
0.0
 10
-0.3241465972922651
 20
2.473415182658172
 30
0.0
 10
-0.3427778981250367
 20
2.37476411508779
 30
0.0
 10
-0.3524638653434236
 20
2.323477787035759
 30
0.0
  0
SPLINE
  5
1F7
330
1F
100
AcDbEntity
  8
0
  6
Continuous
 62
     7
370
    25
100
AcDbSpline
210
0.0
220
0.0
230
1.0
 70
     8
 71
     3
 72
    20
 73
    16
 74
     0
 42
0.00000001
 43
0.00000001
 40
0.0
 40
0.0
 40
0.0
 40
0.0
 40
0.0642522878778817
 40
0.1439439702080996
 40
0.2359050118397069
 40
0.3144995940879541
 40
0.391381832096351
 40
0.4755867189989968
 40
0.5567562251963937
 40
0.6348919459034288
 40
0.7099956890554981
 40
0.7820695102211789
 40
0.8644302339916896
 40
0.9452767634458981
 40
1.0
 40
1.0
 40
1.0
 40
1.0
 10
-0.8181446145006945
 20
3.871079611417405
 30
0.0
 10
-0.8279847428743029
 20
3.876979641383747
 30
0.0
 10
-0.8500295165662021
 20
3.890197439002354
 30
0.0
 10
-0.8832048489225318
 20
3.913404664382469
 30
0.0
 10
-0.9153641638740766
 20
3.939260186621143
 30
0.0
 10
-0.9437818784057463
 20
3.966077578551379
 30
0.0
 10
-0.9682639178685282
 20
3.993039343335683
 30
0.0
 10
-0.9896961283092314
 20
4.021206249669322
 30
0.0
 10
-1.00771136485592
 20
4.050334258125758
 30
0.0
 10
-1.021701314539774
 20
4.078995222843282
 30
0.0
 10
-1.031976033350995
 20
4.107005576864033
 30
0.0
 10
-1.0393335265231
 20
4.135889082938585
 30
0.0
 10
-1.043322728144207
 20
4.165764098923584
 30
0.0
 10
-1.044109933889682
 20
4.193571442354968
 30
0.0
 10
-1.041952889953862
 20
4.210840768986313
 30
0.0
 10
-1.04108219120566
 20
4.217811596437026
 30
0.0
  0
SPLINE
  5
1F8
330
1F
100
AcDbEntity
  8
0
  6
Continuous
 62
     7
370
    25
100
AcDbSpline
210
0.0
220
0.0
230
1.0
 70
     8
 71
     3
 72
    14
 73
    10
 74
     0
 42
0.00000001
 43
0.00000001
 40
0.0
 40
0.0
 40
0.0
 40
0.0
 40
0.0615521175709518
 40
0.1198843166468556
 40
0.2049682448636601
 40
0.3368968451085217
 40
0.5321637707067257
 40
0.9148869539325076
 40
0.9999999999999999
 40
0.9999999999999999
 40
0.9999999999999999
 40
0.9999999999999999
 10
-1.228180798381379
 20
0.5217010870135353
 30
0.0
 10
-1.231846802166549
 20
0.523855030367604
 30
0.0
 10
-1.238987033501453
 20
0.5280502398468055
 30
0.0
 10
-1.250899258971729
 20
0.5353891583963833
 30
0.0
 10
-1.266533498148853
 20
0.5454424011343338
 30
0.0
 10
-1.289095894773702
 20
0.5609360952477181
 30
0.0
 10
-1.325154032362915
 20
0.5888368051498528
 30
0.0
 10
-1.356828124249913
 20
0.6160343214863329
 30
0.0
 10
-1.373172937474394
 20
0.6369819202605325
 30
0.0
 10
-1.376146535399979
 20
0.6407928990343762
 30
0.0
  0
SPLINE
  5
1F9
330
1F
100
AcDbEntity
  8
0
  6
Continuous
 62
     7
370
    25
100
AcDbSpline
210
0.0
220
0.0
230
1.0
 70
     8
 71
     3
 72
    12
 73
     8
 74
     0
 42
0.00000001
 43
0.00000001
 40
0.0
 40
0.0
 40
0.0
 40
0.0
 40
0.2062612238009386
 40
0.4191130674278968
 40
0.6388272839976433
 40
0.912079243631481
 40
0.9999999999999999
 40
0.9999999999999999
 40
0.9999999999999999
 40
0.9999999999999999
 10
0.4162396681040278
 20
0.8264908546076616
 30
0.0
 10
0.4319874540097173
 20
0.9465105466678215
 30
0.0
 10
0.463986211384012
 20
1.190384893790047
 30
0.0
 10
0.5127283773418748
 20
1.562088793130853
 30
0.0
 10
0.5665473432996955
 20
1.972751521381505
 30
0.0
 10
0.6108179238807175
 20
2.310713291128484
 30
0.0
 10
0.6383080990162372
 20
2.520824127189463
 30
0.0
 10
0.6450000690447878
 20
2.571971688478624
 30
0.0
  0
SPLINE
  5
1FA
330
1F
100
AcDbEntity
  8
0
  6
Continuous
 62
     7
370
    25
100
AcDbSpline
210
0.0
220
0.0
230
1.0
 70
     8
 71
     3
 72
     9
 73
     5
 74
     0
 42
0.00000001
 43
0.00000001
 40
0.0
 40
0.0
 40
0.0
 40
0.0
 40
0.5024387103461524
 40
1.0
 40
1.0
 40
1.0
 40
1.0
 10
0.4331882711970598
 20
0.8483793799774811
 30
0.0
 10
0.4320296814827743
 20
0.8442039683797788
 30
0.0
 10
0.4297237490567334
 20
0.8358936779667938
 30
0.0
 10
0.4207197229471993
 20
0.8296149210143277
 30
0.0
 10
0.4162396681040626
 20
0.8264908546076358
 30
0.0
  0
LINE
  5
1FE
330
1F
100
AcDbEntity
  8
0
  6
Continuous
 62
     7
370
    25
100
AcDbLine
 10
-1.3773742584
 20
0.2315440517
 30
0.0
 11
-0.7268360197
 21
-0.1440036797
 31
0.0
  0
LINE
  5
1FF
330
1F
100
AcDbEntity
  8
0
  6
Continuous
 62
     7
370
    25
100
AcDbLine
 10
-0.6169610988
 20
-0.1440036797
 30
0.0
 11
0.6841153786
 21
0.6070917832
 31
0.0
  0
LINE
  5
200
330
1F
100
AcDbEntity
  8
0
  6
Continuous
 62
     7
370
    25
100
AcDbLine
 10
-1.6718985592
 20
0.8288108204
 30
0.0
 11
-1.6718985592
 21
0.6433531849
 31
0.0
  0
LINE
  5
201
330
1F
100
AcDbEntity
  8
0
  6
Continuous
 62
     7
370
    25
100
AcDbLine
 10
0.7091779181
 20
0.6433531849
 30
0.0
 11
0.7091779181
 21
0.8288108204
 31
0.0
  0
LINE
  5
202
330
1F
100
AcDbEntity
  8
0
  6
Continuous
 62
     7
370
    25
100
AcDbLine
 10
0.6836749865
 20
0.866045593
 30
0.0
 11
0.4530816894
 21
0.9991642699
 31
0.0
  0
LINE
  5
203
330
1F
100
AcDbEntity
  8
0
  6
Continuous
 62
     7
370
    25
100
AcDbLine
 10
2.4075948477
 20
4.0593809031
 30
0.0
 11
2.4014590618
 21
4.1568540695
 31
0.0
  0
LINE
  5
204
330
1F
100
AcDbEntity
  8
0
  6
Continuous
 62
     7
370
    25
100
AcDbLine
 10
-0.95009501
 20
4.8710408751
 30
0.0
 11
-0.9524148768
 21
4.8613117194
 31
0.0
  0
LINE
  5
205
330
1F
100
AcDbEntity
  8
0
  6
Continuous
 62
     7
370
    25
100
AcDbLine
 10
-0.439860486
 20
3.8608499305
 30
0.0
 11
-0.2174405859
 21
3.7420984417
 31
0.0
  0
LINE
  5
206
330
1F
100
AcDbEntity
  8
0
  6
Continuous
 62
     7
370
    25
100
AcDbLine
 10
-0.1697590496
 20
3.7437361535
 30
0.0
 11
0.3180139038
 21
4.0253066107
 31
0.0
  0
LINE
  5
207
330
1F
100
AcDbEntity
  8
0
  6
Continuous
 62
     7
370
    25
100
AcDbLine
 10
-0.9827291783
 20
4.3390302941
 30
0.0
 11
-0.9890065243
 21
4.3202488028
 31
0.0
  0
LINE
  5
208
330
1F
100
AcDbEntity
  8
0
  6
Continuous
 62
     7
370
    25
100
AcDbLine
 10
3.6381468926
 20
2.2141512709
 30
0.0
 11
3.6413395047
 21
2.5985134766
 31
0.0
  0
LINE
  5
209
330
1F
100
AcDbEntity
  8
0
  6
Continuous
 62
     7
370
    25
100
AcDbLine
 10
3.6076409007
 20
2.688222282
 30
0.0
 11
3.5792865956
 21
2.709780327
 31
0.0
  0
LINE
  5
20A
330
1F
100
AcDbEntity
  8
0
  6
Continuous
 62
     7
370
    25
100
AcDbLine
 10
0.324484207
 20
2.7186846184
 30
0.0
 11
0.3682403954
 21
2.699791085
 31
0.0
  0
LINE
  5
20B
330
1F
100
AcDbEntity
  8
0
  6
Continuous
 62
     7
370
    25
100
AcDbLine
 10
-1.0414615732
 20
4.2178565182
 30
0.0
 11
-1.4636507594
 21
0.8876517433
 31
0.0
  0
LINE
  5
20C
330
1F
100
AcDbEntity
  8
0
  6
Continuous
 62
     7
370
    25
100
AcDbLine
 10
-0.6337246396
 20
0.2157894745
 30
0.0
 11
0.4122985871
 21
0.8196458298
 31
0.0
  0
LINE
  5
20D
330
1F
100
AcDbEntity
  8
0
  6
Continuous
 62
     7
370
    25
100
AcDbLine
 10
-0.7284671017
 20
0.0450590331
 30
0.0
 11
-0.7284671017
 21
-0.1403986025
 31
0.0
  0
LINE
  5
20E
330
1F
100
AcDbEntity
  8
0
  6
Continuous
 62
     7
370
    25
100
AcDbLine
 10
-0.6153300167
 20
-0.1403986025
 30
0.0
 11
-0.6153300167
 21
0.0450590331
 31
0.0
  0
LINE
  5
20F
330
1F
100
AcDbEntity
  8
0
  6
Continuous
 62
     7
370
    25
100
AcDbLine
 10
0.6786753928
 20
0.8084019446
 30
0.0
 11
-0.6224010846
 21
0.0573064818
 31
0.0
  0
LINE
  5
210
330
1F
100
AcDbEntity
  8
0
  6
Continuous
 62
     7
370
    25
100
AcDbLine
 10
-0.7213960339
 20
0.0573064818
 30
0.0
 11
-1.3719342726
 21
0.4328542132
 31
0.0
  0
LINE
  5
211
330
1F
100
AcDbEntity
  8
0
  6
Continuous
 62
     7
370
    25
100
AcDbLine
 10
-1.3790053404
 20
0.4206067645
 30
0.0
 11
-0.7284671017
 21
0.0450590331
 31
0.0
  0
LINE
  5
212
330
1F
100
AcDbEntity
  8
0
  6
Continuous
 62
     7
370
    25
100
AcDbLine
 10
-0.6153300167
 20
0.0450590331
 30
0.0
 11
0.6857464606
 21
0.796154496
 31
0.0
  0
LINE
  5
213
330
1F
100
AcDbEntity
  8
0
  6
Continuous
 62
     7
370
    25
100
AcDbLine
 10
-0.7284671017
 20
-0.1403986025
 30
0.0
 11
-1.3790053404
 21
0.2351491289
 31
0.0
  0
LINE
  5
214
330
1F
100
AcDbEntity
  8
0
  6
Continuous
 62
     7
370
    25
100
AcDbLine
 10
-1.3790053404
 20
0.2351491289
 30
0.0
 11
-1.3790053404
 21
0.4206067645
 31
0.0
  0
LINE
  5
215
330
1F
100
AcDbEntity
  8
0
  6
Continuous
 62
     7
370
    25
100
AcDbLine
 10
0.6857464606
 20
0.6106968604
 30
0.0
 11
-0.6153300167
 21
-0.1403986025
 31
0.0
  0
LINE
  5
216
330
1F
100
AcDbEntity
  8
0
  6
Continuous
 62
     7
370
    25
100
AcDbLine
 10
0.6857464606
 20
0.796154496
 30
0.0
 11
0.6857464606
 21
0.6106968604
 31
0.0
  0
LINE
  5
217
330
1F
100
AcDbEntity
  8
0
  6
Continuous
 62
     7
370
    25
100
AcDbLine
 10
0.7091779181
 20
0.8288108204
 30
0.0
 11
0.7091522454
 21
0.8299807342
 31
0.0
  0
LINE
  5
218
330
1F
100
AcDbEntity
  8
0
  6
Continuous
 62
     7
370
    25
100
AcDbLine
 10
2.3583686391
 20
4.1886263919
 30
0.0
 11
0.9376373035
 21
4.9342065776
 31
0.0
  0
LINE
  5
219
330
1F
100
AcDbEntity
  8
0
  6
Continuous
 62
     7
370
    25
100
AcDbLine
 10
-0.0505162029
 20
4.3637574231
 30
0.0
 11
1.5857950392
 21
3.7426374032
 31
0.0
  0
LINE
  5
21A
330
1F
100
AcDbEntity
  8
0
  6
Continuous
 62
     7
370
    25
100
AcDbLine
 10
1.562747487
 20
3.690884657
 30
0.0
 11
1.5700637381
 21
3.5940017446
 31
0.0
  0
LINE
  5
21B
330
1F
100
AcDbEntity
  8
0
  6
Continuous
 62
     7
370
    25
100
AcDbLine
 10
0.3462372033
 20
4.0365864226
 30
0.0
 11
1.5700640262
 21
3.5940019361
 31
0.0
  0
LINE
  5
21C
330
1F
100
AcDbEntity
  8
0
  6
Continuous
 62
     7
370
    25
100
AcDbLine
 10
-0.1607017624
 20
3.8986592321
 30
0.0
 11
-0.0737697323
 21
4.3141653774
 31
0.0
  0
LINE
  5
21D
330
1F
100
AcDbEntity
  8
0
  6
Continuous
 62
     7
370
    25
100
AcDbLine
 10
1.5627416077
 20
3.6909738929
 30
0.0
 11
-0.0737680911
 21
4.3141665869
 31
0.0
  0
LINE
  5
21E
330
1F
100
AcDbEntity
  8
0
  6
Continuous
 62
     7
370
    25
100
AcDbLine
 10
2.3958493716
 20
4.1451633662
 30
0.0
 11
2.4020033512
 21
4.0477074067
 31
0.0
  0
LINE
  5
21F
330
1F
100
AcDbEntity
  8
0
  6
Continuous
 62
     7
370
    25
100
AcDbLine
 10
1.6165019313
 20
3.5942602771
 30
0.0
 11
1.6093011939
 21
3.6910965651
 31
0.0
  0
LINE
  5
220
330
1F
100
AcDbEntity
  8
0
  6
Continuous
 62
     7
370
    25
100
AcDbLine
 10
-0.0737667043
 20
4.3141673871
 30
0.0
 11
-0.5363787844
 21
4.4899140735
 31
0.0
  0
LINE
  5
221
330
1F
100
AcDbEntity
  8
0
  6
Continuous
 62
     7
370
    25
100
AcDbLine
 10
-0.1704946558
 20
3.743310945
 30
0.0
 11
-0.1698521532
 21
3.7436754445
 31
0.0
  0
LINE
  5
222
330
1F
100
AcDbEntity
  8
0
  6
Continuous
 62
     7
370
    25
100
AcDbLine
 10
3.252475336
 20
2.2580232383
 30
0.0
 11
3.2524753358
 21
1.8974221534
 31
0.0
  0
LINE
  5
223
330
1F
100
AcDbEntity
  8
0
  6
Continuous
 62
     7
370
    25
100
AcDbLine
 10
3.6398342625
 20
2.5985193402
 30
0.0
 11
3.6398329333
 21
2.5920356446
 31
0.0
  0
LINE
  5
224
330
1F
100
AcDbEntity
  8
0
  6
Continuous
 62
     7
370
    25
100
AcDbLine
 10
-1.2282020394
 20
0.5217166946
 30
0.0
 11
-1.0915510226
 21
1.5996123006
 31
0.0
  0
LINE
  5
225
330
1F
100
AcDbEntity
  8
0
  6
Continuous
 62
     7
370
    25
100
AcDbLine
 10
0.4162396681
 20
0.8264908546
 30
0.0
 11
-0.6297835592
 21
0.2226344989
 31
0.0
  0
LINE
  5
226
330
1F
100
AcDbEntity
  8
0
  6
Continuous
 62
     7
370
    25
100
AcDbLine
 10
-0.1038806533
 20
0.6930487446
 30
0.0
 11
-0.1035939132
 21
0.6932142762
 31
0.0
  0
LINE
  5
227
330
1F
100
AcDbEntity
  8
0
  6
Continuous
 62
     7
370
    25
100
AcDbLine
 10
-0.1035939132
 20
0.6932142762
 30
0.0
 11
-0.104050317
 21
0.6897438895
 31
0.0
  0
LINE
  5
228
330
1F
100
AcDbEntity
  8
0
  6
Continuous
 62
     7
370
    25
100
AcDbLine
 10
-0.1368325901
 20
0.6613569235
 30
0.0
 11
-0.1493167147
 21
0.6474518414
 31
0.0
  0
LINE
  5
229
330
1F
100
AcDbEntity
  8
0
  6
Continuous
 62
     7
370
    25
100
AcDbLine
 10
-0.0914329419
 20
0.6955076751
 30
0.0
 11
-0.0831441352
 21
0.7585338018
 31
0.0
  0
LINE
  5
22A
330
1F
100
AcDbEntity
  8
0
  6
Continuous
 62
     7
370
    25
100
AcDbLine
 10
-0.0831441352
 20
0.7585338018
 30
0.0
 11
-0.0967879554
 21
0.7506573921
 31
0.0
  0
LINE
  5
22B
330
1F
100
AcDbEntity
  8
0
  6
Continuous
 62
     7
370
    25
100
AcDbLine
 10
-0.0967879554
 20
0.7506573921
 30
0.0
 11
-0.1016263027
 21
0.7138677434
 31
0.0
  0
LINE
  5
22C
330
1F
100
AcDbEntity
  8
0
  6
Continuous
 62
     7
370
    25
100
AcDbLine
 10
-0.1324343049
 20
0.6948004449
 30
0.0
 11
-0.1274134739
 21
0.7329776566
 31
0.0
  0
LINE
  5
22D
330
1F
100
AcDbEntity
  8
0
  6
Continuous
 62
     7
370
    25
100
AcDbLine
 10
-0.1274134739
 20
0.7329776566
 30
0.0
 11
-0.1410628619
 21
0.7250980326
 31
0.0
  0
LINE
  5
22E
330
1F
100
AcDbEntity
  8
0
  6
Continuous
 62
     7
370
    25
100
AcDbLine
 10
-0.1410628619
 20
0.7250980326
 30
0.0
 11
-0.1460097655
 21
0.6874829467
 31
0.0
  0
LINE
  5
22F
330
1F
100
AcDbEntity
  8
0
  6
Continuous
 62
     7
370
    25
100
AcDbLine
 10
-0.2203701283
 20
0.6662877034
 30
0.0
 11
-0.2137429692
 21
0.6828973792
 31
0.0
  0
LINE
  5
230
330
1F
100
AcDbEntity
  8
0
  6
Continuous
 62
     7
370
    25
100
AcDbLine
 10
-0.2345416972
 20
0.6645505248
 30
0.0
 11
-0.2348312212
 21
0.6643833861
 31
0.0
  0
LINE
  5
231
330
1F
100
AcDbEntity
  8
0
  6
Continuous
 62
     7
370
    25
100
AcDbLine
 10
-0.2348312212
 20
0.6643833861
 30
0.0
 11
-0.23389429
 21
0.6715075899
 31
0.0
  0
LINE
  5
232
330
1F
100
AcDbEntity
  8
0
  6
Continuous
 62
     7
370
    25
100
AcDbLine
 10
-0.23389429
 20
0.6715075899
 30
0.0
 11
-0.2466918091
 21
0.6641197393
 31
0.0
  0
LINE
  5
233
330
1F
100
AcDbEntity
  8
0
  6
Continuous
 62
     7
370
    25
100
AcDbLine
 10
-0.2466918091
 20
0.6641197393
 30
0.0
 11
-0.2552448087
 21
0.5990847528
 31
0.0
  0
LINE
  5
234
330
1F
100
AcDbEntity
  8
0
  6
Continuous
 62
     7
370
    25
100
AcDbLine
 10
-0.2552448087
 20
0.5990847528
 30
0.0
 11
-0.2416093401
 21
0.6069563412
 31
0.0
  0
LINE
  5
235
330
1F
100
AcDbEntity
  8
0
  6
Continuous
 62
     7
370
    25
100
AcDbLine
 10
-0.2416093401
 20
0.6069563412
 30
0.0
 11
-0.235951178
 21
0.6499796682
 31
0.0
  0
LINE
  5
236
330
1F
100
AcDbEntity
  8
0
  6
Continuous
 62
     7
370
    25
100
AcDbLine
 10
-0.0663933842
 20
0.733679624
 30
0.0
 11
-0.0137417679
 21
0.7640747552
 31
0.0
  0
LINE
  5
237
330
1F
100
AcDbEntity
  8
0
  6
Continuous
 62
     7
370
    25
100
AcDbLine
 10
-0.0137417679
 20
0.7640747552
 30
0.0
 11
-0.0134028696
 21
0.7666516578
 31
0.0
  0
LINE
  5
238
330
1F
100
AcDbEntity
  8
0
  6
Continuous
 62
     7
370
    25
100
AcDbLine
 10
-0.0189427445
 20
0.7485289836
 30
0.0
 11
-0.0296106523
 21
0.7484535456
 31
0.0
  0
LINE
  5
239
330
1F
100
AcDbEntity
  8
0
  6
Continuous
 62
     7
370
    25
100
AcDbLine
 10
0.0528547885
 20
0.7898674596
 30
0.0
 11
0.0418604054
 21
0.7902241555
 31
0.0
  0
LINE
  5
23A
330
1F
100
AcDbEntity
  8
0
  6
Continuous
 62
     7
370
    25
100
AcDbLine
 10
0.029493646
 20
0.8130079386
 30
0.0
 11
0.0313583386
 21
0.8262476969
 31
0.0
  0
LINE
  5
23B
330
1F
100
AcDbEntity
  8
0
  6
Continuous
 62
     7
370
    25
100
AcDbLine
 10
0.0848598144
 20
0.7953655598
 30
0.0
 11
0.0923549985
 21
0.809870892
 31
0.0
  0
LINE
  5
23C
330
1F
100
AcDbEntity
  8
0
  6
Continuous
 62
     7
370
    25
100
AcDbLine
 10
0.0923549985
 20
0.809870892
 30
0.0
 11
0.0855725684
 21
0.8099005523
 31
0.0
  0
LINE
  5
23D
330
1F
100
AcDbEntity
  8
0
  6
Continuous
 62
     7
370
    25
100
AcDbLine
 10
0.0815929978
 20
0.8192907839
 30
0.0
 11
0.08496525
 21
0.8449325921
 31
0.0
  0
LINE
  5
23E
330
1F
100
AcDbEntity
  8
0
  6
Continuous
 62
     7
370
    25
100
AcDbLine
 10
0.08496525
 20
0.8449325921
 30
0.0
 11
0.0958613757
 21
0.8512227917
 31
0.0
  0
LINE
  5
23F
330
1F
100
AcDbEntity
  8
0
  6
Continuous
 62
     7
370
    25
100
AcDbLine
 10
0.0958613757
 20
0.8512227917
 30
0.0
 11
0.0975975
 21
0.8644238703
 31
0.0
  0
LINE
  5
240
330
1F
100
AcDbEntity
  8
0
  6
Continuous
 62
     7
370
    25
100
AcDbLine
 10
0.0975975
 20
0.8644238703
 30
0.0
 11
0.0867013743
 21
0.8581336708
 31
0.0
  0
LINE
  5
241
330
1F
100
AcDbEntity
  8
0
  6
Continuous
 62
     7
370
    25
100
AcDbLine
 10
0.0867013743
 20
0.8581336708
 30
0.0
 11
0.0894724807
 21
0.8792045094
 31
0.0
  0
LINE
  5
242
330
1F
100
AcDbEntity
  8
0
  6
Continuous
 62
     7
370
    25
100
AcDbLine
 10
0.0894724807
 20
0.8792045094
 30
0.0
 11
0.0753408935
 21
0.8674431862
 31
0.0
  0
LINE
  5
243
330
1F
100
AcDbEntity
  8
0
  6
Continuous
 62
     7
370
    25
100
AcDbLine
 10
0.0753408935
 20
0.8674431862
 30
0.0
 11
0.073082609
 21
0.8502717249
 31
0.0
  0
LINE
  5
244
330
1F
100
AcDbEntity
  8
0
  6
Continuous
 62
     7
370
    25
100
AcDbLine
 10
0.073082609
 20
0.8502717249
 30
0.0
 11
0.0316305619
 21
0.8263419675
 31
0.0
  0
LINE
  5
245
330
1F
100
AcDbEntity
  8
0
  6
Continuous
 62
     7
370
    25
100
AcDbLine
 10
0.0316305619
 20
0.8263419675
 30
0.0
 11
0.0425722497
 21
0.820459634
 31
0.0
  0
LINE
  5
246
330
1F
100
AcDbEntity
  8
0
  6
Continuous
 62
     7
370
    25
100
AcDbLine
 10
0.0425722497
 20
0.820459634
 30
0.0
 11
0.0713464847
 21
0.8370706463
 31
0.0
  0
LINE
  5
247
330
1F
100
AcDbEntity
  8
0
  6
Continuous
 62
     7
370
    25
100
AcDbLine
 10
0.0713464847
 20
0.8370706463
 30
0.0
 11
0.0676349452
 21
0.8088489769
 31
0.0
  0
LINE
  5
248
330
1F
100
AcDbEntity
  8
0
  6
Continuous
 62
     7
370
    25
100
AcDbLine
 10
0.170228371
 20
0.9048026363
 30
0.0
 11
0.1566123897
 21
0.8969422975
 31
0.0
  0
LINE
  5
249
330
1F
100
AcDbEntity
  8
0
  6
Continuous
 62
     7
370
    25
100
AcDbLine
 10
0.1566123897
 20
0.8969422975
 30
0.0
 11
0.1555704038
 21
0.8890192835
 31
0.0
  0
LINE
  5
24A
330
1F
100
AcDbEntity
  8
0
  6
Continuous
 62
     7
370
    25
100
AcDbLine
 10
0.1555704038
 20
0.8890192835
 30
0.0
 11
0.1552892315
 21
0.8888569662
 31
0.0
  0
LINE
  5
24B
330
1F
100
AcDbEntity
  8
0
  6
Continuous
 62
     7
370
    25
100
AcDbLine
 10
0.1488194254
 20
0.8396620905
 30
0.0
 11
0.1491005978
 21
0.8398244079
 31
0.0
  0
LINE
  5
24C
330
1F
100
AcDbEntity
  8
0
  6
Continuous
 62
     7
370
    25
100
AcDbLine
 10
0.1491005978
 20
0.8398244079
 30
0.0
 11
0.1480593901
 21
0.831907311
 31
0.0
  0
LINE
  5
24D
330
1F
100
AcDbEntity
  8
0
  6
Continuous
 62
     7
370
    25
100
AcDbLine
 10
0.1480593901
 20
0.831907311
 30
0.0
 11
0.1616753715
 21
0.8397676497
 31
0.0
  0
LINE
  5
24E
330
1F
100
AcDbEntity
  8
0
  6
Continuous
 62
     7
370
    25
100
AcDbLine
 10
0.1616753715
 20
0.8397676497
 30
0.0
 11
0.170228371
 21
0.9048026363
 31
0.0
  0
LINE
  5
24F
330
1F
100
AcDbEntity
  8
0
  6
Continuous
 62
     7
370
    25
100
AcDbLine
 10
-0.3185422546
 20
0.6403162751
 30
0.0
 11
-0.3241945803
 21
0.5973373264
 31
0.0
  0
LINE
  5
250
330
1F
100
AcDbEntity
  8
0
  6
Continuous
 62
     7
370
    25
100
AcDbLine
 10
-0.3241945803
 20
0.5973373264
 30
0.0
 11
-0.3340077748
 21
0.5916722898
 31
0.0
  0
LINE
  5
251
330
1F
100
AcDbEntity
  8
0
  6
Continuous
 62
     7
370
    25
100
AcDbLine
 10
-0.3340077748
 20
0.5916722898
 30
0.0
 11
-0.3359505064
 21
0.5769002178
 31
0.0
  0
LINE
  5
252
330
1F
100
AcDbEntity
  8
0
  6
Continuous
 62
     7
370
    25
100
AcDbLine
 10
-0.3359505064
 20
0.5769002178
 30
0.0
 11
-0.3261373119
 21
0.5825652544
 31
0.0
  0
LINE
  5
253
330
1F
100
AcDbEntity
  8
0
  6
Continuous
 62
     7
370
    25
100
AcDbLine
 10
-0.3261373119
 20
0.5825652544
 30
0.0
 11
-0.3296340732
 21
0.5559767081
 31
0.0
  0
LINE
  5
254
330
1F
100
AcDbEntity
  8
0
  6
Continuous
 62
     7
370
    25
100
AcDbLine
 10
-0.3296340732
 20
0.5559767081
 30
0.0
 11
-0.3144368452
 21
0.5647498811
 31
0.0
  0
LINE
  5
255
330
1F
100
AcDbEntity
  8
0
  6
Continuous
 62
     7
370
    25
100
AcDbLine
 10
-0.3144368452
 20
0.5647498811
 30
0.0
 11
-0.3109400839
 21
0.5913384274
 31
0.0
  0
LINE
  5
256
330
1F
100
AcDbEntity
  8
0
  6
Continuous
 62
     7
370
    25
100
AcDbLine
 10
-0.3109400839
 20
0.5913384274
 30
0.0
 11
-0.2869513471
 21
0.6051868303
 31
0.0
  0
LINE
  5
257
330
1F
100
AcDbEntity
  8
0
  6
Continuous
 62
     7
370
    25
100
AcDbLine
 10
-0.2793562898
 20
0.6629378511
 30
0.0
 11
-0.3185422546
 21
0.6403162751
 31
0.0
  0
LINE
  5
258
330
1F
100
AcDbEntity
  8
0
  6
Continuous
 62
     7
370
    25
100
AcDbLine
 10
-0.311047762
 20
0.5914181397
 30
0.0
 11
-0.2870590253
 21
0.6052665427
 31
0.0
  0
LINE
  5
259
330
1F
100
AcDbEntity
  8
0
  6
Continuous
 62
     7
370
    25
100
AcDbLine
 10
-0.3145445233
 20
0.5648295935
 30
0.0
 11
-0.311047762
 21
0.5914181397
 31
0.0
  0
LINE
  5
25A
330
1F
100
AcDbEntity
  8
0
  6
Continuous
 62
     7
370
    25
100
AcDbLine
 10
-0.3296138819
 20
0.5561302379
 30
0.0
 11
-0.3145445233
 21
0.5648295935
 31
0.0
  0
LINE
  5
25B
330
1F
100
AcDbEntity
  8
0
  6
Continuous
 62
     7
370
    25
100
AcDbLine
 10
-0.3359303151
 20
0.5770537476
 30
0.0
 11
-0.32624499
 21
0.5826449667
 31
0.0
  0
LINE
  5
25C
330
1F
100
AcDbEntity
  8
0
  6
Continuous
 62
     7
370
    25
100
AcDbLine
 10
-0.2825826663
 20
0.6475584184
 30
0.0
 11
-0.3053966036
 21
0.6343882127
 31
0.0
  0
LINE
  5
25D
330
1F
100
AcDbEntity
  8
0
  6
Continuous
 62
     7
370
    25
100
AcDbLine
 10
-0.3053966036
 20
0.6343882127
 30
0.0
 11
-0.3091050304
 21
0.6061902118
 31
0.0
  0
LINE
  5
25E
330
1F
100
AcDbEntity
  8
0
  6
Continuous
 62
     7
370
    25
100
AcDbLine
 10
-0.3053966036
 20
0.6343882127
 30
0.0
 11
-0.3052889254
 21
0.6343085004
 31
0.0
  0
LINE
  5
25F
330
1F
100
AcDbEntity
  8
0
  6
Continuous
 62
     7
370
    25
100
AcDbLine
 10
-0.2825826663
 20
0.6475584184
 30
0.0
 11
-0.2824749881
 21
0.6474787061
 31
0.0
  0
LINE
  5
260
330
1F
100
AcDbEntity
  8
0
  6
Continuous
 62
     7
370
    25
100
AcDbLine
 10
-0.2824749881
 20
0.6474787061
 30
0.0
 11
-0.3052889254
 21
0.6343085004
 31
0.0
  0
LINE
  5
261
330
1F
100
AcDbEntity
  8
0
  6
Continuous
 62
     7
370
    25
100
AcDbLine
 10
-0.3091050304
 20
0.6061902118
 30
0.0
 11
-0.3089973523
 21
0.6061104994
 31
0.0
  0
LINE
  5
262
330
1F
100
AcDbEntity
  8
0
  6
Continuous
 62
     7
370
    25
100
AcDbLine
 10
-0.3052889254
 20
0.6343085004
 30
0.0
 11
-0.3089973523
 21
0.6061104994
 31
0.0
  0
LINE
  5
263
330
1F
100
AcDbEntity
  8
0
  6
Continuous
 62
     7
370
    25
100
AcDbLine
 10
-0.3089973523
 20
0.6061104994
 30
0.0
 11
-0.286183415
 21
0.6192807051
 31
0.0
  0
LINE
  5
264
330
1F
100
AcDbEntity
  8
0
  6
Continuous
 62
     7
370
    25
100
AcDbLine
 10
-0.253658053
 20
0.6512290234
 30
0.0
 11
-0.2535503748
 21
0.651149311
 31
0.0
  0
LINE
  5
265
330
1F
100
AcDbEntity
  8
0
  6
Continuous
 62
     7
370
    25
100
AcDbLine
 10
-0.32624499
 20
0.5826449667
 30
0.0
 11
-0.3261373119
 21
0.5825652544
 31
0.0
  0
LINE
  5
266
330
1F
100
AcDbEntity
  8
0
  6
Continuous
 62
     7
370
    25
100
AcDbLine
 10
-0.2870590253
 20
0.6052665427
 30
0.0
 11
-0.2869513471
 21
0.6051868303
 31
0.0
  0
LINE
  5
267
330
1F
100
AcDbEntity
  8
0
  6
Continuous
 62
     7
370
    25
100
AcDbLine
 10
-0.3145445233
 20
0.5648295935
 30
0.0
 11
-0.3144368452
 21
0.5647498811
 31
0.0
  0
LINE
  5
268
330
1F
100
AcDbEntity
  8
0
  6
Continuous
 62
     7
370
    25
100
AcDbLine
 10
-0.311047762
 20
0.5914181397
 30
0.0
 11
-0.3109400839
 21
0.5913384274
 31
0.0
  0
LINE
  5
269
330
1F
100
AcDbEntity
  8
0
  6
Continuous
 62
     7
370
    25
100
AcDbLine
 10
-0.2349388993
 20
0.6644630985
 30
0.0
 11
-0.2340221594
 21
0.6714337725
 31
0.0
  0
LINE
  5
26A
330
1F
100
AcDbEntity
  8
0
  6
Continuous
 62
     7
370
    25
100
AcDbLine
 10
-0.2204778064
 20
0.6663674157
 30
0.0
 11
-0.2138506473
 21
0.6829770916
 31
0.0
  0
LINE
  5
26B
330
1F
100
AcDbEntity
  8
0
  6
Continuous
 62
     7
370
    25
100
AcDbLine
 10
-0.2417170182
 20
0.6070360536
 30
0.0
 11
-0.2360588561
 21
0.6500593806
 31
0.0
  0
LINE
  5
26C
330
1F
100
AcDbEntity
  8
0
  6
Continuous
 62
     7
370
    25
100
AcDbLine
 10
-0.2552246174
 20
0.5992382826
 30
0.0
 11
-0.2417170182
 21
0.6070360536
 31
0.0
  0
LINE
  5
26D
330
1F
100
AcDbEntity
  8
0
  6
Continuous
 62
     7
370
    25
100
AcDbLine
 10
-0.2349388993
 20
0.6644630985
 30
0.0
 11
-0.2348312212
 21
0.6643833861
 31
0.0
  0
LINE
  5
26E
330
1F
100
AcDbEntity
  8
0
  6
Continuous
 62
     7
370
    25
100
AcDbLine
 10
-0.2360588561
 20
0.6500593806
 30
0.0
 11
-0.235951178
 21
0.6499796682
 31
0.0
  0
LINE
  5
26F
330
1F
100
AcDbEntity
  8
0
  6
Continuous
 62
     7
370
    25
100
AcDbLine
 10
-0.2253758023
 20
0.6652923177
 30
0.0
 11
-0.2252681242
 21
0.6652126053
 31
0.0
  0
LINE
  5
270
330
1F
100
AcDbEntity
  8
0
  6
Continuous
 62
     7
370
    25
100
AcDbLine
 10
-0.2204778064
 20
0.6663674157
 30
0.0
 11
-0.2203701283
 21
0.6662877034
 31
0.0
  0
LINE
  5
271
330
1F
100
AcDbEntity
  8
0
  6
Continuous
 62
     7
370
    25
100
AcDbLine
 10
-0.2417170182
 20
0.6070360536
 30
0.0
 11
-0.2416093401
 21
0.6069563412
 31
0.0
  0
LINE
  5
272
330
1F
100
AcDbEntity
  8
0
  6
Continuous
 62
     7
370
    25
100
AcDbLine
 10
-0.2063961897
 20
0.6574641206
 30
0.0
 11
-0.2062885116
 21
0.6573844083
 31
0.0
  0
LINE
  5
273
330
1F
100
AcDbEntity
  8
0
  6
Continuous
 62
     7
370
    25
100
AcDbLine
 10
-0.1830355905
 20
0.6904592955
 30
0.0
 11
-0.1829279124
 21
0.6903795832
 31
0.0
  0
LINE
  5
274
330
1F
100
AcDbEntity
  8
0
  6
Continuous
 62
     7
370
    25
100
AcDbLine
 10
-0.1508381974
 20
0.6895370669
 30
0.0
 11
-0.1507305193
 21
0.6894573545
 31
0.0
  0
LINE
  5
275
330
1F
100
AcDbEntity
  8
0
  6
Continuous
 62
     7
370
    25
100
AcDbLine
 10
-0.1903166514
 20
0.6350958298
 30
0.0
 11
-0.1902089733
 21
0.6350161174
 31
0.0
  0
LINE
  5
276
330
1F
100
AcDbEntity
  8
0
  6
Continuous
 62
     7
370
    25
100
AcDbLine
 10
-0.132541983
 20
0.6948801573
 30
0.0
 11
-0.1275413433
 21
0.7329038391
 31
0.0
  0
LINE
  5
277
330
1F
100
AcDbEntity
  8
0
  6
Continuous
 62
     7
370
    25
100
AcDbLine
 10
-0.09154062
 20
0.6955873874
 30
0.0
 11
-0.0832720046
 21
0.7584599844
 31
0.0
  0
LINE
  5
278
330
1F
100
AcDbEntity
  8
0
  6
Continuous
 62
     7
370
    25
100
AcDbLine
 10
-0.1039883314
 20
0.6931284569
 30
0.0
 11
-0.1037015913
 21
0.6932939885
 31
0.0
  0
LINE
  5
279
330
1F
100
AcDbEntity
  8
0
  6
Continuous
 62
     7
370
    25
100
AcDbLine
 10
-0.132541983
 20
0.6948801573
 30
0.0
 11
-0.1324343049
 21
0.6948004449
 31
0.0
  0
LINE
  5
27A
330
1F
100
AcDbEntity
  8
0
  6
Continuous
 62
     7
370
    25
100
AcDbLine
 10
-0.1242745484
 20
0.6732211243
 30
0.0
 11
-0.1241668702
 21
0.673141412
 31
0.0
  0
LINE
  5
27B
330
1F
100
AcDbEntity
  8
0
  6
Continuous
 62
     7
370
    25
100
AcDbLine
 10
-0.09154062
 20
0.6955873874
 30
0.0
 11
-0.0914329419
 21
0.6955076751
 31
0.0
  0
LINE
  5
27C
330
1F
100
AcDbEntity
  8
0
  6
Continuous
 62
     7
370
    25
100
AcDbLine
 10
-0.013849446
 20
0.7641544675
 30
0.0
 11
-0.0135105477
 21
0.7667313702
 31
0.0
  0
LINE
  5
27D
330
1F
100
AcDbEntity
  8
0
  6
Continuous
 62
     7
370
    25
100
AcDbLine
 10
-0.0665010623
 20
0.7337593364
 30
0.0
 11
-0.013849446
 21
0.7641544675
 31
0.0
  0
LINE
  5
27E
330
1F
100
AcDbEntity
  8
0
  6
Continuous
 62
     7
370
    25
100
AcDbLine
 10
-0.1242519721
 20
0.6502718045
 30
0.0
 11
-0.1241442939
 21
0.6501920921
 31
0.0
  0
LINE
  5
27F
330
1F
100
AcDbEntity
  8
0
  6
Continuous
 62
     7
370
    25
100
AcDbLine
 10
-0.1039883314
 20
0.6931284569
 30
0.0
 11
-0.1038806533
 21
0.6930487446
 31
0.0
  0
LINE
  5
280
330
1F
100
AcDbEntity
  8
0
  6
Continuous
 62
     7
370
    25
100
AcDbLine
 10
-0.0649816618
 20
0.7453124991
 30
0.0
 11
-0.0648739836
 21
0.7452327867
 31
0.0
  0
LINE
  5
281
330
1F
100
AcDbEntity
  8
0
  6
Continuous
 62
     7
370
    25
100
AcDbLine
 10
-0.0450574055
 20
0.770839634
 30
0.0
 11
-0.0449497274
 21
0.7707599217
 31
0.0
  0
LINE
  5
282
330
1F
100
AcDbEntity
  8
0
  6
Continuous
 62
     7
370
    25
100
AcDbLine
 10
-0.0648739836
 20
0.7452327867
 30
0.0
 11
-0.028226922
 21
0.7663886851
 31
0.0
  0
LINE
  5
283
330
1F
100
AcDbEntity
  8
0
  6
Continuous
 62
     7
370
    25
100
AcDbLine
 10
-0.0135105477
 20
0.7667313702
 30
0.0
 11
-0.0134028696
 21
0.7666516578
 31
0.0
  0
LINE
  5
284
330
1F
100
AcDbEntity
  8
0
  6
Continuous
 62
     7
370
    25
100
AcDbLine
 10
-0.0506157361
 20
0.7157434516
 30
0.0
 11
-0.0505080579
 21
0.7156637392
 31
0.0
  0
LINE
  5
285
330
1F
100
AcDbEntity
  8
0
  6
Continuous
 62
     7
370
    25
100
AcDbLine
 10
-0.1037015913
 20
0.6932939885
 30
0.0
 11
-0.1035939132
 21
0.6932142762
 31
0.0
  0
LINE
  5
286
330
1F
100
AcDbEntity
  8
0
  6
Continuous
 62
     7
370
    25
100
AcDbLine
 10
-0.0665010623
 20
0.7337593364
 30
0.0
 11
-0.0663933842
 21
0.733679624
 31
0.0
  0
LINE
  5
287
330
1F
100
AcDbEntity
  8
0
  6
Continuous
 62
     7
370
    25
100
AcDbLine
 10
-0.013849446
 20
0.7641544675
 30
0.0
 11
-0.0137417679
 21
0.7640747552
 31
0.0
  0
LINE
  5
288
330
1F
100
AcDbEntity
  8
0
  6
Continuous
 62
     7
370
    25
100
AcDbLine
 10
0.0293859679
 20
0.813087651
 30
0.0
 11
0.0312506605
 21
0.8263274093
 31
0.0
  0
LINE
  5
289
330
1F
100
AcDbEntity
  8
0
  6
Continuous
 62
     7
370
    25
100
AcDbLine
 10
0.0316501366
 20
0.8263532677
 30
0.0
 11
0.0424645716
 21
0.8205393464
 31
0.0
  0
LINE
  5
28A
330
1F
100
AcDbEntity
  8
0
  6
Continuous
 62
     7
370
    25
100
AcDbLine
 10
0.0865936961
 20
0.8582133831
 30
0.0
 11
0.0893397963
 21
0.8790940799
 31
0.0
  0
LINE
  5
28B
330
1F
100
AcDbEntity
  8
0
  6
Continuous
 62
     7
370
    25
100
AcDbLine
 10
0.0957536976
 20
0.851302504
 30
0.0
 11
0.0974696306
 21
0.8643500528
 31
0.0
  0
LINE
  5
28C
330
1F
100
AcDbEntity
  8
0
  6
Continuous
 62
     7
370
    25
100
AcDbLine
 10
0.0848575718
 20
0.8450123045
 30
0.0
 11
0.0957536976
 21
0.851302504
 31
0.0
  0
LINE
  5
28D
330
1F
100
AcDbEntity
  8
0
  6
Continuous
 62
     7
370
    25
100
AcDbLine
 10
0.0814853197
 20
0.8193704963
 30
0.0
 11
0.0848575718
 21
0.8450123045
 31
0.0
  0
LINE
  5
28E
330
1F
100
AcDbEntity
  8
0
  6
Continuous
 62
     7
370
    25
100
AcDbLine
 10
0.0847521363
 20
0.7954452721
 30
0.0
 11
0.0922064671
 21
0.8098715416
 31
0.0
  0
LINE
  5
28F
330
1F
100
AcDbEntity
  8
0
  6
Continuous
 62
     7
370
    25
100
AcDbLine
 10
0.0424645716
 20
0.8205393464
 30
0.0
 11
0.0712388066
 21
0.8371503587
 31
0.0
  0
LINE
  5
290
330
1F
100
AcDbEntity
  8
0
  6
Continuous
 62
     7
370
    25
100
AcDbLine
 10
0.0061450757
 20
0.7801615815
 30
0.0
 11
0.0062527539
 21
0.7800818691
 31
0.0
  0
LINE
  5
291
330
1F
100
AcDbEntity
  8
0
  6
Continuous
 62
     7
370
    25
100
AcDbLine
 10
0.0293859679
 20
0.813087651
 30
0.0
 11
0.029493646
 21
0.8130079386
 31
0.0
  0
LINE
  5
292
330
1F
100
AcDbEntity
  8
0
  6
Continuous
 62
     7
370
    25
100
AcDbLine
 10
0.0424645716
 20
0.8205393464
 30
0.0
 11
0.0425722497
 21
0.820459634
 31
0.0
  0
LINE
  5
293
330
1F
100
AcDbEntity
  8
0
  6
Continuous
 62
     7
370
    25
100
AcDbLine
 10
0.0222385335
 20
0.7578013262
 30
0.0
 11
0.0223462116
 21
0.7577216138
 31
0.0
  0
LINE
  5
294
330
1F
100
AcDbEntity
  8
0
  6
Continuous
 62
     7
370
    25
100
AcDbLine
 10
0.0712388066
 20
0.8371503587
 30
0.0
 11
0.0713464847
 21
0.8370706463
 31
0.0
  0
LINE
  5
295
330
1F
100
AcDbEntity
  8
0
  6
Continuous
 62
     7
370
    25
100
AcDbLine
 10
0.0865936961
 20
0.8582133831
 30
0.0
 11
0.0867013743
 21
0.8581336708
 31
0.0
  0
LINE
  5
296
330
1F
100
AcDbEntity
  8
0
  6
Continuous
 62
     7
370
    25
100
AcDbLine
 10
0.0957536976
 20
0.851302504
 30
0.0
 11
0.0958613757
 21
0.8512227917
 31
0.0
  0
LINE
  5
297
330
1F
100
AcDbEntity
  8
0
  6
Continuous
 62
     7
370
    25
100
AcDbLine
 10
0.0848575718
 20
0.8450123045
 30
0.0
 11
0.08496525
 21
0.8449325921
 31
0.0
  0
LINE
  5
298
330
1F
100
AcDbEntity
  8
0
  6
Continuous
 62
     7
370
    25
100
AcDbLine
 10
0.0814853197
 20
0.8193704963
 30
0.0
 11
0.0815929978
 21
0.8192907839
 31
0.0
  0
LINE
  5
299
330
1F
100
AcDbEntity
  8
0
  6
Continuous
 62
     7
370
    25
100
AcDbLine
 10
0.1487117473
 20
0.8397418029
 30
0.0
 11
0.1489929197
 21
0.8399041202
 31
0.0
  0
LINE
  5
29A
330
1F
100
AcDbEntity
  8
0
  6
Continuous
 62
     7
370
    25
100
AcDbLine
 10
0.1551815533
 20
0.8889366785
 30
0.0
 11
0.1539427389
 21
0.8897295208
 31
0.0
  0
LINE
  5
29B
330
1F
100
AcDbEntity
  8
0
  6
Continuous
 62
     7
370
    25
100
AcDbLine
 10
0.1615676934
 20
0.8398473621
 30
0.0
 11
0.1701005016
 21
0.9047288188
 31
0.0
  0
LINE
  5
29C
330
1F
100
AcDbEntity
  8
0
  6
Continuous
 62
     7
370
    25
100
AcDbLine
 10
0.1480795814
 20
0.8320608408
 30
0.0
 11
0.1615676934
 21
0.8398473621
 31
0.0
  0
LINE
  5
29D
330
1F
100
AcDbEntity
  8
0
  6
Continuous
 62
     7
370
    25
100
AcDbLine
 10
0.0847521363
 20
0.7954452721
 30
0.0
 11
0.0848598144
 21
0.7953655598
 31
0.0
  0
LINE
  5
29E
330
1F
100
AcDbEntity
  8
0
  6
Continuous
 62
     7
370
    25
100
AcDbLine
 10
0.1126537306
 20
0.8416477192
 30
0.0
 11
0.1127614088
 21
0.8415680068
 31
0.0
  0
LINE
  5
29F
330
1F
100
AcDbEntity
  8
0
  6
Continuous
 62
     7
370
    25
100
AcDbLine
 10
0.1356190182
 20
0.8744146855
 30
0.0
 11
0.1357266963
 21
0.8743349732
 31
0.0
  0
LINE
  5
2A0
330
1F
100
AcDbEntity
  8
0
  6
Continuous
 62
     7
370
    25
100
AcDbLine
 10
0.1551815533
 20
0.8889366785
 30
0.0
 11
0.1552892315
 21
0.8888569662
 31
0.0
  0
LINE
  5
2A1
330
1F
100
AcDbEntity
  8
0
  6
Continuous
 62
     7
370
    25
100
AcDbLine
 10
0.126603597
 20
0.8180499949
 30
0.0
 11
0.1267112751
 21
0.8179702825
 31
0.0
  0
LINE
  5
2A2
330
1F
100
AcDbEntity
  8
0
  6
Continuous
 62
     7
370
    25
100
AcDbLine
 10
0.1615676934
 20
0.8398473621
 30
0.0
 11
0.1616753715
 21
0.8397676497
 31
0.0
  0
LINE
  5
2A3
330
1F
100
AcDbEntity
  8
0
  6
Continuous
 62
     7
370
    25
100
AcDbLine
 10
0.1487117473
 20
0.8397418029
 30
0.0
 11
0.1488194254
 21
0.8396620905
 31
0.0
  0
LINE
  5
2A4
330
1F
100
AcDbEntity
  8
0
  6
Continuous
 62
     7
370
    25
100
AcDbLine
 10
0.1489929197
 20
0.8399041202
 30
0.0
 11
0.1491005978
 21
0.8398244079
 31
0.0
  0
LINE
  5
2A5
330
1F
100
AcDbEntity
  8
0
  6
Continuous
 62
     7
370
    25
100
AcDbLine
 10
-1.6618696281
 20
0.8413454521
 30
0.0
 11
-1.658780296
 21
0.8823013575
 31
0.0
  0
LINE
  5
2A6
330
1F
100
AcDbEntity
  8
0
  6
Continuous
 62
     7
370
    25
100
AcDbLine
 10
0.4526694574
 20
0.9960209618
 30
0.0
 11
0.6786753928
 21
0.8655505125
 31
0.0
  0
LINE
  5
2A7
330
1F
100
AcDbEntity
  8
0
  6
Continuous
 62
     7
370
    25
100
AcDbLine
 10
0.3155040918
 20
4.0275197651
 30
0.0
 11
-0.1663532974
 21
3.7493494111
 31
0.0
  0
LINE
  5
2A8
330
1F
100
AcDbEntity
  8
0
  6
Continuous
 62
     7
370
    25
100
AcDbLine
 10
0.2909123292
 20
4.0090128338
 30
0.0
 11
0.3012388517
 21
3.9694251867
 31
0.0
  0
LINE
  5
2A9
330
1F
100
AcDbEntity
  8
0
  6
Continuous
 62
     7
370
    25
100
AcDbLine
 10
0.3288575298
 20
2.7167962565
 30
0.0
 11
-0.3524638653
 21
2.323477787
 31
0.0
  0
ARC
  5
2AA
330
1F
100
AcDbEntity
  8
0
  6
Continuous
 62
     7
370
    25
100
AcDbCircle
 10
1.5961669732
 20
3.6115183944
 30
0.0
 40
0.0399999999999772
100
AcDbArc
 50
250.22678
 51
290.5374162109
  0
ARC
  5
2AB
330
1F
100
AcDbEntity
  8
0
  6
Continuous
 62
     7
370
    25
100
AcDbCircle
 10
2.3615378489
 20
4.1543405938
 30
0.0
 40
0.0400000000041394
100
AcDbArc
 50
3.5738060768
 51
59.921122122
  0
ARC
  5
2AC
330
1F
100
AcDbEntity
  8
0
  6
Continuous
 62
     7
370
    25
100
AcDbCircle
 10
2.3676735867
 20
4.0568679846
 30
0.0
 40
0.0399999999999976
100
AcDbArc
 50
312.908566053
 51
3.5701897724
  0
ARC
  5
2AD
330
1F
100
AcDbEntity
  8
0
  6
Continuous
 62
     7
370
    25
100
AcDbCircle
 10
-0.6306821778
 20
0.0443604246
 30
0.0
 40
0.0153680480757194
100
AcDbArc
 50
2.6054784857
 51
57.39452166
  0
ARC
  5
2AE
330
1F
100
AcDbEntity
  8
0
  6
Continuous
 62
     7
370
    25
100
AcDbCircle
 10
-0.6718985592
 20
0.1542359199
 30
0.0
 40
0.1229617526329369
100
AcDbArc
 50
242.6096722366
 51
297.3903277634
  0
ARC
  5
2AF
330
1F
100
AcDbEntity
  8
0
  6
Continuous
 62
     7
370
    25
100
AcDbCircle
 10
-0.7131149407
 20
0.0443604246
 30
0.0
 40
0.0153680480757142
100
AcDbArc
 50
122.60547834
 51
177.3945215144
  0
ARC
  5
2B0
330
1F
100
AcDbEntity
  8
0
  6
Continuous
 62
     7
370
    25
100
AcDbCircle
 10
-0.6718985592
 20
0.1528362577
 30
0.0
 40
0.1075915335538218
100
AcDbArc
 50
242.6096722366
 51
297.3903277634
  0
ARC
  5
2B1
330
1F
100
AcDbEntity
  8
0
  6
Continuous
 62
     7
370
    25
100
AcDbCircle
 10
-0.6718985592
 20
-0.0312217157
 30
0.0
 40
0.1229617526209438
100
AcDbArc
 50
242.6096722348
 51
297.3903277865
  0
ARC
  5
2B2
330
1F
100
AcDbEntity
  8
0
  6
Continuous
 62
     7
370
    25
100
AcDbCircle
 10
-1.1703638991
 20
0.7786396661
 30
0.0
 40
0.4992958271027721
100
AcDbArc
 50
120.3785135907
 51
168.0173327949
  0
ARC
  5
2B3
330
1F
100
AcDbEntity
  8
0
  6
Continuous
 62
     7
370
    25
100
AcDbCircle
 10
0.6678305009
 20
0.8369762286
 30
0.0
 40
0.030563072178399
100
AcDbArc
 50
290.7834207995
 51
69.2165792005
  0
ARC
  5
2B4
330
1F
100
AcDbEntity
  8
0
  6
Continuous
 62
     7
370
    25
100
AcDbCircle
 10
-1.3636531794
 20
0.419908156
 30
0.0
 40
0.0153680480757169
100
AcDbArc
 50
122.60547834
 51
177.3945215144
  0
ARC
  5
2B5
330
1F
100
AcDbEntity
  8
0
  6
Continuous
 62
     7
370
    25
100
AcDbCircle
 10
0.6703942996
 20
0.7954558874
 30
0.0
 40
0.0153680480757212
100
AcDbArc
 50
2.6054784857
 51
57.39452166
  0
ARC
  5
2B6
330
1F
100
AcDbEntity
  8
0
  6
Continuous
 62
     7
370
    25
100
AcDbCircle
 10
-0.6718985592
 20
-0.0451827223
 30
0.0
 40
0.1108592179249736
100
AcDbArc
 50
242.6096722366
 51
297.3903277634
  0
ARC
  5
2B7
330
1F
100
AcDbEntity
  8
0
  6
Continuous
 62
     7
370
    25
100
AcDbCircle
 10
-0.7252057889
 20
-0.1403943145
 30
0.0
 40
0.0039604506763927
100
AcDbArc
 50
245.6928809539
 51
305.6175774752
  0
ARC
  5
2B8
330
1F
100
AcDbEntity
  8
0
  6
Continuous
 62
     7
370
    25
100
AcDbCircle
 10
-0.6185913296
 20
-0.1403943145
 30
0.0
 40
0.0039604506763927
100
AcDbArc
 50
234.3824225248
 51
294.3071190461
  0
ARC
  5
2B9
330
1F
100
AcDbEntity
  8
0
  6
Continuous
 62
     7
370
    25
100
AcDbCircle
 10
0.6818881779
 20
0.6102709806
 30
0.0
 40
0.0038817159837125
100
AcDbArc
 50
305.0133328701
 51
6.2988475233
  0
ARC
  5
2BA
330
1F
100
AcDbEntity
  8
0
  6
Continuous
 62
     7
370
    25
100
AcDbCircle
 10
0.6691413531
 20
0.647345695
 30
0.0
 40
0.0402351422795019
100
AcDbArc
 50
294.3746582936
 51
354.3052007488
  0
ARC
  5
2BB
330
1F
100
AcDbEntity
  8
0
  6
Continuous
 62
     7
370
    25
100
AcDbCircle
 10
1.5475185894
 20
3.6864421476
 30
0.0
 40
0.0619578627694244
100
AcDbArc
 50
4.3083113523
 51
5.279294113
  0
ARC
  5
2BC
330
1F
100
AcDbEntity
  8
0
  6
Continuous
 62
     7
370
    25
100
AcDbCircle
 10
2.3608856602
 20
4.1429745666
 30
0.0
 40
0.0350305476827452
100
AcDbArc
 50
3.5800090522
 51
5.2908085105
  0
ARC
  5
2BD
330
1F
100
AcDbEntity
  8
0
  6
Continuous
 62
     7
370
    25
100
AcDbCircle
 10
1.5857331186
 20
3.7549288234
 30
0.0
 40
0.0680441842106614
100
AcDbArc
 50
250.259076973
 51
290.2645371171
  0
ARC
  5
2BE
330
1F
100
AcDbEntity
  8
0
  6
Continuous
 62
     7
370
    25
100
AcDbCircle
 10
-0.7573724587
 20
4.2448688894
 30
0.0
 40
0.2435907874188853
100
AcDbArc
 50
161.9737278414
 51
200.6528122341
  0
ARC
  5
2BF
330
1F
100
AcDbEntity
  8
0
  6
Continuous
 62
     7
370
    25
100
AcDbCircle
 10
-0.276440343
 20
5.0130087754
 30
0.0
 40
1.188771175445162
100
AcDbArc
 50
255.7511478095
 51
264.9161703543
  0
ARC
  5
2C0
330
1F
100
AcDbEntity
  8
0
  6
Continuous
 62
     7
370
    25
100
AcDbCircle
 10
3.0721152368
 20
2.2501366767
 30
0.0
 40
0.1805324451239022
100
AcDbArc
 50
2.5037637251
 51
58.6085402032
  0
ARC
  5
2C1
330
1F
100
AcDbEntity
  8
0
  6
Continuous
 62
     7
370
    25
100
AcDbCircle
 10
2.7402639067
 20
2.0414141829
 30
0.0
 40
0.1380210351883991
100
AcDbArc
 50
124.4222264491
 51
157.0635106518
  0
ARC
  5
2C2
330
1F
100
AcDbEntity
  8
0
  6
Continuous
 62
     7
370
    25
100
AcDbCircle
 10
0.2703143411
 20
3.3424143594
 30
0.0
 40
0.0900374856819727
100
AcDbArc
 50
124.2844692757
 51
179.5406996614
  0
ARC
  5
2C3
330
1F
100
AcDbEntity
  8
0
  6
Continuous
 62
     7
370
    25
100
AcDbCircle
 10
2.6867374445
 20
2.1059552853
 30
0.0
 40
0.0897915766340549
100
AcDbArc
 50
124.0935239534
 51
179.5056473088
  0
ARC
  5
2C4
330
1F
100
AcDbEntity
  8
0
  6
Continuous
 62
     7
370
    25
100
AcDbCircle
 10
-0.3885332543
 20
2.3964765214
 30
0.0
 40
0.0814236822860834
100
AcDbArc
 50
234.9280998372
 51
296.2944280405
  0
ARC
  5
2C5
330
1F
100
AcDbEntity
  8
0
  6
Continuous
 62
     7
370
    25
100
AcDbCircle
 10
-1.2183018207
 20
0.5207179216
 30
0.0
 40
0.0099035168520911
100
AcDbArc
 50
174.38002321
 51
234.2902380834
  0
ARC
  5
2C6
330
1F
100
AcDbEntity
  8
0
  6
Continuous
 62
     7
370
    25
100
AcDbCircle
 10
-0.724608819
 20
-0.1408244823
 30
0.0
 40
0.0038817159851674
100
AcDbArc
 50
173.7011524894
 51
234.9866671172
  0
ARC
  5
2C7
330
1F
100
AcDbEntity
  8
0
  6
Continuous
 62
     7
370
    25
100
AcDbCircle
 10
-0.6191882996
 20
-0.1408244822
 30
0.0
 40
0.003881716137872
100
AcDbArc
 50
305.0133335691
 51
6.2988461133
  0
ARC
  5
2C8
330
1F
100
AcDbEntity
  8
0
  6
Continuous
 62
     7
370
    25
100
AcDbCircle
 10
-1.3751470577
 20
0.2347232491
 30
0.0
 40
0.0038817159827649
100
AcDbArc
 50
173.7011524679
 51
234.9866671322
  0
ARC
  5
2C9
330
1F
100
AcDbEntity
  8
0
  6
Continuous
 62
     7
370
    25
100
AcDbCircle
 10
0.6816047401
 20
0.8614612906
 30
0.0
 40
0.0050301899840212
100
AcDbArc
 50
65.7083960696
 51
125.616225864
  0
ARC
  5
2CA
330
1F
100
AcDbEntity
  8
0
  6
Continuous
 62
     7
370
    25
100
AcDbCircle
 10
0.6691413531
 20
0.8328033306
 30
0.0
 40
0.0402351422795019
100
AcDbArc
 50
294.3746582936
 51
354.3052007488
  0
ARC
  5
2CB
330
1F
100
AcDbEntity
  8
0
  6
Continuous
 62
     7
370
    25
100
AcDbCircle
 10
-0.2124484494
 20
3.7515329109
 30
0.0
 40
0.010787323138438
100
AcDbArc
 50
171.8575050902
 51
234.0006783969
  0
ARC
  5
2CC
330
1F
100
AcDbEntity
  8
0
  6
Continuous
 62
     7
370
    25
100
AcDbCircle
 10
-0.1746372866
 20
3.750543427
 30
0.0
 40
0.0083705844774694
100
AcDbArc
 50
304.8661058055
 51
351.8034629577
  0
ARC
  5
2CD
330
1F
100
AcDbEntity
  8
0
  6
Continuous
 62
     7
370
    25
100
AcDbCircle
 10
-0.1691998421
 20
4.8057766362
 30
0.0
 40
0.9595813209933541
100
AcDbArc
 50
284.1635647507
 51
299.3572853515
  0
ARC
  5
2CE
330
1F
100
AcDbEntity
  8
0
  6
Continuous
 62
     7
370
    25
100
AcDbCircle
 10
0.2893808134
 20
3.9646514403
 30
0.0
 40
0.0127828684410532
100
AcDbArc
 50
311.4515616833
 51
21.9284693003
  0
ARC
  5
2CF
330
1F
100
AcDbEntity
  8
0
  6
Continuous
 62
     7
370
    25
100
AcDbCircle
 10
2.7207938273
 20
1.6707702264
 30
0.0
 40
0.025352727605179
100
AcDbArc
 50
307.6970116681
 51
12.4606592319
  0
ARC
  5
2D0
330
1F
100
AcDbEntity
  8
0
  6
Continuous
 62
     7
370
    25
100
AcDbCircle
 10
3.2232890488
 20
1.8943416132
 30
0.0
 40
0.0293484083119437
100
AcDbArc
 50
305.2684972915
 51
6.0251195949
  0
ARC
  5
2D1
330
1F
100
AcDbEntity
  8
0
  6
Continuous
 62
     7
370
    25
100
AcDbCircle
 10
2.6411869549
 20
1.6832917349
 30
0.0
 40
0.0321212119303134
100
AcDbArc
 50
177.8556394893
 51
239.7490779147
  0
ARC
  5
2D2
330
1F
100
AcDbEntity
  8
0
  6
Continuous
 62
     7
370
    25
100
AcDbCircle
 10
0.3843115721
 20
2.7275208667
 30
0.0
 40
0.0320520256342594
100
AcDbArc
 50
177.8004091132
 51
239.8727905806
  0
ARC
  5
2D3
330
1F
100
AcDbEntity
  8
0
  6
Continuous
 62
     7
370
    25
100
AcDbCircle
 10
3.589224127
 20
2.1835493371
 30
0.0
 40
0.0354997785147538
100
AcDbArc
 50
317.6876567384
 51
0.3671350381
  0
ARC
  5
2D4
330
1F
100
AcDbEntity
  8
0
  6
Continuous
 62
     7
370
    25
100
AcDbCircle
 10
3.5964847423
 20
2.669219439
 30
0.0
 40
0.0220943095703885
100
AcDbArc
 50
60.1745291083
 51
125.9114347059
  0
ARC
  5
2D5
330
1F
100
AcDbEntity
  8
0
  6
Continuous
 62
     7
370
    25
100
AcDbCircle
 10
3.5664920239
 20
2.6813742161
 30
0.0
 40
0.0311354245879931
100
AcDbArc
 50
65.3378845654
 51
123.924576751
  0
ARC
  5
2D6
330
1F
100
AcDbEntity
  8
0
  6
Continuous
 62
     7
370
    25
100
AcDbCircle
 10
0.3400615166
 20
2.7493095631
 30
0.0
 40
0.034361469353056
100
AcDbArc
 50
180.7764826198
 51
242.9948811009
  0
ARC
  5
2D7
330
1F
100
AcDbEntity
  8
0
  6
Continuous
 62
     7
370
    25
100
AcDbCircle
 10
-0.7037132117
 20
0.2238331838
 30
0.0
 40
0.0096886904956539
100
AcDbArc
 50
173.6537828068
 51
235.1149120909
  0
ARC
  5
2D8
330
1F
100
AcDbEntity
  8
0
  6
Continuous
 62
     7
370
    25
100
AcDbCircle
 10
-0.6385223743
 20
0.223108936
 30
0.0
 40
0.0087516847329743
100
AcDbArc
 50
303.2386948899
 51
356.8924191262
  0
ARC
  5
2D9
330
1F
100
AcDbEntity
  8
0
  6
Continuous
 62
     7
370
    25
100
AcDbCircle
 10
0.4075006195
 20
0.8269653678
 30
0.0
 40
0.0087519214335283
100
AcDbArc
 50
303.2448986372
 51
356.8920026011
  0
ENDSEC
  0
SECTION
  2
OBJECTS
  0
DICTIONARY
  5
C
330
0
100
AcDbDictionary
281
     1
  3
ACAD_GROUP
350
D
  3
ACAD_LAYOUT
350
1A
  3
ACAD_MLINESTYLE
350
17
  3
ACAD_PLOTSETTINGS
350
19
  3
ACAD_PLOTSTYLENAME
350
E
  3
ACAD_SCALELIST
350
47
  3
DWGPROPS
350
2DA
  0
DICTIONARY
  5
D
102
{ACAD_REACTORS
330
C
102
}
330
C
100
AcDbDictionary
281
     1
  0
DICTIONARY
  5
1A
102
{ACAD_REACTORS
330
C
102
}
330
C
100
AcDbDictionary
281
     1
  3
Layout1
350
1E
  3
Layout2
350
26
  3
Model
350
22
  0
DICTIONARY
  5
17
102
{ACAD_REACTORS
330
C
102
}
330
C
100
AcDbDictionary
281
     1
  3
Standard
350
18
  0
DICTIONARY
  5
19
102
{ACAD_REACTORS
330
C
102
}
330
C
100
AcDbDictionary
281
     1
  0
ACDBDICTIONARYWDFLT
  5
E
102
{ACAD_REACTORS
330
C
102
}
330
C
100
AcDbDictionary
281
     1
  3
Normal
350
F
100
AcDbDictionaryWithDefault
340
F
  0
DICTIONARY
  5
47
102
{ACAD_REACTORS
330
C
102
}
330
C
100
AcDbDictionary
281
     1
  3
A0
350
48
  3
A1
350
49
  3
A2
350
4A
  3
A3
350
4B
  3
A4
350
4C
  3
A5
350
4D
  3
A6
350
4E
  3
A7
350
4F
  3
A8
350
50
  3
A9
350
51
  3
B1
350
52
  3
B2
350
53
  3
B3
350
54
  3
B4
350
55
  3
B5
350
56
  3
B6
350
57
  3
B7
350
58
  0
XRECORD
  5
2DA
102
{ACAD_REACTORS
330
C
102
}
330
C
100
AcDbXrecord
280
     1
  1
DWGPROPS COOKIE
  2

  3

  4

  6

  7

  8
Alan Ramirez
  9

300
=
301
=
302
=
303
=
304
=
305
=
306
=
307
=
308
=
309
=
 40
0.0
 41
2460425.677117118
 42
2460425.677154965
  1

 90
        0
  0
LAYOUT
  5
1E
102
{ACAD_REACTORS
330
1A
102
}
330
1A
100
AcDbPlotSettings
  1

  2
none_device
  4

  6

 40
0.0
 41
0.0
 42
0.0
 43
0.0
 44
0.0
 45
0.0
 46
0.0
 47
0.0
 48
0.0
 49
0.0
140
0.0
141
0.0
142
1.0
143
1.0
 70
   688
 72
     0
 73
     0
 74
     5
  7

 75
    16
147
1.0
148
0.0
149
0.0
100
AcDbLayout
  1
Layout1
 70
     1
 71
     1
 10
0.0
 20
0.0
 11
12.0
 21
9.0
 12
0.0
 22
0.0
 32
0.0
 14
1.0000000000E+20
 24
1.0000000000E+20
 34
1.0000000000E+20
 15
-1.0000000000E+20
 25
-1.0000000000E+20
 35
-1.0000000000E+20
146
0.0
 13
0.0
 23
0.0
 33
0.0
 16
1.0
 26
0.0
 36
0.0
 17
0.0
 27
1.0
 37
0.0
 76
     0
330
1B
  0
LAYOUT
  5
26
102
{ACAD_REACTORS
330
1A
102
}
330
1A
100
AcDbPlotSettings
  1

  2
none_device
  4

  6

 40
0.0
 41
0.0
 42
0.0
 43
0.0
 44
0.0
 45
0.0
 46
0.0
 47
0.0
 48
0.0
 49
0.0
140
0.0
141
0.0
142
1.0
143
1.0
 70
   688
 72
     0
 73
     0
 74
     5
  7

 75
    16
147
1.0
148
0.0
149
0.0
100
AcDbLayout
  1
Layout2
 70
     1
 71
     2
 10
0.0
 20
0.0
 11
0.0
 21
0.0
 12
0.0
 22
0.0
 32
0.0
 14
0.0
 24
0.0
 34
0.0
 15
0.0
 25
0.0
 35
0.0
146
0.0
 13
0.0
 23
0.0
 33
0.0
 16
1.0
 26
0.0
 36
0.0
 17
0.0
 27
1.0
 37
0.0
 76
     0
330
23
  0
LAYOUT
  5
22
102
{ACAD_REACTORS
330
1A
102
}
330
1A
100
AcDbPlotSettings
  1

  2
none_device
  4
ANSI_A_(11.00_x_8.50_Inches)
  6

 40
6.35
 41
19.05
 42
6.35000508
 43
19.05000254
 44
279.4
 45
215.9
 46
94.8781660726
 47
-11.874413624
 48
0.0
 49
0.0
140
0.0
141
0.0
142
1.5380701512
143
1.0
 70
  1696
 72
     0
 73
     0
 74
     0
  7

 75
     0
147
0.5913241897
148
-39.4088153714
149
0.0
100
AcDbLayout
  1
Model
 70
     1
 71
     0
 10
0.0
 20
0.0
 11
12.0
 21
9.0
 12
0.0
 22
0.0
 32
0.0
 14
-1.6718985592
 24
-0.1560419402
 34
0.0
 15
3.6414303518
 25
5.3150999275
 35
0.0
146
0.0
 13
0.0
 23
0.0
 33
0.0
 16
1.0
 26
0.0
 36
0.0
 17
0.0
 27
1.0
 37
0.0
 76
     0
330
1F
331
29
  0
MLINESTYLE
  5
18
102
{ACAD_REACTORS
330
17
102
}
330
17
100
AcDbMlineStyle
  2
Standard
 70
     0
  3

 62
   256
 51
90.0
 52
90.0
 71
     2
 49
0.5
 62
   256
  6
BYLAYER
 49
-0.5
 62
   256
  6
BYLAYER
  0
ACDBPLACEHOLDER
  5
F
102
{ACAD_REACTORS
330
E
102
}
330
E
  0
SCALE
  5
48
102
{ACAD_REACTORS
330
47
102
}
330
47
100
AcDbScale
 70
     0
300
1:1
140
1.0
141
1.0
290
     1
  0
SCALE
  5
49
102
{ACAD_REACTORS
330
47
102
}
330
47
100
AcDbScale
 70
     0
300
1/128" = 1'-0"
140
0.0078125
141
12.0
290
     0
  0
SCALE
  5
4A
102
{ACAD_REACTORS
330
47
102
}
330
47
100
AcDbScale
 70
     0
300
1/64" = 1'-0"
140
0.015625
141
12.0
290
     0
  0
SCALE
  5
4B
102
{ACAD_REACTORS
330
47
102
}
330
47
100
AcDbScale
 70
     0
300
1/32" = 1'-0"
140
0.03125
141
12.0
290
     0
  0
SCALE
  5
4C
102
{ACAD_REACTORS
330
47
102
}
330
47
100
AcDbScale
 70
     0
300
1/16" = 1'-0"
140
0.0625
141
12.0
290
     0
  0
SCALE
  5
4D
102
{ACAD_REACTORS
330
47
102
}
330
47
100
AcDbScale
 70
     0
300
3/32" = 1'-0"
140
0.09375
141
12.0
290
     0
  0
SCALE
  5
4E
102
{ACAD_REACTORS
330
47
102
}
330
47
100
AcDbScale
 70
     0
300
1/8" = 1'-0"
140
0.125
141
12.0
290
     0
  0
SCALE
  5
4F
102
{ACAD_REACTORS
330
47
102
}
330
47
100
AcDbScale
 70
     0
300
3/16" = 1'-0"
140
0.1875
141
12.0
290
     0
  0
SCALE
  5
50
102
{ACAD_REACTORS
330
47
102
}
330
47
100
AcDbScale
 70
     0
300
1/4" = 1'-0"
140
0.25
141
12.0
290
     0
  0
SCALE
  5
51
102
{ACAD_REACTORS
330
47
102
}
330
47
100
AcDbScale
 70
     0
300
3/8" = 1'-0"
140
0.375
141
12.0
290
     0
  0
SCALE
  5
52
102
{ACAD_REACTORS
330
47
102
}
330
47
100
AcDbScale
 70
     0
300
1/2" = 1'-0"
140
0.5
141
12.0
290
     0
  0
SCALE
  5
53
102
{ACAD_REACTORS
330
47
102
}
330
47
100
AcDbScale
 70
     0
300
3/4" = 1'-0"
140
0.75
141
12.0
290
     0
  0
SCALE
  5
54
102
{ACAD_REACTORS
330
47
102
}
330
47
100
AcDbScale
 70
     0
300
1" = 1'-0"
140
1.0
141
12.0
290
     0
  0
SCALE
  5
55
102
{ACAD_REACTORS
330
47
102
}
330
47
100
AcDbScale
 70
     0
300
1-1/2" = 1'-0"
140
1.5
141
12.0
290
     0
  0
SCALE
  5
56
102
{ACAD_REACTORS
330
47
102
}
330
47
100
AcDbScale
 70
     0
300
3" = 1'-0"
140
3.0
141
12.0
290
     0
  0
SCALE
  5
57
102
{ACAD_REACTORS
330
47
102
}
330
47
100
AcDbScale
 70
     0
300
6" = 1'-0"
140
6.0
141
12.0
290
     0
  0
SCALE
  5
58
102
{ACAD_REACTORS
330
47
102
}
330
47
100
AcDbScale
 70
     0
300
1'-0" = 1'-0"
140
12.0
141
12.0
290
     0
  0
ENDSEC
  0
EOF
