  0
SECTION
  2
HEADER
  9
$ACADVER
  1
AC1015
  9
$ACADMAINTVER
 70
     6
  9
$DWGCODEPAGE
  3
ANSI_1252
  9
$INSBASE
 10
0.0
 20
0.0
 30
0.0
  9
$EXTMIN
 10
-13.5671036938
 20
-9.1442573903
 30
0.0
  9
$EXTMAX
 10
1.7556119203
 20
0.3012916477
 30
0.0
  9
$LIMMIN
 10
0.0
 20
0.0
  9
$LIMMAX
 10
12.0
 20
9.0
  9
$ORTHOMODE
 70
     0
  9
$REGENMODE
 70
     1
  9
$FILLMODE
 70
     1
  9
$QTEXTMODE
 70
     0
  9
$MIRRTEXT
 70
     1
  9
$LTSCALE
 40
1.0
  9
$ATTMODE
 70
     1
  9
$TEXTSIZE
 40
0.125
  9
$TRACEWID
 40
0.05
  9
$TEXTSTYLE
  7
Standard
  9
$CLAYER
  8
0
  9
$CELTYPE
  6
ByLayer
  9
$CECOLOR
 62
   256
  9
$CELTSCALE
 40
1.0
  9
$DISPSILH
 70
     0
  9
$DIMSCALE
 40
1.0
  9
$DIMASZ
 40
0.13
  9
$DIMEXO
 40
0.0
  9
$DIMDLI
 40
0.38
  9
$DIMRND
 40
0.0
  9
$DIMDLE
 40
0.0
  9
$DIMEXE
 40
0.125
  9
$DIMTP
 40
0.0
  9
$DIMTM
 40
0.0
  9
$DIMTXT
 40
0.125
  9
$DIMCEN
 40
0.09
  9
$DIMTSZ
 40
0.0
  9
$DIMTOL
 70
     0
  9
$DIMLIM
 70
     0
  9
$DIMTIH
 70
     1
  9
$DIMTOH
 70
     1
  9
$DIMSE1
 70
     0
  9
$DIMSE2
 70
     0
  9
$DIMTAD
 70
     0
  9
$DIMZIN
 70
     1
  9
$DIMBLK
  1

  9
$DIMASO
 70
     1
  9
$DIMSHO
 70
     1
  9
$DIMPOST
  1

  9
$DIMAPOST
  1

  9
$DIMALT
 70
     0
  9
$DIMALTD
 70
     2
  9
$DIMALTF
 40
25.4
  9
$DIMLFAC
 40
1.0
  9
$DIMTOFL
 70
     0
  9
$DIMTVP
 40
0.0
  9
$DIMTIX
 70
     0
  9
$DIMSOXD
 70
     0
  9
$DIMSAH
 70
     0
  9
$DIMBLK1
  1

  9
$DIMBLK2
  1

  9
$DIMSTYLE
  2
Standard
  9
$DIMCLRD
 70
     0
  9
$DIMCLRE
 70
     0
  9
$DIMCLRT
 70
     0
  9
$DIMTFAC
 40
1.0
  9
$DIMGAP
 40
0.06
  9
$DIMJUST
 70
     0
  9
$DIMSD1
 70
     0
  9
$DIMSD2
 70
     0
  9
$DIMTOLJ
 70
     1
  9
$DIMTZIN
 70
     1
  9
$DIMALTZ
 70
     0
  9
$DIMALTTZ
 70
     0
  9
$DIMUPT
 70
     0
  9
$DIMDEC
 70
     3
  9
$DIMTDEC
 70
     3
  9
$DIMALTU
 70
     2
  9
$DIMALTTD
 70
     2
  9
$DIMTXSTY
  7
Standard
  9
$DIMAUNIT
 70
     0
  9
$DIMADEC
 70
     2
  9
$DIMALTRND
 40
0.0
  9
$DIMAZIN
 70
     0
  9
$DIMDSEP
 70
    46
  9
$DIMATFIT
 70
     3
  9
$DIMFRAC
 70
     0
  9
$DIMLDRBLK
  1

  9
$DIMLUNIT
 70
     2
  9
$DIMLWD
 70
    -2
  9
$DIMLWE
 70
    -2
  9
$DIMTMOVE
 70
     0
  9
$LUNITS
 70
     2
  9
$LUPREC
 70
     3
  9
$SKETCHINC
 40
0.1
  9
$FILLETRAD
 40
0.0
  9
$AUNITS
 70
     0
  9
$AUPREC
 70
     2
  9
$MENU
  1
.
  9
$ELEVATION
 40
0.0
  9
$PELEVATION
 40
0.0
  9
$THICKNESS
 40
0.0
  9
$LIMCHECK
 70
     0
  9
$CHAMFERA
 40
0.0
  9
$CHAMFERB
 40
0.0
  9
$CHAMFERC
 40
0.0
  9
$CHAMFERD
 40
0.0
  9
$SKPOLY
 70
     0
  9
$TDCREATE
 40
2460425.421271007
  9
$TDUCREATE
 40
2460425.671271007
  9
$TDUPDATE
 40
2460425.421300174
  9
$TDUUPDATE
 40
2460425.671300174
  9
$TDINDWG
 40
0.0000000116
  9
$TDUSRTIMER
 40
0.0000000116
  9
$USRTIMER
 70
     1
  9
$ANGBASE
 50
0.0
  9
$ANGDIR
 70
     0
  9
$PDMODE
 70
     0
  9
$PDSIZE
 40
-1.0
  9
$PLINEWID
 40
0.0
  9
$SPLFRAME
 70
     0
  9
$SPLINETYPE
 70
     6
  9
$SPLINESEGS
 70
     8
  9
$HANDSEED
  5
224
  9
$SURFTAB1
 70
     6
  9
$SURFTAB2
 70
     6
  9
$SURFTYPE
 70
     6
  9
$SURFU
 70
     6
  9
$SURFV
 70
     6
  9
$UCSBASE
  2

  9
$UCSNAME
  2

  9
$UCSORG
 10
0.0
 20
0.0
 30
0.0
  9
$UCSXDIR
 10
1.0
 20
0.0
 30
0.0
  9
$UCSYDIR
 10
0.0
 20
1.0
 30
0.0
  9
$UCSORTHOREF
  2

  9
$UCSORTHOVIEW
 70
     0
  9
$UCSORGTOP
 10
0.0
 20
0.0
 30
0.0
  9
$UCSORGBOTTOM
 10
0.0
 20
0.0
 30
0.0
  9
$UCSORGLEFT
 10
0.0
 20
0.0
 30
0.0
  9
$UCSORGRIGHT
 10
0.0
 20
0.0
 30
0.0
  9
$UCSORGFRONT
 10
0.0
 20
0.0
 30
0.0
  9
$UCSORGBACK
 10
0.0
 20
0.0
 30
0.0
  9
$PUCSBASE
  2

  9
$PUCSNAME
  2

  9
$PUCSORG
 10
0.0
 20
0.0
 30
0.0
  9
$PUCSXDIR
 10
1.0
 20
0.0
 30
0.0
  9
$PUCSYDIR
 10
0.0
 20
1.0
 30
0.0
  9
$PUCSORTHOREF
  2

  9
$PUCSORTHOVIEW
 70
     0
  9
$PUCSORGTOP
 10
0.0
 20
0.0
 30
0.0
  9
$PUCSORGBOTTOM
 10
0.0
 20
0.0
 30
0.0
  9
$PUCSORGLEFT
 10
0.0
 20
0.0
 30
0.0
  9
$PUCSORGRIGHT
 10
0.0
 20
0.0
 30
0.0
  9
$PUCSORGFRONT
 10
0.0
 20
0.0
 30
0.0
  9
$PUCSORGBACK
 10
0.0
 20
0.0
 30
0.0
  9
$USERI1
 70
     0
  9
$USERI2
 70
     0
  9
$USERI3
 70
     0
  9
$USERI4
 70
     0
  9
$USERI5
 70
     0
  9
$USERR1
 40
0.0
  9
$USERR2
 40
0.0
  9
$USERR3
 40
0.0
  9
$USERR4
 40
0.0
  9
$USERR5
 40
0.0
  9
$WORLDVIEW
 70
     1
  9
$SHADEDGE
 70
     3
  9
$SHADEDIF
 70
    70
  9
$TILEMODE
 70
     1
  9
$MAXACTVP
 70
    64
  9
$PINSBASE
 10
0.0
 20
0.0
 30
0.0
  9
$PLIMCHECK
 70
     0
  9
$PEXTMIN
 10
1.0000000000E+20
 20
1.0000000000E+20
 30
1.0000000000E+20
  9
$PEXTMAX
 10
-1.0000000000E+20
 20
-1.0000000000E+20
 30
-1.0000000000E+20
  9
$PLIMMIN
 10
0.0
 20
0.0
  9
$PLIMMAX
 10
12.0
 20
9.0
  9
$UNITMODE
 70
     0
  9
$VISRETAIN
 70
     1
  9
$PLINEGEN
 70
     0
  9
$PSLTSCALE
 70
     1
  9
$TREEDEPTH
 70
  3020
  9
$CMLSTYLE
  2
Standard
  9
$CMLJUST
 70
     0
  9
$CMLSCALE
 40
1.0
  9
$PROXYGRAPHICS
 70
     1
  9
$MEASUREMENT
 70
     0
  9
$CELWEIGHT
370
    -1
  9
$ENDCAPS
280
     0
  9
$JOINSTYLE
280
     0
  9
$LWDISPLAY
290
     1
  9
$INSUNITS
 70
     1
  9
$HYPERLINKBASE
  1

  9
$STYLESHEET
  1

  9
$XEDIT
290
     1
  9
$CEPSNTYPE
380
     0
  9
$PSTYLEMODE
290
     1
  9
$FINGERPRINTGUID
  2
{90082f80-04ef-4085-9078-d83aab82ff19}
  9
$VERSIONGUID
  2
{FAEB1C32-E019-11D5-929B-00C0DF256EC4}
  9
$EXTNAMES
290
     1
  9
$PSVPSCALE
 40
0.0
  9
$OLESTARTUP
290
     0
  0
ENDSEC
  0
SECTION
  2
CLASSES
  0
CLASS
  1
ACDBDICTIONARYWDFLT
  2
AcDbDictionaryWithDefault
  3
ObjectDBX Classes
 90
        0
280
     0
281
     0
  0
CLASS
  1
VISUALSTYLE
  2
AcDbVisualStyle
  3
ObjectDBX Classes
 90
     4095
280
     0
281
     0
  0
CLASS
  1
MATERIAL
  2
AcDbMaterial
  3
ObjectDBX Classes
 90
     1153
280
     0
281
     0
  0
CLASS
  1
SCALE
  2
AcDbScale
  3
ObjectDBX Classes
 90
     1153
280
     0
281
     0
  0
CLASS
  1
TABLESTYLE
  2
AcDbTableStyle
  3
ObjectDBX Classes
 90
     4095
280
     0
281
     0
  0
CLASS
  1
MLEADERSTYLE
  2
AcDbMLeaderStyle
  3
ACDB_MLEADERSTYLE_CLASS
 90
     4095
280
     0
281
     0
  0
CLASS
  1
SUN
  2
AcDbSun
  3
SCENEOE
 90
     1153
280
     0
281
     0
  0
CLASS
  1
ACDBPLACEHOLDER
  2
AcDbPlaceHolder
  3
ObjectDBX Classes
 90
        0
280
     0
281
     0
  0
CLASS
  1
LAYOUT
  2
AcDbLayout
  3
ObjectDBX Classes
 90
        0
280
     0
281
     0
  0
ENDSEC
  0
SECTION
  2
TABLES
  0
TABLE
  2
VPORT
  5
8
330
0
100
AcDbSymbolTable
 70
     1
  0
VPORT
  5
29
330
8
100
AcDbSymbolTableRecord
100
AcDbViewportTableRecord
  2
*Active
 70
     0
 10
0.0
 20
0.0
 11
1.0
 21
1.0
 12
-5.9057458868
 22
-4.4214828713
 13
0.0
 23
0.0
 14
0.5
 24
0.5
 15
0.5
 25
0.5
 16
0.0
 26
0.0
 36
1.0
 17
0.0
 27
0.0
 37
0.0
 40
9.6344600187
 41
1.6222154533
 42
50.0
 43
0.0
 44
0.0
 50
0.0
 51
0.0
 71
     0
 72
   100
 73
     1
 74
     3
 75
     0
 76
     0
 77
     0
 78
     0
281
     0
 65
     1
110
0.0
120
0.0
130
0.0
111
1.0
121
0.0
131
0.0
112
0.0
122
1.0
132
0.0
 79
     0
146
0.0
  0
ENDTAB
  0
TABLE
  2
LTYPE
  5
5
330
0
100
AcDbSymbolTable
 70
     6
  0
LTYPE
  5
14
330
5
100
AcDbSymbolTableRecord
100
AcDbLinetypeTableRecord
  2
ByBlock
 70
     0
  3

 72
    65
 73
     0
 40
0.0
  0
LTYPE
  5
15
330
5
100
AcDbSymbolTableRecord
100
AcDbLinetypeTableRecord
  2
ByLayer
 70
     0
  3

 72
    65
 73
     0
 40
0.0
  0
LTYPE
  5
16
330
5
100
AcDbSymbolTableRecord
100
AcDbLinetypeTableRecord
  2
Continuous
 70
     0
  3
Solid line
 72
    65
 73
     0
 40
0.0
  0
LTYPE
  5
5E
330
5
100
AcDbSymbolTableRecord
100
AcDbLinetypeTableRecord
  2
HIDDEN
 70
     0
  3
Hidden __ __ __ __ __ __ __ __ __ __ __ __ __ __
 72
    65
 73
     2
 40
0.075
 49
0.05
 74
     0
 49
-0.025
 74
     0
  0
LTYPE
  5
5F
330
5
100
AcDbSymbolTableRecord
100
AcDbLinetypeTableRecord
  2
PHANTOM
 70
     0
  3
Phantom ______  __  __  ______  __  __  ______
 72
    65
 73
     6
 40
0.5
 49
0.25
 74
     0
 49
-0.05
 74
     0
 49
0.05
 74
     0
 49
-0.05
 74
     0
 49
0.05
 74
     0
 49
-0.05
 74
     0
  0
LTYPE
  5
60
330
5
100
AcDbSymbolTableRecord
100
AcDbLinetypeTableRecord
  2
CENTER
 70
     0
  3
Center ____ _ ____ _ ____ _ ____ _ ____ _ ____
 72
    65
 73
     4
 40
0.4
 49
0.25
 74
     0
 49
-0.05
 74
     0
 49
0.05
 74
     0
 49
-0.05
 74
     0
  0
LTYPE
  5
61
330
5
100
AcDbSymbolTableRecord
100
AcDbLinetypeTableRecord
  2
CENTERX2
 70
     0
  3
Center (2x) ________  __  ________  __  _____
 72
    65
 73
     4
 40
0.8
 49
0.5
 74
     0
 49
-0.1
 74
     0
 49
0.1
 74
     0
 49
-0.1
 74
     0
  0
LTYPE
  5
62
330
5
100
AcDbSymbolTableRecord
100
AcDbLinetypeTableRecord
  2
DOT2
 70
     0
  3
Dot (.5x) ........................................
 72
    65
 73
     2
 40
0.025
 49
0.0
 74
     0
 49
-0.025
 74
     0
  0
ENDTAB
  0
TABLE
  2
LAYER
  5
2
330
0
100
AcDbSymbolTable
 70
     1
  0
LAYER
  5
10
330
2
100
AcDbSymbolTableRecord
100
AcDbLayerTableRecord
  2
0
 70
     0
 62
     7
  6
Continuous
370
    -3
390
F
  0
ENDTAB
  0
TABLE
  2
STYLE
  5
3
330
0
100
AcDbSymbolTable
 70
     1
  0
STYLE
  5
11
330
3
100
AcDbSymbolTableRecord
100
AcDbTextStyleTableRecord
  2
Standard
 70
     0
 40
0.0
 41
1.0
 50
0.0
 71
     0
 42
0.125
  3
txt
  4

  0
ENDTAB
  0
TABLE
  2
VIEW
  5
6
330
0
100
AcDbSymbolTable
 70
     0
  0
ENDTAB
  0
TABLE
  2
UCS
  5
7
330
0
100
AcDbSymbolTable
 70
     0
  0
ENDTAB
  0
TABLE
  2
APPID
  5
9
330
0
100
AcDbSymbolTable
 70
     1
  0
APPID
  5
12
330
9
100
AcDbSymbolTableRecord
100
AcDbRegAppTableRecord
  2
ACAD
 70
     0
  0
ENDTAB
  0
TABLE
  2
DIMSTYLE
  5
A
330
0
100
AcDbSymbolTable
 70
     1
100
AcDbDimStyleTable
  0
DIMSTYLE
105
27
330
A
100
AcDbSymbolTableRecord
100
AcDbDimStyleTableRecord
  2
Standard
 70
     0
178
     0
340
11
  0
ENDTAB
  0
TABLE
  2
BLOCK_RECORD
  5
1
330
0
100
AcDbSymbolTable
 70
     1
  0
BLOCK_RECORD
  5
1F
330
1
100
AcDbSymbolTableRecord
100
AcDbBlockTableRecord
  2
*Model_Space
340
22
  0
BLOCK_RECORD
  5
1B
330
1
100
AcDbSymbolTableRecord
100
AcDbBlockTableRecord
  2
*Paper_Space
340
1E
  0
BLOCK_RECORD
  5
23
330
1
100
AcDbSymbolTableRecord
100
AcDbBlockTableRecord
  2
*Paper_Space0
340
26
  0
ENDTAB
  0
ENDSEC
  0
SECTION
  2
BLOCKS
  0
BLOCK
  5
20
330
1F
100
AcDbEntity
  8
0
100
AcDbBlockBegin
  2
*Model_Space
 70
     0
 10
0.0
 20
0.0
 30
0.0
  3
*Model_Space
  1

  0
ENDBLK
  5
21
330
1F
100
AcDbEntity
  8
0
100
AcDbBlockEnd
  0
BLOCK
  5
1C
330
1B
100
AcDbEntity
 67
     1
  8
0
100
AcDbBlockBegin
  2
*Paper_Space
 70
     0
 10
0.0
 20
0.0
 30
0.0
  3
*Paper_Space
  1

  0
ENDBLK
  5
1D
330
1B
100
AcDbEntity
 67
     1
  8
0
100
AcDbBlockEnd
  0
BLOCK
  5
24
330
23
100
AcDbEntity
  8
0
100
AcDbBlockBegin
  2
*Paper_Space0
 70
     0
 10
0.0
 20
0.0
 30
0.0
  3
*Paper_Space0
  1

  0
ENDBLK
  5
25
330
23
100
AcDbEntity
  8
0
100
AcDbBlockEnd
  0
ENDSEC
  0
SECTION
  2
ENTITIES
  0
SPLINE
  5
63
330
1F
100
AcDbEntity
  8
0
  6
Continuous
 62
     7
370
    25
100
AcDbSpline
210
0.0
220
0.0
230
1.0
 70
     8
 71
     3
 72
    12
 73
     8
 74
     0
 42
0.00000001
 43
0.00000001
 40
0.0
 40
0.0
 40
0.0
 40
0.0
 40
0.0491110143585508
 40
0.3094183109969454
 40
0.549043762049774
 40
0.7849827727020398
 40
1.0
 40
1.0
 40
1.0
 40
1.0
 10
-11.76170750675098
 20
-9.128161166162768
 30
0.0
 10
-11.75974292871886
 20
-9.12961037134626
 30
0.0
 10
-11.74736533024205
 20
-9.1387409223239
 30
0.0
 10
-11.71953783629727
 20
-9.144746516651956
 30
0.0
 10
-11.68163924816598
 20
-9.144542258077223
 30
0.0
 10
-11.64471884790688
 20
-9.135107148220902
 30
0.0
 10
-11.62089533008165
 20
-9.122601266657801
 30
0.0
 10
-11.60953620847253
 20
-9.116638426469944
 30
0.0
  0
SPLINE
  5
65
330
1F
100
AcDbEntity
  8
0
  6
Continuous
 62
     7
370
    25
100
AcDbSpline
210
0.0
220
0.0
230
1.0
 70
     8
 71
     3
 72
    32
 73
    28
 74
     0
 42
0.00000001
 43
0.00000001
 40
0.0
 40
0.0
 40
0.0
 40
0.0
 40
0.0673333207650777
 40
0.1251677757282158
 40
0.1735042994326951
 40
0.2123445145775429
 40
0.2436424219447515
 40
0.2747471424970995
 40
0.3063621613466815
 40
0.3655715952124891
 40
0.4254135732751193
 40
0.4855138179162504
 40
0.519760657118302
 40
0.5540413556970721
 40
0.5883346392858233
 40
0.6139054565206264
 40
0.6386429798972113
 40
0.6625137418210365
 40
0.6855331939352377
 40
0.7076989032712354
 40
0.7313000301559006
 40
0.7611246780548564
 40
0.7973375409775958
 40
0.8399459271917172
 40
0.8889500221859193
 40
0.9443463588388809
 40
1.0
 40
1.0
 40
1.0
 40
1.0
 10
-9.145858343658261
 20
-6.755731811964571
 30
0.0
 10
-9.223698735574917
 20
-6.800549875425907
 30
0.0
 10
-9.3683983970102
 20
-6.883863415470573
 30
0.0
 10
-9.570544009146282
 20
-6.998433219970011
 30
0.0
 10
-9.740773366640836
 20
-7.093424363710265
 30
0.0
 10
-9.881059532304256
 20
-7.170299216421583
 30
0.0
 10
-10.00197988964739
 20
-7.235345299219187
 30
0.0
 10
-10.11531408644471
 20
-7.29508677791386
 30
0.0
 10
-10.26395639239667
 20
-7.371484361538208
 30
0.0
 10
-10.45127135680877
 20
-7.463508158355939
 30
0.0
 10
-10.68236340071719
 20
-7.566975093108359
 30
0.0
 10
-10.89247122592332
 20
-7.647342152136854
 30
0.0
 10
-11.07881877867098
 20
-7.703479091682723
 30
0.0
 10
-11.23552515370365
 20
-7.738890246999675
 30
0.0
 10
-11.38626616812094
 20
-7.758569553150814
 30
0.0
 10
-11.52476436847924
 20
-7.762764818624144
 30
0.0
 10
-11.64572899771344
 20
-7.755572358939388
 30
0.0
 10
-11.75945983220418
 20
-7.739003954777349
 30
0.0
 10
-11.864816463095
 20
-7.715518515629747
 30
0.0
 10
-11.9653072251705
 20
-7.686495900560853
 30
0.0
 10
-12.07112989899408
 20
-7.64984786501623
 30
0.0
 10
-12.1912363457477
 20
-7.6015612200802
 30
0.0
 10
-12.33061361591938
 20
-7.538238229335989
 30
0.0
 10
-12.48869541646322
 20
-7.459623024919639
 30
0.0
 10
-12.66581619232081
 20
-7.366174159464354
 30
0.0
 10
-12.85578532095036
 20
-7.262649476007441
 30
0.0
 10
-12.98716059829352
 20
-7.190549062998532
 30
0.0
 10
-13.05300043623513
 20
-7.154415327610632
 30
0.0
  0
SPLINE
  5
72
330
1F
100
AcDbEntity
  8
0
  6
Continuous
 62
     7
370
    25
100
AcDbSpline
210
0.0
220
0.0
230
1.0
 70
     8
 71
     3
 72
    21
 73
    17
 74
     0
 42
0.00000001
 43
0.00000001
 40
0.0
 40
0.0
 40
0.0
 40
0.0
 40
0.0206931199723677
 40
0.0584572469736016
 40
0.1285224761227702
 40
0.1911480667469131
 40
0.24869213681375
 40
0.3584415443139036
 40
0.4613344222236931
 40
0.5183636940409473
 40
0.5744171734393442
 40
0.629555367706182
 40
0.6948266361037754
 40
0.7783223323186416
 40
0.8800460782957316
 40
1.0
 40
1.0
 40
1.0
 40
1.0
 10
0.5260974373697866
 20
-0.852819680540556
 30
0.0
 10
0.525270273187606
 20
-0.8636460911661686
 30
0.0
 10
0.5229335670287454
 20
-0.8942302737652265
 30
0.0
 10
0.497483668190485
 20
-0.9613342114059702
 30
0.0
 10
0.4432915845825854
 20
-1.048645461254037
 30
0.0
 10
0.3584234836165083
 20
-1.142626092725774
 30
0.0
 10
0.2394352455178665
 20
-1.252280989041432
 30
0.0
 10
0.0824651949537162
 20
-1.37436073317473
 30
0.0
 10
-0.0860004488650824
 20
-1.49125188728356
 30
0.0
 10
-0.2251833056836295
 20
-1.582752663709384
 30
0.0
 10
-0.3354374463185087
 20
-1.653099397461815
 30
0.0
 10
-0.4525881368930459
 20
-1.726128255656488
 30
0.0
 10
-0.5894505696099759
 20
-1.809732103697482
 30
0.0
 10
-0.7593251112497482
 20
-1.911486103191567
 30
0.0
 10
-0.9681122429724659
 20
-2.034437939150144
 30
0.0
 10
-1.121095326210972
 20
-2.123000764301754
 30
0.0
 10
-1.203877326675029
 20
-2.170923761260632
 30
0.0
  0
SPLINE
  5
74
330
1F
100
AcDbEntity
  8
0
  6
Continuous
 62
     7
370
    25
100
AcDbSpline
210
0.0
220
0.0
230
1.0
 70
     8
 71
     3
 72
    13
 73
     9
 74
     0
 42
0.00000001
 43
0.00000001
 40
0.0
 40
0.0
 40
0.0
 40
0.0
 40
0.2525824363060938
 40
0.4898295505443162
 40
0.6870602346022812
 40
0.8442875818782354
 40
0.9325486023736222
 40
1.0
 40
1.0
 40
1.0
 40
1.0
 10
-0.5132380596938309
 20
-0.6769878635989114
 30
0.0
 10
-0.4426054484694821
 20
-0.7198628779090697
 30
0.0
 10
-0.305628623335584
 20
-0.8030097874735778
 30
0.0
 10
-0.1146372508079259
 20
-0.9201803475588827
 30
0.0
 10
0.0464344564107515
 20
-1.022881628370681
 30
0.0
 10
0.1621331020435777
 20
-1.102018105581493
 30
0.0
 10
0.2408266531258965
 20
-1.159431362558414
 30
0.0
 10
0.276882379964737
 20
-1.188805339276657
 30
0.0
 10
0.2925009747887736
 20
-1.201529538203045
 30
0.0
  0
SPLINE
  5
75
330
1F
100
AcDbEntity
  8
0
  6
Continuous
 62
     7
370
    25
100
AcDbSpline
210
0.0
220
0.0
230
1.0
 70
     8
 71
     3
 72
    12
 73
     8
 74
     0
 42
0.00000001
 43
0.00000001
 40
0.0
 40
0.0
 40
0.0
 40
0.0
 40
0.1836963152301762
 40
0.3898959737091279
 40
0.6006938058429688
 40
0.8181795453637898
 40
1.0
 40
1.0
 40
1.0
 40
1.0
 10
1.755328324611582
 20
-0.8577835704310871
 30
0.0
 10
1.75499977485897
 20
-0.8467932088766723
 30
0.0
 10
1.754302427034949
 20
-0.8234661338925888
 30
0.0
 10
1.746567784338041
 20
-0.7909522418089043
 30
0.0
 10
1.732796462378986
 20
-0.7605851269175554
 30
0.0
 10
1.713993913500431
 20
-0.7355109875061114
 30
0.0
 10
1.697120751014044
 20
-0.7250343459753831
 30
0.0
 10
1.689437709480211
 20
-0.720263902255623
 30
0.0
  0
SPLINE
  5
78
330
1F
100
AcDbEntity
  8
0
  6
Continuous
 62
     7
370
    25
100
AcDbSpline
210
0.0
220
0.0
230
1.0
 70
     8
 71
     3
 72
    13
 73
     9
 74
     0
 42
0.00000001
 43
0.00000001
 40
0.0
 40
0.0
 40
0.0
 40
0.0
 40
0.2844727249007814
 40
0.3992791042203231
 40
0.58755781796883
 40
0.7792578802232899
 40
0.9816529277743915
 40
1.0
 40
1.0
 40
1.0
 40
1.0
 10
1.700629670779945
 20
-1.369572926511574
 30
0.0
 10
1.7098851954867
 20
-1.352142400866536
 30
0.0
 10
1.722876028317127
 20
-1.327677332491113
 30
0.0
 10
1.736938489240047
 20
-1.290418244249318
 30
0.0
 10
1.746513598827199
 20
-1.258906799449743
 30
0.0
 10
1.753198747976308
 20
-1.222545335109141
 30
0.0
 10
1.756218075861866
 20
-1.197036594707029
 30
0.0
 10
1.755396601769218
 20
-1.184479190710175
 30
0.0
 10
1.755328324611581
 20
-1.183435476903632
 30
0.0
  0
SPLINE
  5
79
330
1F
100
AcDbEntity
  8
0
  6
Continuous
 62
     7
370
    25
100
AcDbSpline
210
0.0
220
0.0
230
1.0
 70
     8
 71
     3
 72
    13
 73
     9
 74
     0
 42
0.00000001
 43
0.00000001
 40
0.0
 40
0.0
 40
0.0
 40
0.0
 40
0.0103310990103225
 40
0.2256029256164528
 40
0.4407771218463433
 40
0.6001658802653475
 40
0.768476448284341
 40
1.0
 40
1.0
 40
1.0
 40
1.0
 10
1.566765325109246
 20
-1.510121460399372
 30
0.0
 10
1.56729420700099
 20
-1.509868907650846
 30
0.0
 10
1.578843539938725
 20
-1.504353846873361
 30
0.0
 10
1.600843663906284
 20
-1.48768542535391
 30
0.0
 10
1.629282027088279
 20
-1.463140923847691
 30
0.0
 10
1.653825125169059
 20
-1.436549060075197
 30
0.0
 10
1.677631992942027
 20
-1.40680606823213
 30
0.0
 10
1.692196251349061
 20
-1.383226596376508
 30
0.0
 10
1.700629670779945
 20
-1.369572926511575
 30
0.0
  0
SPLINE
  5
7A
330
1F
100
AcDbEntity
  8
0
  6
Continuous
 62
     7
370
    25
100
AcDbSpline
210
0.0
220
0.0
230
1.0
 70
     8
 71
     3
 72
    25
 73
    21
 74
     0
 42
0.00000001
 43
0.00000001
 40
0.0
 40
0.0
 40
0.0
 40
0.0
 40
0.0233356158261106
 40
0.0466286322811931
 40
0.0699103201331376
 40
0.0932119957586886
 40
0.1165648951235541
 40
0.1783017514902663
 40
0.2400920624370055
 40
0.3044030735770912
 40
0.3687677569032415
 40
0.5000056435225262
 40
0.6312435301418036
 40
0.6955545456140856
 40
0.759919233249091
 40
0.8216560848755865
 40
0.8834463944971556
 40
0.9223097888091634
 40
0.9611126018957354
 40
0.9999999999999999
 40
0.9999999999999999
 40
0.9999999999999999
 40
0.9999999999999999
 10
-11.60340652818651
 20
-8.37577785801008
 30
0.0
 10
-11.60553110570242
 20
-8.377030109206094
 30
0.0
 10
-11.60977638229939
 20
-8.3795323256026
 30
0.0
 10
-11.61613284983603
 20
-8.383619597651961
 30
0.0
 10
-11.62246913250037
 20
-8.387944716332614
 30
0.0
 10
-11.62878537179737
 20
-8.392532221915072
 30
0.0
 10
-11.63852117077912
 20
-8.400020831340573
 30
0.0
 10
-11.65156040809582
 20
-8.411091974603007
 30
0.0
 10
-11.66776925325996
 20
-8.426834612711616
 30
0.0
 10
-11.68357971056961
 20
-8.444271669502124
 30
0.0
 10
-11.70404023611272
 20
-8.469885286752264
 30
0.0
 10
-11.72731789160334
 20
-8.505142556626518
 30
0.0
 10
-11.7462099257518
 20
-8.542924494390778
 30
0.0
 10
-11.75816295169734
 20
-8.57345122079237
 30
0.0
 10
-11.76535803962019
 20
-8.595856718242596
 30
0.0
 10
-11.7708889408854
 20
-8.61777237052708
 30
0.0
 10
-11.77428568889072
 20
-8.636379327988061
 30
0.0
 10
-11.7762076486299
 20
-8.651986922548069
 30
0.0
 10
-11.77721376288692
 20
-8.664777560082797
 30
0.0
 10
-11.77733743509161
 20
-8.673017692733971
 30
0.0
 10
-11.77739933851785
 20
-8.67714224477118
 30
0.0
  0
SPLINE
  5
81
330
1F
100
AcDbEntity
  8
0
  6
Continuous
 62
     7
370
    25
100
AcDbSpline
210
0.0
220
0.0
230
1.0
 70
     8
 71
     3
 72
    25
 73
    21
 74
     0
 42
0.00000001
 43
0.00000001
 40
0.0
 40
0.0
 40
0.0
 40
0.0
 40
0.0233356158260253
 40
0.0466286322810768
 40
0.069910320133021
 40
0.0932119957586082
 40
0.1165648951235572
 40
0.1783017514995094
 40
0.2400920624370809
 40
0.3044030735896366
 40
0.3687677569032436
 40
0.5000056435224957
 40
0.6312435301417476
 40
0.6955545456134917
 40
0.7599192332491507
 40
0.821656084883154
 40
0.883446394497158
 40
0.9223097888099465
 40
0.9611126018965203
 40
1.0
 40
1.0
 40
1.0
 40
1.0
 10
1.572895005395262
 20
-1.49675374914323
 30
0.0
 10
1.575019582911167
 20
-1.495501497947221
 30
0.0
 10
1.579264859508122
 20
-1.492999281550722
 30
0.0
 10
1.585621327044748
 20
-1.488912009501367
 30
0.0
 10
1.591957609709095
 20
-1.484586890820711
 30
0.0
 10
1.598273849006095
 20
-1.479999385238257
 30
0.0
 10
1.608009647988682
 20
-1.472510775812075
 30
0.0
 10
1.621048885305485
 20
-1.46143963254998
 30
0.0
 10
1.637257730470521
 20
-1.445696994439762
 30
0.0
 10
1.653068187779242
 20
-1.428259937649813
 30
0.0
 10
1.673528713322397
 20
-1.402646320399819
 30
0.0
 10
1.69680636881213
 20
-1.367389050526786
 30
0.0
 10
1.715698402960157
 20
-1.329607112762604
 30
0.0
 10
1.727651428906542
 20
-1.299080386361068
 30
0.0
 10
1.73484651682905
 20
-1.276674888909944
 30
0.0
 10
1.740377418094028
 20
-1.254759236625472
 30
0.0
 10
1.743774166099532
 20
-1.236152279164356
 30
0.0
 10
1.745696125838506
 20
-1.220544684605152
 30
0.0
 10
1.74670224009554
 20
-1.207754047070424
 30
0.0
 10
1.746825912300228
 20
-1.199513914419331
 30
0.0
 10
1.746887815726468
 20
-1.195389362382208
 30
0.0
  0
SPLINE
  5
83
330
1F
100
AcDbEntity
  8
0
  6
Continuous
 62
     7
370
    25
100
AcDbSpline
210
0.0
220
0.0
230
1.0
 70
     8
 71
     3
 72
    25
 73
    21
 74
     0
 42
0.00000001
 43
0.00000001
 40
0.0
 40
0.0
 40
0.0
 40
0.0
 40
0.0233356158300204
 40
0.0466286322870652
 40
0.0699103201390058
 40
0.093211995762606
 40
0.1165648951236059
 40
0.1783017514901528
 40
0.2400920624369188
 40
0.3044030735726972
 40
0.3687677569032397
 40
0.5000056435225053
 40
0.6312435301417778
 40
0.6955545456030574
 40
0.7599192332490489
 40
0.8216560848697668
 40
0.883446394497154
 40
0.9223097888084694
 40
0.9611126018950381
 40
1.0
 40
1.0
 40
1.0
 40
1.0
 10
-11.77739933851785
 20
-9.002794151243723
 30
0.0
 10
-11.77737703203532
 20
-9.005234657683943
 30
0.0
 10
-11.77733245979094
 20
-9.010111215398297
 30
0.0
 10
-11.7769706873619
 20
-9.01724258271769
 30
0.0
 10
-11.77639285406973
 20
-9.02422591200962
 30
0.0
 10
-11.77557777930892
 20
-9.031049139375456
 30
0.0
 10
-11.77395991299349
 20
-9.041357706350771
 30
0.0
 10
-11.77089110016569
 20
-9.054643348394341
 30
0.0
 10
-11.76536141964458
 20
-9.070168507911042
 30
0.0
 10
-11.75816524743234
 20
-9.084271578662603
 30
0.0
 10
-11.7462130059843
 20
-9.100998756249886
 30
0.0
 10
-11.72731790483778
 20
-9.116971023931525
 30
0.0
 10
-11.70404404129236
 20
-9.125351132230405
 30
0.0
 10
-11.68358409448837
 20
-9.127342769531328
 30
0.0
 10
-11.6677783748943
 20
-9.12652694379428
 30
0.0
 10
-11.65156489257578
 20
-9.123553980320136
 30
0.0
 10
-11.63714976559879
 20
-9.119154743871874
 30
0.0
 10
-11.62459474808871
 20
-9.11412629470653
 30
0.0
 10
-11.61402130645492
 20
-9.109184200385595
 30
0.0
 10
-11.60694735485821
 20
-9.105243307150205
 30
0.0
 10
-11.60340652818652
 20
-9.103270715213801
 30
0.0
  0
SPLINE
  5
86
330
1F
100
AcDbEntity
  8
0
  6
Continuous
 62
     7
370
    25
100
AcDbSpline
210
0.0
220
0.0
230
1.0
 70
     8
 71
     3
 72
    25
 73
    21
 74
     0
 42
0.00000001
 43
0.00000001
 40
0.0
 40
0.0
 40
0.0
 40
0.0
 40
0.0233356158259048
 40
0.0466286322808934
 40
0.0699103201328343
 40
0.0932119957584756
 40
0.1165648951235365
 40
0.1783017514996455
 40
0.2400920624370615
 40
0.3044030735899935
 40
0.36876775690323
 40
0.5000056435225
 40
0.6312435301417698
 40
0.6955545456138534
 40
0.7599192332491682
 40
0.821656084882741
 40
0.8834463944971771
 40
0.9223097888101561
 40
0.9611126018967235
 40
1.0
 40
1.0
 40
1.0
 40
1.0
 10
1.7468878157266
 20
-0.8697374559095876
 30
0.0
 10
1.746865509244068
 20
-0.8672969494698044
 30
0.0
 10
1.746820936999684
 20
-0.8624203917561025
 30
0.0
 10
1.746459164570634
 20
-0.8552890244373612
 30
0.0
 10
1.745881331278441
 20
-0.8483056951454503
 30
0.0
 10
1.745066256517628
 20
-0.8414824677789688
 30
0.0
 10
1.743448390202253
 20
-0.8311739008019513
 30
0.0
 10
1.740379577375119
 20
-0.817888258757314
 30
0.0
 10
1.734849896852358
 20
-0.8023630992402394
 30
0.0
 10
1.727653724639838
 20
-0.7882600284901391
 30
0.0
 10
1.715701483192354
 20
-0.7715328509022109
 30
0.0
 10
1.696806382046466
 20
-0.7555605832217908
 30
0.0
 10
1.673532518500212
 20
-0.74718047492299
 30
0.0
 10
1.653072571696469
 20
-0.745188837621325
 30
0.0
 10
1.637266852101045
 20
-0.7460046633592746
 30
0.0
 10
1.621053369783283
 20
-0.7489776268339643
 30
0.0
 10
1.606638242806244
 20
-0.7533768632818252
 30
0.0
 10
1.594083225297142
 20
-0.7584053124470257
 30
0.0
 10
1.583509783663361
 20
-0.7633474067679005
 30
0.0
 10
1.576435832066804
 20
-0.7672883000031973
 30
0.0
 10
1.572895005395264
 20
-0.7692608919395102
 30
0.0
  0
SPLINE
  5
89
330
1F
100
AcDbEntity
  8
0
  6
Continuous
 62
     7
370
    25
100
AcDbSpline
210
0.0
220
0.0
230
1.0
 70
     8
 71
     3
 72
     8
 73
     4
 74
     0
 42
0.00000001
 43
0.00000001
 40
-0.9411764705882354
 40
-0.9411764705882354
 40
-0.9411764705882354
 40
-0.9411764705882354
 40
-0.8823529411764707
 40
-0.8823529411764707
 40
-0.8823529411764707
 40
-0.8823529411764707
 10
-11.51436427512107
 20
-8.855025859080593
 30
0.0
 10
-11.51436427512107
 20
-8.866246944371039
 30
0.0
 10
-11.50784789329534
 20
-8.869151719311049
 30
0.0
 10
-11.49987015745514
 20
-8.864546270440242
 30
0.0
  0
SPLINE
  5
8A
330
1F
100
AcDbEntity
  8
0
  6
Continuous
 62
     7
370
    25
100
AcDbSpline
210
0.0
220
0.0
230
1.0
 70
     8
 71
     3
 72
     8
 73
     4
 74
     0
 42
0.00000001
 43
0.00000001
 40
-0.8823529411764707
 40
-0.8823529411764707
 40
-0.8823529411764707
 40
-0.8823529411764707
 40
-0.823529411764706
 40
-0.823529411764706
 40
-0.823529411764706
 40
-0.823529411764706
 10
-11.49987015745514
 20
-8.864546270440242
 30
0.0
 10
-11.49491412459322
 20
-8.861685213568363
 30
0.0
 10
-11.49209669690731
 20
-8.858407520210422
 30
0.0
 10
-11.48907813662585
 20
-8.852876193084604
 30
0.0
  0
SPLINE
  5
8D
330
1F
100
AcDbEntity
  8
0
  6
Continuous
 62
     7
370
    25
100
AcDbSpline
210
0.0
220
0.0
230
1.0
 70
     8
 71
     3
 72
     8
 73
     4
 74
     0
 42
0.00000001
 43
0.00000001
 40
-0.7058823529411765
 40
-0.7058823529411765
 40
-0.7058823529411765
 40
-0.7058823529411765
 40
-0.6470588235294118
 40
-0.6470588235294118
 40
-0.6470588235294118
 40
-0.6470588235294118
 10
-11.48891628774034
 20
-8.854911209428106
 30
0.0
 10
-11.48891628774034
 20
-8.861938904015725
 30
0.0
 10
-11.49334749023576
 20
-8.867955486738223
 30
0.0
 10
-11.498460657938
 20
-8.87090725562256
 30
0.0
  0
SPLINE
  5
8E
330
1F
100
AcDbEntity
  8
0
  6
Continuous
 62
     7
370
    25
100
AcDbSpline
210
0.0
220
0.0
230
1.0
 70
     8
 71
     3
 72
     8
 73
     4
 74
     0
 42
0.00000001
 43
0.00000001
 40
-0.6470588235294118
 40
-0.6470588235294118
 40
-0.6470588235294118
 40
-0.6470588235294118
 40
-0.5882352941176471
 40
-0.5882352941176471
 40
-0.5882352941176471
 40
-0.5882352941176471
 10
-11.498460657938
 20
-8.87090725562256
 30
0.0
 10
-11.50177934576435
 20
-8.872823093324959
 30
0.0
 10
-11.50424164871131
 20
-8.872669534060314
 30
0.0
 10
-11.50665995390297
 20
-8.871434515982113
 30
0.0
  0
SPLINE
  5
90
330
1F
100
AcDbEntity
  8
0
  6
Continuous
 62
     7
370
    25
100
AcDbSpline
210
0.0
220
0.0
230
1.0
 70
     8
 71
     3
 72
     8
 73
     4
 74
     0
 42
0.00000001
 43
0.00000001
 40
-0.5294117647058824
 40
-0.5294117647058824
 40
-0.5294117647058824
 40
-0.5294117647058824
 40
-0.4705882352941177
 40
-0.4705882352941177
 40
-0.4705882352941177
 40
-0.4705882352941177
 10
-11.51316847898668
 20
-8.87963741862367
 30
0.0
 10
-11.50971936924289
 20
-8.882081013827076
 30
0.0
 10
-11.50607541229714
 20
-8.88336876843093
 30
0.0
 10
-11.49801282364325
 20
-8.878714335073443
 30
0.0
  0
SPLINE
  5
91
330
1F
100
AcDbEntity
  8
0
  6
Continuous
 62
     7
370
    25
100
AcDbSpline
210
0.0
220
0.0
230
1.0
 70
     8
 71
     3
 72
     8
 73
     4
 74
     0
 42
0.00000001
 43
0.00000001
 40
-0.4705882352941177
 40
-0.4705882352941177
 40
-0.4705882352941177
 40
-0.4705882352941177
 40
-0.411764705882353
 40
-0.411764705882353
 40
-0.411764705882353
 40
-0.411764705882353
 10
-11.49801282364325
 20
-8.878714335073443
 30
0.0
 10
-11.49135502046123
 20
-8.874870867106978
 30
0.0
 10
-11.48167237160419
 20
-8.863919241570018
 30
0.0
 10
-11.48167237160419
 20
-8.851738267191818
 30
0.0
  0
SPLINE
  5
95
330
1F
100
AcDbEntity
  8
0
  6
Continuous
 62
     7
370
    25
100
AcDbSpline
210
0.0
220
0.0
230
1.0
 70
     8
 71
     3
 72
     8
 73
     4
 74
     0
 42
0.00000001
 43
0.00000001
 40
-0.2352941176470588
 40
-0.2352941176470588
 40
-0.2352941176470588
 40
-0.2352941176470588
 40
-0.1764705882352941
 40
-0.1764705882352941
 40
-0.1764705882352941
 40
-0.1764705882352941
 10
-11.48937355012555
 20
-8.840092765321181
 30
0.0
 10
-11.48937355012555
 20
-8.846274886534742
 30
0.0
 10
-11.49225226039918
 20
-8.85208294339161
 30
0.0
 10
-11.49822495567756
 20
-8.855530906983848
 30
0.0
  0
SPLINE
  5
96
330
1F
100
AcDbEntity
  8
0
  6
Continuous
 62
     7
370
    25
100
AcDbSpline
210
0.0
220
0.0
230
1.0
 70
     8
 71
     3
 72
     8
 73
     4
 74
     0
 42
0.00000001
 43
0.00000001
 40
-0.1764705882352941
 40
-0.1764705882352941
 40
-0.1764705882352941
 40
-0.1764705882352941
 40
-0.1176470588235294
 40
-0.1176470588235294
 40
-0.1176470588235294
 40
-0.1176470588235294
 10
-11.49822495567756
 20
-8.855530906983848
 30
0.0
 10
-11.50297042785354
 20
-8.858270409759088
 30
0.0
 10
-11.50665995390297
 20
-8.857589612882794
 30
0.0
 10
-11.50665995390297
 20
-8.85092301078753
 30
0.0
  0
SPLINE
  5
9C
330
1F
100
AcDbEntity
  8
0
  6
Continuous
 62
     7
370
    25
100
AcDbSpline
210
0.0
220
0.0
230
1.0
 70
     8
 71
     3
 72
     8
 73
     4
 74
     0
 42
0.00000001
 43
0.00000001
 40
-0.7272727272727274
 40
-0.7272727272727274
 40
-0.7272727272727274
 40
-0.7272727272727274
 40
-0.6363636363636365
 40
-0.6363636363636365
 40
-0.6363636363636365
 40
-0.6363636363636365
 10
-11.56628948308622
 20
-8.875431785271038
 30
0.0
 10
-11.56628948308622
 20
-8.871811787671675
 30
0.0
 10
-11.56380203856483
 20
-8.867978815598315
 30
0.0
 10
-11.56098775357566
 20
-8.866354163455759
 30
0.0
  0
SPLINE
  5
9D
330
1F
100
AcDbEntity
  8
0
  6
Continuous
 62
     7
370
    25
100
AcDbSpline
210
0.0
220
0.0
230
1.0
 70
     8
 71
     3
 72
     8
 73
     4
 74
     0
 42
0.00000001
 43
0.00000001
 40
-0.6363636363636365
 40
-0.6363636363636365
 40
-0.6363636363636365
 40
-0.6363636363636365
 40
-0.5454545454545455
 40
-0.5454545454545455
 40
-0.5454545454545455
 40
-0.5454545454545455
 10
-11.56098775357566
 20
-8.866354163455759
 30
0.0
 10
-11.56024764847804
 20
-8.865926909877249
 30
0.0
 10
-11.55882714952205
 20
-8.865611314053169
 30
0.0
 10
-11.55808233037923
 20
-8.865840015369223
 30
0.0
  0
SPLINE
  5
9F
330
1F
100
AcDbEntity
  8
0
  6
Continuous
 62
     7
370
    25
100
AcDbSpline
210
0.0
220
0.0
230
1.0
 70
     8
 71
     3
 72
     8
 73
     4
 74
     0
 42
0.00000001
 43
0.00000001
 40
-0.4545454545454546
 40
-0.4545454545454546
 40
-0.4545454545454546
 40
-0.4545454545454546
 40
-0.3636363636363636
 40
-0.3636363636363636
 40
-0.3636363636363636
 40
-0.3636363636363636
 10
-11.55536861168787
 20
-8.855788652611574
 30
0.0
 10
-11.55640098758837
 20
-8.85564792926734
 30
0.0
 10
-11.55787648373849
 20
-8.85600434697149
 30
0.0
 10
-11.55959082484573
 20
-8.856994015027022
 30
0.0
  0
SPLINE
  5
A0
330
1F
100
AcDbEntity
  8
0
  6
Continuous
 62
     7
370
    25
100
AcDbSpline
210
0.0
220
0.0
230
1.0
 70
     8
 71
     3
 72
     8
 73
     4
 74
     0
 42
0.00000001
 43
0.00000001
 40
-0.3636363636363636
 40
-0.3636363636363636
 40
-0.3636363636363636
 40
-0.3636363636363636
 40
-0.2727272727272727
 40
-0.2727272727272727
 40
-0.2727272727272727
 40
-0.2727272727272727
 10
-11.55959082484573
 20
-8.856994015027022
 30
0.0
 10
-11.56267538176009
 20
-8.858774691830911
 30
0.0
 10
-11.56533567460576
 20
-8.862467928479779
 30
0.0
 10
-11.56659903872151
 20
-8.866479747123492
 30
0.0
  0
SPLINE
  5
A5
330
1F
100
AcDbEntity
  8
0
  6
Continuous
 62
     7
370
    25
100
AcDbSpline
210
0.0
220
0.0
230
1.0
 70
     8
 71
     3
 72
     8
 73
     4
 74
     0
 42
0.00000001
 43
0.00000001
 40
-0.8888888888888891
 40
-0.8888888888888891
 40
-0.8888888888888891
 40
-0.8888888888888891
 40
-0.7777777777777779
 40
-0.7777777777777779
 40
-0.7777777777777779
 40
-0.7777777777777779
 10
-11.44816336691794
 20
-8.820940584754178
 30
0.0
 10
-11.45083465920246
 20
-8.826416601143556
 30
0.0
 10
-11.45437647850196
 20
-8.83068768451732
 30
0.0
 10
-11.45852326693653
 20
-8.833081574525213
 30
0.0
  0
SPLINE
  5
A6
330
1F
100
AcDbEntity
  8
0
  6
Continuous
 62
     7
370
    25
100
AcDbSpline
210
0.0
220
0.0
230
1.0
 70
     8
 71
     3
 72
     8
 73
     4
 74
     0
 42
0.00000001
 43
0.00000001
 40
-0.7777777777777779
 40
-0.7777777777777779
 40
-0.7777777777777779
 40
-0.7777777777777779
 40
-0.6666666666666667
 40
-0.6666666666666667
 40
-0.6666666666666667
 40
-0.6666666666666667
 10
-11.45852326693653
 20
-8.833081574525213
 30
0.0
 10
-11.46391770600279
 20
-8.836195717911766
 30
0.0
 10
-11.46900887482735
 20
-8.834785346389715
 30
0.0
 10
-11.46944413833488
 20
-8.828937966066887
 30
0.0
  0
SPLINE
  5
A9
330
1F
100
AcDbEntity
  8
0
  6
Continuous
 62
     7
370
    25
100
AcDbSpline
210
0.0
220
0.0
230
1.0
 70
     8
 71
     3
 72
     8
 73
     4
 74
     0
 42
0.00000001
 43
0.00000001
 40
-0.4444444444444444
 40
-0.4444444444444444
 40
-0.4444444444444444
 40
-0.4444444444444444
 40
-0.3333333333333333
 40
-0.3333333333333333
 40
-0.3333333333333333
 40
-0.3333333333333333
 10
-11.43972522599579
 20
-8.810201143052181
 30
0.0
 10
-11.43972522599579
 20
-8.79464513331821
 30
0.0
 10
-11.45083465920246
 20
-8.794210416987623
 30
0.0
 10
-11.45829385006973
 20
-8.798516516217397
 30
0.0
  0
SPLINE
  5
AA
330
1F
100
AcDbEntity
  8
0
  6
Continuous
 62
     7
370
    25
100
AcDbSpline
210
0.0
220
0.0
230
1.0
 70
     8
 71
     3
 72
     8
 73
     4
 74
     0
 42
0.00000001
 43
0.00000001
 40
-0.3333333333333333
 40
-0.3333333333333333
 40
-0.3333333333333333
 40
-0.3333333333333333
 40
-0.2222222222222222
 40
-0.2222222222222222
 40
-0.2222222222222222
 40
-0.2222222222222222
 10
-11.45829385006973
 20
-8.798516516217397
 30
0.0
 10
-11.47077821312873
 20
-8.80572358560457
 30
0.0
 10
-11.47802998600689
 20
-8.82037255458097
 30
0.0
 10
-11.47802998600689
 20
-8.830931334546191
 30
0.0
  0
SPLINE
  5
AB
330
1F
100
AcDbEntity
  8
0
  6
Continuous
 62
     7
370
    25
100
AcDbSpline
210
0.0
220
0.0
230
1.0
 70
     8
 71
     3
 72
     8
 73
     4
 74
     0
 42
0.00000001
 43
0.00000001
 40
-0.2222222222222222
 40
-0.2222222222222222
 40
-0.2222222222222222
 40
-0.2222222222222222
 40
-0.1111111111111111
 40
-0.1111111111111111
 40
-0.1111111111111111
 40
-0.1111111111111111
 10
-11.47802998600689
 20
-8.830931334546191
 30
0.0
 10
-11.47802998600689
 20
-8.841461081949268
 30
0.0
 10
-11.47077821312873
 20
-8.847751848459923
 30
0.0
 10
-11.45829385006973
 20
-8.840544779072749
 30
0.0
  0
SPLINE
  5
AC
330
1F
100
AcDbEntity
  8
0
  6
Continuous
 62
     7
370
    25
100
AcDbSpline
210
0.0
220
0.0
230
1.0
 70
     8
 71
     3
 72
     8
 73
     4
 74
     0
 42
0.00000001
 43
0.00000001
 40
-0.1111111111111111
 40
-0.1111111111111111
 40
-0.1111111111111111
 40
-0.1111111111111111
 40
0.0
 40
0.0
 40
0.0
 40
0.0
 10
-11.45829385006973
 20
-8.840544779072749
 30
0.0
 10
-11.45186546375459
 20
-8.83676116923896
 30
0.0
 10
-11.4459336235346
 20
-8.829713164100294
 30
0.0
 10
-11.44165327048585
 20
-8.821219726760434
 30
0.0
  0
SPLINE
  5
AE
330
1F
100
AcDbEntity
  8
0
  6
Continuous
 62
     7
370
    25
100
AcDbSpline
210
0.0
220
0.0
230
1.0
 70
     8
 71
     3
 72
     8
 73
     4
 74
     0
 42
0.00000001
 43
0.00000001
 40
-0.875
 40
-0.875
 40
-0.875
 40
-0.875
 40
-0.75
 40
-0.75
 40
-0.75
 40
-0.75
 10
-11.41717166237279
 20
-8.774777182565881
 30
0.0
 10
-11.4296654535221
 20
-8.781989694673738
 30
0.0
 10
-11.43691565505189
 20
-8.796637756530036
 30
0.0
 10
-11.43691565505189
 20
-8.807196536495256
 30
0.0
  0
SPLINE
  5
AF
330
1F
100
AcDbEntity
  8
0
  6
Continuous
 62
     7
370
    25
100
AcDbSpline
210
0.0
220
0.0
230
1.0
 70
     8
 71
     3
 72
     8
 73
     4
 74
     0
 42
0.00000001
 43
0.00000001
 40
-0.75
 40
-0.75
 40
-0.75
 40
-0.75
 40
-0.625
 40
-0.625
 40
-0.625
 40
-0.625
 10
-11.43691565505189
 20
-8.807196536495256
 30
0.0
 10
-11.43691565505189
 20
-8.817726283898331
 30
0.0
 10
-11.4296654535221
 20
-8.82401795752909
 30
0.0
 10
-11.41717166237279
 20
-8.816805445421233
 30
0.0
  0
SPLINE
  5
B0
330
1F
100
AcDbEntity
  8
0
  6
Continuous
 62
     7
370
    25
100
AcDbSpline
210
0.0
220
0.0
230
1.0
 70
     8
 71
     3
 72
     8
 73
     4
 74
     0
 42
0.00000001
 43
0.00000001
 40
-0.625
 40
-0.625
 40
-0.625
 40
-0.625
 40
-0.5
 40
-0.5
 40
-0.5
 40
-0.5
 10
-11.41717166237279
 20
-8.816805445421233
 30
0.0
 10
-11.41036143839573
 20
-8.812873986802725
 30
0.0
 10
-11.4043164610908
 20
-8.805337882328065
 30
0.0
 10
-11.40111876709142
 20
-8.797892237440808
 30
0.0
  0
SPLINE
  5
B2
330
1F
100
AcDbEntity
  8
0
  6
Continuous
 62
     7
370
    25
100
AcDbSpline
210
0.0
220
0.0
230
1.0
 70
     8
 71
     3
 72
     8
 73
     4
 74
     0
 42
0.00000001
 43
0.00000001
 40
-0.375
 40
-0.375
 40
-0.375
 40
-0.375
 40
-0.25
 40
-0.25
 40
-0.25
 40
-0.25
 10
-11.40786299443557
 20
-8.797336356856924
 30
0.0
 10
-11.40992460353983
 20
-8.802144681524148
 30
0.0
 10
-11.41296987674409
 20
-8.806314197522672
 30
0.0
 10
-11.41717166237279
 20
-8.808739836734942
 30
0.0
  0
SPLINE
  5
B3
330
1F
100
AcDbEntity
  8
0
  6
Continuous
 62
     7
370
    25
100
AcDbSpline
210
0.0
220
0.0
230
1.0
 70
     8
 71
     3
 72
     8
 73
     4
 74
     0
 42
0.00000001
 43
0.00000001
 40
-0.25
 40
-0.25
 40
-0.25
 40
-0.25
 40
-0.125
 40
-0.125
 40
-0.125
 40
-0.125
 10
-11.41717166237279
 20
-8.808739836734942
 30
0.0
 10
-11.4239190324137
 20
-8.812635010548451
 30
0.0
 10
-11.42879806920387
 20
-8.809666880515802
 30
0.0
 10
-11.42879806920387
 20
-8.80251035393339
 30
0.0
  0
SPLINE
  5
B4
330
1F
100
AcDbEntity
  8
0
  6
Continuous
 62
     7
370
    25
100
AcDbSpline
210
0.0
220
0.0
230
1.0
 70
     8
 71
     3
 72
     8
 73
     4
 74
     0
 42
0.00000001
 43
0.00000001
 40
-0.125
 40
-0.125
 40
-0.125
 40
-0.125
 40
0.0
 40
0.0
 40
0.0
 40
0.0
 10
-11.42879806920387
 20
-8.80251035393339
 30
0.0
 10
-11.42879806920387
 20
-8.79533931106993
 30
0.0
 10
-11.4239850290466
 20
-8.786783322251486
 30
0.0
 10
-11.41724708709609
 20
-8.782893591158713
 30
0.0
  0
SPLINE
  5
B8
330
1F
100
AcDbEntity
  8
0
  6
Continuous
 62
     7
370
    25
100
AcDbSpline
210
0.0
220
0.0
230
1.0
 70
     8
 71
     3
 72
     8
 73
     4
 74
     0
 42
0.00000001
 43
0.00000001
 40
-0.7999999999999999
 40
-0.7999999999999999
 40
-0.7999999999999999
 40
-0.7999999999999999
 40
-0.7333333333333333
 40
-0.7333333333333333
 40
-0.7333333333333333
 40
-0.7333333333333333
 10
-11.39361557846885
 20
-8.786625585551938
 30
0.0
 10
-11.39361557846885
 20
-8.79492708380613
 30
0.0
 10
-11.38992762376788
 20
-8.79584649190553
 30
0.0
 10
-11.38201117051539
 20
-8.795475255027796
 30
0.0
  0
SPLINE
  5
BB
330
1F
100
AcDbEntity
  8
0
  6
Continuous
 62
     7
370
    25
100
AcDbSpline
210
0.0
220
0.0
230
1.0
 70
     8
 71
     3
 72
     8
 73
     4
 74
     0
 42
0.00000001
 43
0.00000001
 40
-0.6
 40
-0.6
 40
-0.6
 40
-0.6
 40
-0.5333333333333333
 40
-0.5333333333333333
 40
-0.5333333333333333
 40
-0.5333333333333333
 10
-11.38274341887099
 20
-8.78652408448527
 30
0.0
 10
-11.38505015832608
 20
-8.786356930804047
 30
0.0
 10
-11.38592854208316
 20
-8.784891611259013
 30
0.0
 10
-11.38592854208316
 20
-8.78060567926422
 30
0.0
  0
SPLINE
  5
CA
330
1F
100
AcDbEntity
  8
0
  6
Continuous
 62
     7
370
    25
100
AcDbSpline
210
0.0
220
0.0
230
1.0
 70
     8
 71
     3
 72
     8
 73
     4
 74
     0
 42
0.00000001
 43
0.00000001
 40
-0.4545454545454546
 40
-0.4545454545454546
 40
-0.4545454545454546
 40
-0.4545454545454546
 40
-0.3636363636363636
 40
-0.3636363636363636
 40
-0.3636363636363636
 40
-0.3636363636363636
 10
-11.34650183931259
 20
-8.739910262927435
 30
0.0
 10
-11.3484817382999
 20
-8.737669126252467
 30
0.0
 10
-11.35256095875311
 20
-8.737478217297037
 30
0.0
 10
-11.35786583096042
 20
-8.740540654836497
 30
0.0
  0
SPLINE
  5
CB
330
1F
100
AcDbEntity
  8
0
  6
Continuous
 62
     7
370
    25
100
AcDbSpline
210
0.0
220
0.0
230
1.0
 70
     8
 71
     3
 72
     8
 73
     4
 74
     0
 42
0.00000001
 43
0.00000001
 40
-0.3636363636363636
 40
-0.3636363636363636
 40
-0.3636363636363636
 40
-0.3636363636363636
 40
-0.2727272727272727
 40
-0.2727272727272727
 40
-0.2727272727272727
 40
-0.2727272727272727
 10
-11.35786583096042
 20
-8.740540654836497
 30
0.0
 10
-11.36949380913994
 20
-8.747253343755936
 30
0.0
 10
-11.37680686460581
 20
-8.76269798063978
 30
0.0
 10
-11.37680686460581
 20
-8.77249647038241
 30
0.0
  0
SPLINE
  5
CC
330
1F
100
AcDbEntity
  8
0
  6
Continuous
 62
     7
370
    25
100
AcDbSpline
210
0.0
220
0.0
230
1.0
 70
     8
 71
     3
 72
     8
 73
     4
 74
     0
 42
0.00000001
 43
0.00000001
 40
-0.2727272727272727
 40
-0.2727272727272727
 40
-0.2727272727272727
 40
-0.2727272727272727
 40
-0.1818181818181818
 40
-0.1818181818181818
 40
-0.1818181818181818
 40
-0.1818181818181818
 10
-11.37680686460581
 20
-8.77249647038241
 30
0.0
 10
-11.37680686460581
 20
-8.782786699147335
 30
0.0
 10
-11.37001235411279
 20
-8.789580956252276
 30
0.0
 10
-11.3582633821063
 20
-8.782798419083294
 30
0.0
  0
SPLINE
  5
CD
330
1F
100
AcDbEntity
  8
0
  6
Continuous
 62
     7
370
    25
100
AcDbSpline
210
0.0
220
0.0
230
1.0
 70
     8
 71
     3
 72
     8
 73
     4
 74
     0
 42
0.00000001
 43
0.00000001
 40
-0.1818181818181818
 40
-0.1818181818181818
 40
-0.1818181818181818
 40
-0.1818181818181818
 40
-0.0909090909090909
 40
-0.0909090909090909
 40
-0.0909090909090909
 40
-0.0909090909090909
 10
-11.3582633821063
 20
-8.782798419083294
 30
0.0
 10
-11.35336234643852
 20
-8.779969111415793
 30
0.0
 10
-11.34893900068504
 20
-8.775112923176497
 30
0.0
 10
-11.34650183931259
 20
-8.770082353194155
 30
0.0
  0
SPLINE
  5
CF
330
1F
100
AcDbEntity
  8
0
  6
Continuous
 62
     7
370
    25
100
AcDbSpline
210
0.0
220
0.0
230
1.0
 70
     8
 71
     3
 72
     8
 73
     4
 74
     0
 42
0.00000001
 43
0.00000001
 40
-0.25
 40
-0.25
 40
-0.25
 40
-0.25
 40
0.0
 40
0.0
 40
0.0
 40
0.0
 10
-11.51740640562859
 20
-8.853662857739725
 30
0.0
 10
-11.51740640562859
 20
-8.843104077774504
 30
0.0
 10
-11.52467232064233
 20
-8.836835991625994
 30
0.0
 10
-11.53714725561086
 20
-8.84403761829239
 30
0.0
  0
SPLINE
  5
D0
330
1F
100
AcDbEntity
  8
0
  6
Continuous
 62
     7
370
    25
100
AcDbSpline
210
0.0
220
0.0
230
1.0
 70
     8
 71
     3
 72
     8
 73
     4
 74
     0
 42
0.00000001
 43
0.00000001
 40
-1.0
 40
-1.0
 40
-1.0
 40
-1.0
 40
-0.75
 40
-0.75
 40
-0.75
 40
-0.75
 10
-11.53714725561086
 20
-8.84403761829239
 30
0.0
 10
-11.54965833159266
 20
-8.851260108721652
 30
0.0
 10
-11.55690067638043
 20
-8.865903634977322
 30
0.0
 10
-11.55690067638043
 20
-8.876462414942543
 30
0.0
  0
SPLINE
  5
D1
330
1F
100
AcDbEntity
  8
0
  6
Continuous
 62
     7
370
    25
100
AcDbSpline
210
0.0
220
0.0
230
1.0
 70
     8
 71
     3
 72
     8
 73
     4
 74
     0
 42
0.00000001
 43
0.00000001
 40
-0.75
 40
-0.75
 40
-0.75
 40
-0.75
 40
-0.5
 40
-0.5
 40
-0.5
 40
-0.5
 10
-11.55690067638043
 20
-8.876462414942543
 30
0.0
 10
-11.55690067638043
 20
-8.886992162345617
 30
0.0
 10
-11.54965833159266
 20
-8.893288371577006
 30
0.0
 10
-11.53714725561086
 20
-8.886065881147742
 30
0.0
  0
SPLINE
  5
D2
330
1F
100
AcDbEntity
  8
0
  6
Continuous
 62
     7
370
    25
100
AcDbSpline
210
0.0
220
0.0
230
1.0
 70
     8
 71
     3
 72
     8
 73
     4
 74
     0
 42
0.00000001
 43
0.00000001
 40
-0.5
 40
-0.5
 40
-0.5
 40
-0.5
 40
-0.25
 40
-0.25
 40
-0.25
 40
-0.25
 10
-11.53714725561086
 20
-8.886065881147742
 30
0.0
 10
-11.52467232064233
 20
-8.878864254481348
 30
0.0
 10
-11.51740640562859
 20
-8.864192605142799
 30
0.0
 10
-11.51740640562859
 20
-8.853662857739725
 30
0.0
  0
SPLINE
  5
D7
330
1F
100
AcDbEntity
  8
0
  6
Continuous
 62
     7
370
    25
100
AcDbSpline
210
0.0
220
0.0
230
1.0
 70
     8
 71
     3
 72
     8
 73
     4
 74
     0
 42
0.00000001
 43
0.00000001
 40
-0.6363636363636365
 40
-0.6363636363636365
 40
-0.6363636363636365
 40
-0.6363636363636365
 40
-0.5454545454545455
 40
-0.5454545454545455
 40
-0.5454545454545455
 40
-0.5454545454545455
 10
-11.59384307732643
 20
-8.901526751446918
 30
0.0
 10
-11.58349574809506
 20
-8.895553365428746
 30
0.0
 10
-11.57713335841282
 20
-8.88428479196001
 30
0.0
 10
-11.57713335841282
 20
-8.874172387638609
 30
0.0
  0
SPLINE
  5
D8
330
1F
100
AcDbEntity
  8
0
  6
Continuous
 62
     7
370
    25
100
AcDbSpline
210
0.0
220
0.0
230
1.0
 70
     8
 71
     3
 72
     8
 73
     4
 74
     0
 42
0.00000001
 43
0.00000001
 40
-0.5454545454545455
 40
-0.5454545454545455
 40
-0.5454545454545455
 40
-0.5454545454545455
 40
-0.4545454545454546
 40
-0.4545454545454546
 40
-0.4545454545454546
 40
-0.4545454545454546
 10
-11.57713335841282
 20
-8.874172387638609
 30
0.0
 10
-11.57713335841282
 20
-8.86403095075497
 30
0.0
 10
-11.58349574809506
 20
-8.860133639544282
 30
0.0
 10
-11.59384307732643
 20
-8.866107025562453
 30
0.0
  0
SPLINE
  5
E4
330
1F
100
AcDbEntity
  8
0
  6
Continuous
 62
     7
370
    25
100
AcDbSpline
210
0.0
220
0.0
230
1.0
 70
     8
 71
     3
 72
    46
 73
    42
 74
     0
 42
0.00000001
 43
0.00000001
 40
0.0
 40
0.0
 40
0.0
 40
0.0
 40
0.0625000000000007
 40
0.0625000000000007
 40
0.1250000000000014
 40
0.1250000000000014
 40
0.1875000000000021
 40
0.1875000000000021
 40
0.2187500000000025
 40
0.2187500000000025
 40
0.2500000000000028
 40
0.2500000000000028
 40
0.2812500000000031
 40
0.2812500000000031
 40
0.3125000000000033
 40
0.3125000000000033
 40
0.3437500000000036
 40
0.3437500000000036
 40
0.3750000000000038
 40
0.3750000000000038
 40
0.4062500000000041
 40
0.4062500000000041
 40
0.4375000000000043
 40
0.4375000000000043
 40
0.4687500000000046
 40
0.4687500000000046
 40
0.5000000000000048
 40
0.5000000000000048
 40
0.5312500000000051
 40
0.5312500000000051
 40
0.5625000000000053
 40
0.5625000000000053
 40
0.6250000000000047
 40
0.6250000000000047
 40
0.6875000000000039
 40
0.6875000000000039
 40
0.7500000000000032
 40
0.7500000000000032
 40
0.8750000000000017
 40
0.8750000000000017
 40
1.0
 40
1.0
 40
1.0
 40
1.0
 10
-13.06765209866373
 20
-7.155938095089332
 30
0.0
 10
-12.99338259723104
 20
-7.196631043351229
 30
0.0
 10
-12.91923017997804
 20
-7.237405061026542
 30
0.0
 10
-12.77044859642107
 20
-7.318698630042902
 30
0.0
 10
-12.69582789391482
 20
-7.359225363339851
 30
0.0
 10
-12.54485516295738
 20
-7.439263511668518
 30
0.0
 10
-12.46852771904152
 20
-7.478801585101255
 30
0.0
 10
-12.3510680975164
 20
-7.536211438443661
 30
0.0
 10
-12.31141272797799
 20
-7.555026924758191
 30
0.0
 10
-12.23066758673729
 20
-7.591661611782018
 30
0.0
 10
-12.18957963706878
 20
-7.609486162430324
 30
0.0
 10
-12.10544279063788
 20
-7.643621536073721
 30
0.0
 10
-12.06238967911817
 20
-7.659934071998391
 30
0.0
 10
-11.97375213868568
 20
-7.690248246695988
 30
0.0
 10
-11.92815451999007
 20
-7.70424992207365
 30
0.0
 10
-11.83404852178875
 20
-7.728801827491291
 30
0.0
 10
-11.78552429317537
 20
-7.739338293006407
 30
0.0
 10
-11.68592019569014
 20
-7.755610535341727
 30
0.0
 10
-11.63484575675511
 20
-7.761318134503316
 30
0.0
 10
-11.53166009631699
 20
-7.767028659035667
 30
0.0
 10
-11.47959530128953
 20
-7.767020850023798
 30
0.0
 10
-11.37643008819584
 20
-7.761570585934505
 30
0.0
 10
-11.32535491671596
 20
-7.756151546393388
 30
0.0
 10
-11.22533802107487
 20
-7.741045888873728
 30
0.0
 10
-11.17638142804473
 20
-7.731378368194537
 30
0.0
 10
-11.08078971014196
 20
-7.709007952224966
 30
0.0
 10
-11.03413721986449
 20
-7.696307983966075
 30
0.0
 10
-10.94288042608999
 20
-7.66879218589087
 30
0.0
 10
-10.89826959797448
 20
-7.653975709933474
 30
0.0
 10
-10.81073018830181
 20
-7.622853569609148
 30
0.0
 10
-10.76779963272255
 20
-7.606543865941786
 30
0.0
 10
-10.6410324580235
 20
-7.556003103865625
 30
0.0
 10
-10.55918835879931
 20
-7.520199010136419
 30
0.0
 10
-10.39889175650657
 20
-7.446275198780831
 30
0.0
 10
-10.32044625479589
 20
-7.408133602443911
 30
0.0
 10
-10.1657658332794
 20
-7.330442865766116
 30
0.0
 10
-10.08953804637488
 20
-7.290884196820862
 30
0.0
 10
-9.863065576469497
 20
-7.170865085093615
 30
0.0
 10
-9.714972028502913
 20
-7.089099477646192
 30
0.0
 10
-9.42138469120119
 20
-6.924090672915647
 30
0.0
 10
-9.275938901638781
 20
-6.84080992951903
 30
0.0
 10
-9.13109539723106
 20
-6.75719345213986
 30
0.0
  0
SPLINE
  5
E6
330
1F
100
AcDbEntity
  8
0
  6
Continuous
 62
     7
370
    25
100
AcDbSpline
210
0.0
220
0.0
230
1.0
 70
     8
 71
     3
 72
    46
 73
    42
 74
     0
 42
0.00000001
 43
0.00000001
 40
0.0
 40
0.0
 40
0.0
 40
0.0
 40
0.125
 40
0.125
 40
0.2499999999999999
 40
0.2499999999999999
 40
0.3124999999999998
 40
0.3124999999999998
 40
0.3749999999999998
 40
0.3749999999999998
 40
0.4374999999999997
 40
0.4374999999999997
 40
0.4687499999999997
 40
0.4687499999999997
 40
0.4999999999999997
 40
0.4999999999999997
 40
0.5312499999999998
 40
0.5312499999999998
 40
0.5624999999999998
 40
0.5624999999999998
 40
0.5937499999999998
 40
0.5937499999999998
 40
0.6249999999999998
 40
0.6249999999999998
 40
0.6562499999999998
 40
0.6562499999999998
 40
0.6874999999999998
 40
0.6874999999999998
 40
0.7187499999999998
 40
0.7187499999999998
 40
0.7499999999999998
 40
0.7499999999999998
 40
0.7812499999999997
 40
0.7812499999999997
 40
0.8124999999999997
 40
0.8124999999999997
 40
0.8749999999999998
 40
0.8749999999999998
 40
0.9374999999999999
 40
0.9374999999999999
 40
1.0
 40
1.0
 40
1.0
 40
1.0
 10
-1.18911415475908
 20
-2.172385271246907
 30
0.0
 10
-1.04427122209383
 20
-2.088769053977803
 30
0.0
 10
-0.9000089806816388
 20
-2.00480562292527
 30
0.0
 10
-0.6141776978094674
 20
-1.83532076276137
 30
0.0
 10
-0.4725384162886759
 20
-1.749829361705707
 30
0.0
 10
-0.2646389133618342
 20
-1.619088716938603
 30
0.0
 10
-0.1961154521186459
 20
-1.575082785674905
 30
0.0
 10
-0.0615328737564362
 20
-1.485788693083416
 30
0.0
 10
0.0045402978079858
 20
-1.440503656963315
 30
0.0
 10
0.1325863514990689
 20
-1.347963487311367
 30
0.0
 10
0.1946153382419256
 20
-1.300717039944392
 30
0.0
 10
0.2821606065824809
 20
-1.227533943542652
 30
0.0
 10
0.3104155077165917
 20
-1.202750376120399
 30
0.0
 10
0.3643261493858328
 20
-1.152213401324169
 30
0.0
 10
0.3899939142417673
 20
-1.126459314874128
 30
0.0
 10
0.4376567453695469
 20
-1.073775446265848
 30
0.0
 10
0.4596575122562519
 20
-1.046842026879503
 30
0.0
 10
0.4984122940146037
 20
-0.991653468506672
 30
0.0
 10
0.5151573137490236
 20
-0.9633908719972215
 30
0.0
 10
0.541322020320684
 20
-0.9056458976557676
 30
0.0
 10
0.5507078774749554
 20
-0.8761583015738579
 30
0.0
 10
0.5601454696541315
 20
-0.8166010110474042
 30
0.0
 10
0.5601558933207869
 20
-0.7865458672757113
 30
0.0
 10
0.5502584538200466
 20
-0.7269798242926705
 30
0.0
 10
0.540369318889799
 20
-0.6974947211888278
 30
0.0
 10
0.5121781667904477
 20
-0.639997114149774
 30
0.0
 10
0.4939259284865711
 20
-0.6119866532556346
 30
0.0
 10
0.4513985170123691
 20
-0.5576667543009
 30
0.0
 10
0.427143402342074
 20
-0.5313452533629466
 30
0.0
 10
0.3746345726251181
 20
-0.4801789609047642
 30
0.0
 10
0.3463782531612459
 20
-0.4553263728188008
 30
0.0
 10
0.2872502148580712
 20
-0.4067572629181166
 30
0.0
 10
0.256375201297357
 20
-0.3830381343391048
 30
0.0
 10
0.1929144989532661
 20
-0.3364266322240325
 30
0.0
 10
0.1603240898621796
 20
-0.3135339204221555
 30
0.0
 10
0.0608721987671382
 20
-0.2457286374417318
 30
0.0
 10
-0.0076123050616483
 20
-0.2016647619564765
 30
0.0
 10
-0.1462586244786833
 20
-0.1145114772438749
 30
0.0
 10
-0.2164604792053713
 20
-0.0714342752456985
 30
0.0
 10
-0.3572772453560075
 20
0.0144565132065223
 30
0.0
 10
-0.4279079479179003
 20
0.057263359943566
 30
0.0
 10
-0.4983985320649311
 20
0.1001375387676913
 30
0.0
  0
SPLINE
  5
EB
330
1F
100
AcDbEntity
  8
0
  6
Continuous
 62
     7
370
    25
100
AcDbSpline
210
0.0
220
0.0
230
1.0
 70
     8
 71
     3
 72
     9
 73
     5
 74
     0
 42
0.00000001
 43
0.00000001
 40
0.0
 40
0.0
 40
0.0
 40
0.0
 40
0.5895322430277463
 40
0.9999999999999999
 40
0.9999999999999999
 40
0.9999999999999999
 40
0.9999999999999999
 10
-11.57989549427684
 20
-8.872577840545205
 30
0.0
 10
-11.58009390899988
 20
-8.869935769453766
 30
0.0
 10
-11.58043047197061
 20
-8.865454129776406
 30
0.0
 10
-11.58320986139996
 20
-8.86372213739641
 30
0.0
 10
-11.58435071114478
 20
-8.863011210369098
 30
0.0
  0
SPLINE
  5
EC
330
1F
100
AcDbEntity
  8
0
  6
Continuous
 62
     7
370
    25
100
AcDbSpline
210
0.0
220
0.0
230
1.0
 70
     8
 71
     3
 72
     8
 73
     4
 74
     0
 42
0.00000001
 43
0.00000001
 40
-0.6363636363636365
 40
-0.6363636363636365
 40
-0.6363636363636365
 40
-0.6363636363636365
 40
-0.5454545454545455
 40
-0.5454545454545455
 40
-0.5454545454545455
 40
-0.5454545454545455
 10
-11.59660521319044
 20
-8.899932204353515
 30
0.0
 10
-11.58625788395907
 20
-8.893958818335344
 30
0.0
 10
-11.57989549427684
 20
-8.882690244866605
 30
0.0
 10
-11.57989549427684
 20
-8.872577840545205
 30
0.0
  0
SPLINE
  5
F2
330
1F
100
AcDbEntity
  8
0
  6
Continuous
 62
     7
370
    25
100
AcDbSpline
210
0.0
220
0.0
230
1.0
 70
     8
 71
     3
 72
    10
 73
     6
 74
     0
 42
0.00000001
 43
0.00000001
 40
0.0
 40
0.0
 40
0.0
 40
0.0
 40
0.1196519245035788
 40
0.5151395335117618
 40
1.0
 40
1.0
 40
1.0
 40
1.0
 10
-11.59059506444463
 20
-8.872948336573472
 30
0.0
 10
-11.59076806642241
 20
-8.872772165580997
 30
0.0
 10
-11.59151289487795
 20
-8.872013693510802
 30
0.0
 10
-11.59396489590126
 20
-8.87235353404768
 30
0.0
 10
-11.59609509426257
 20
-8.873389907637042
 30
0.0
 10
-11.59726832221631
 20
-8.873960700708537
 30
0.0
  0
SPLINE
  5
F4
330
1F
100
AcDbEntity
  8
0
  6
Continuous
 62
     7
370
    25
100
AcDbSpline
210
0.0
220
0.0
230
1.0
 70
     8
 71
     3
 72
    10
 73
     6
 74
     0
 42
0.00000001
 43
0.00000001
 40
0.0
 40
0.0
 40
0.0
 40
0.0
 40
0.4338728087154629
 40
0.8677479288859621
 40
1.0
 40
1.0
 40
1.0
 40
1.0
 10
-13.06765209875551
 20
-7.15593809503637
 30
0.0
 10
-13.06532712597859
 20
-7.154887474134088
 30
0.0
 10
-13.06067716803846
 20
-7.152786226732341
 30
0.0
 10
-13.0555932434134
 20
-7.152757112147889
 30
0.0
 10
-13.05363635650712
 20
-7.154342324770679
 30
0.0
 10
-13.05317921127497
 20
-7.15471264376568
 30
0.0
  0
SPLINE
  5
FA
330
1F
100
AcDbEntity
  8
0
  6
Continuous
 62
     7
370
    25
100
AcDbSpline
210
0.0
220
0.0
230
1.0
 70
     8
 71
     3
 72
     8
 73
     4
 74
     0
 42
0.00000001
 43
0.00000001
 40
0.2
 40
0.2
 40
0.2
 40
0.2
 40
0.4
 40
0.4
 40
0.4
 40
0.4
 10
-11.5945061863523
 20
-8.892849582197648
 30
0.0
 10
-11.58843606747294
 20
-8.889345377157694
 30
0.0
 10
-11.58570192125234
 20
-8.883722389319958
 30
0.0
 10
-11.58570192125234
 20
-8.879118913676095
 30
0.0
  0
SPLINE
  5
FC
330
1F
100
AcDbEntity
  8
0
  6
Continuous
 62
     7
370
    25
100
AcDbSpline
210
0.0
220
0.0
230
1.0
 70
     8
 71
     3
 72
     8
 73
     4
 74
     0
 42
0.00000001
 43
0.00000001
 40
0.4
 40
0.4
 40
0.4
 40
0.4
 40
0.6000000000000001
 40
0.6000000000000001
 40
0.6000000000000001
 40
0.6000000000000001
 10
-11.58570192125234
 20
-8.879118913676095
 30
0.0
 10
-11.58570192125234
 20
-8.874499107215941
 30
0.0
 10
-11.58843606747294
 20
-8.872051042761987
 30
0.0
 10
-11.5945061863523
 20
-8.875555247801941
 30
0.0
  0
SPLINE
  5
104
330
1F
100
AcDbEntity
  8
0
  6
Continuous
 62
     7
370
    25
100
AcDbSpline
210
0.0
220
0.0
230
1.0
 70
     8
 71
     3
 72
     8
 73
     4
 74
     0
 42
0.00000001
 43
0.00000001
 40
-0.6363636363636365
 40
-0.6363636363636365
 40
-0.6363636363636365
 40
-0.6363636363636365
 40
-0.5454545454545455
 40
-0.5454545454545455
 40
-0.5454545454545455
 40
-0.5454545454545455
 10
-11.56374988943967
 20
-8.864759616362356
 30
0.0
 10
-11.56300978434205
 20
-8.864332362783847
 30
0.0
 10
-11.56158928538606
 20
-8.864016766959764
 30
0.0
 10
-11.56084446624324
 20
-8.864245468275818
 30
0.0
  0
SPLINE
  5
105
330
1F
100
AcDbEntity
  8
0
  6
Continuous
 62
     7
370
    25
100
AcDbSpline
210
0.0
220
0.0
230
1.0
 70
     8
 71
     3
 72
     8
 73
     4
 74
     0
 42
0.00000001
 43
0.00000001
 40
-0.7272727272727274
 40
-0.7272727272727274
 40
-0.7272727272727274
 40
-0.7272727272727274
 40
-0.6363636363636365
 40
-0.6363636363636365
 40
-0.6363636363636365
 40
-0.6363636363636365
 10
-11.56905161895023
 20
-8.873837238177634
 30
0.0
 10
-11.56905161895023
 20
-8.87021724057827
 30
0.0
 10
-11.56656417442884
 20
-8.86638426850491
 30
0.0
 10
-11.56374988943967
 20
-8.864759616362356
 30
0.0
  0
SPLINE
  5
10C
330
1F
100
AcDbEntity
  8
0
  6
Continuous
 62
     7
370
    25
100
AcDbSpline
210
0.0
220
0.0
230
1.0
 70
     8
 71
     3
 72
    10
 73
     6
 74
     0
 42
0.00000001
 43
0.00000001
 40
0.0
 40
0.0
 40
0.0
 40
0.0
 40
0.1023090535990532
 40
0.5229768581243935
 40
1.0
 40
1.0
 40
1.0
 40
1.0
 10
-11.55418664963199
 20
-8.886030957251224
 30
0.0
 10
-11.55387002655179
 20
-8.886358389607047
 30
0.0
 10
-11.55225153299854
 20
-8.888032137322162
 30
0.0
 10
-11.54710985053411
 20
-8.887787742934723
 30
0.0
 10
-11.54240793690528
 20
-8.885622121550703
 30
0.0
 10
-11.53990939147487
 20
-8.884471334054338
 30
0.0
  0
SPLINE
  5
10D
330
1F
100
AcDbEntity
  8
0
  6
Continuous
 62
     7
370
    25
100
AcDbSpline
210
0.0
220
0.0
230
1.0
 70
     8
 71
     3
 72
     9
 73
     5
 74
     0
 42
0.00000001
 43
0.00000001
 40
0.0
 40
0.0
 40
0.0
 40
0.0
 40
0.5501216196670465
 40
1.0
 40
1.0
 40
1.0
 40
1.0
 10
-11.5201685414926
 20
-8.85206831064632
 30
0.0
 10
-11.5204476919522
 20
-8.849207447291807
 30
0.0
 10
-11.52095512603517
 20
-8.844007027507827
 30
0.0
 10
-11.52419305116661
 20
-8.841859419122983
 30
0.0
 10
-11.52564972368038
 20
-8.84089325654122
 30
0.0
  0
SPLINE
  5
10E
330
1F
100
AcDbEntity
  8
0
  6
Continuous
 62
     7
370
    25
100
AcDbSpline
210
0.0
220
0.0
230
1.0
 70
     8
 71
     3
 72
     8
 73
     4
 74
     0
 42
0.00000001
 43
0.00000001
 40
-0.5
 40
-0.5
 40
-0.5
 40
-0.5
 40
-0.25
 40
-0.25
 40
-0.25
 40
-0.25
 10
-11.53990939147487
 20
-8.884471334054338
 30
0.0
 10
-11.52743445650635
 20
-8.877269707387944
 30
0.0
 10
-11.5201685414926
 20
-8.862598058049395
 30
0.0
 10
-11.5201685414926
 20
-8.85206831064632
 30
0.0
  0
SPLINE
  5
10F
330
1F
100
AcDbEntity
  8
0
  6
Continuous
 62
     7
370
    25
100
AcDbSpline
210
0.0
220
0.0
230
1.0
 70
     8
 71
     3
 72
    10
 73
     6
 74
     0
 42
0.00000001
 43
0.00000001
 40
0.0
 40
0.0
 40
0.0
 40
0.0
 40
0.1206191238397071
 40
0.5443639598707057
 40
1.0
 40
1.0
 40
1.0
 40
1.0
 10
-11.53168387749356
 20
-8.84975664620472
 30
0.0
 10
-11.53190216513293
 20
-8.84953539348371
 30
0.0
 10
-11.53288731508241
 20
-8.848536861878559
 30
0.0
 10
-11.53585567317677
 20
-8.84867075708863
 30
0.0
 10
-11.53852587331071
 20
-8.849886185005284
 30
0.0
 10
-11.53990939147487
 20
-8.85051593802587
 30
0.0
  0
SPLINE
  5
110
330
1F
100
AcDbEntity
  8
0
  6
Continuous
 62
     7
370
    25
100
AcDbSpline
210
0.0
220
0.0
230
1.0
 70
     8
 71
     3
 72
     8
 73
     4
 74
     0
 42
0.00000001
 43
0.00000001
 40
0.5
 40
0.5
 40
0.5
 40
0.5
 40
0.75
 40
0.75
 40
0.75
 40
0.75
 10
-11.53990939147487
 20
-8.85051593802587
 30
0.0
 10
-11.54664419072863
 20
-8.85440385487843
 30
0.0
 10
-11.551527941564
 20
-8.863000664102454
 30
0.0
 10
-11.551527941564
 20
-8.870171706965914
 30
0.0
  0
SPLINE
  5
111
330
1F
100
AcDbEntity
  8
0
  6
Continuous
 62
     7
370
    25
100
AcDbSpline
210
0.0
220
0.0
230
1.0
 70
     8
 71
     3
 72
     9
 73
     5
 74
     0
 42
0.00000001
 43
0.00000001
 40
0.0
 40
0.0
 40
0.0
 40
0.0
 40
0.5734178730191928
 40
1.0
 40
1.0
 40
1.0
 40
1.0
 10
-11.551527941564
 20
-8.870171706965914
 30
0.0
 10
-11.55135739869309
 20
-8.872041610059133
 30
0.0
 10
-11.55105998405197
 20
-8.875302588101857
 30
0.0
 10
-11.54902764933221
 20
-8.876609785966183
 30
0.0
 10
-11.54816069166471
 20
-8.877167413211536
 30
0.0
  0
SPLINE
  5
113
330
1F
100
AcDbEntity
  8
0
  6
Continuous
 62
     7
370
    25
100
AcDbSpline
210
0.0
220
0.0
230
1.0
 70
     8
 71
     3
 72
     8
 73
     4
 74
     0
 42
0.00000001
 43
0.00000001
 40
0.25
 40
0.25
 40
0.25
 40
0.25
 40
0.5
 40
0.5
 40
0.5
 40
0.5
 10
-11.52555384709624
 20
-8.858366275583938
 30
0.0
 10
-11.52555384709624
 20
-8.851195232720476
 30
0.0
 10
-11.53042816984122
 20
-8.84823163946801
 30
0.0
 10
-11.53714725561086
 20
-8.852110485119274
 30
0.0
  0
SPLINE
  5
114
330
1F
100
AcDbEntity
  8
0
  6
Continuous
 62
     7
370
    25
100
AcDbSpline
210
0.0
220
0.0
230
1.0
 70
     8
 71
     3
 72
     8
 73
     4
 74
     0
 42
0.00000001
 43
0.00000001
 40
0.0
 40
0.0
 40
0.0
 40
0.0
 40
0.25
 40
0.25
 40
0.25
 40
0.25
 10
-11.53714725561086
 20
-8.87800027246145
 30
0.0
 10
-11.53042816984122
 20
-8.874121426810188
 30
0.0
 10
-11.52555384709624
 20
-8.86552280216635
 30
0.0
 10
-11.52555384709624
 20
-8.858366275583938
 30
0.0
  0
SPLINE
  5
115
330
1F
100
AcDbEntity
  8
0
  6
Continuous
 62
     7
370
    25
100
AcDbSpline
210
0.0
220
0.0
230
1.0
 70
     8
 71
     3
 72
     8
 73
     4
 74
     0
 42
0.00000001
 43
0.00000001
 40
0.75
 40
0.75
 40
0.75
 40
0.75
 40
1.0
 40
1.0
 40
1.0
 40
1.0
 10
-11.54876580569999
 20
-8.871766254059319
 30
0.0
 10
-11.54876580569999
 20
-8.87892278064173
 30
0.0
 10
-11.54388205486462
 20
-8.881888189314013
 30
0.0
 10
-11.53714725561086
 20
-8.87800027246145
 30
0.0
  0
SPLINE
  5
116
330
1F
100
AcDbEntity
  8
0
  6
Continuous
 62
     7
370
    25
100
AcDbSpline
210
0.0
220
0.0
230
1.0
 70
     8
 71
     3
 72
     8
 73
     4
 74
     0
 42
0.00000001
 43
0.00000001
 40
0.5
 40
0.5
 40
0.5
 40
0.5
 40
0.75
 40
0.75
 40
0.75
 40
0.75
 10
-11.53714725561086
 20
-8.852110485119274
 30
0.0
 10
-11.54388205486462
 20
-8.855998401971835
 30
0.0
 10
-11.54876580569999
 20
-8.864595211195859
 30
0.0
 10
-11.54876580569999
 20
-8.871766254059319
 30
0.0
  0
SPLINE
  5
11C
330
1F
100
AcDbEntity
  8
0
  6
Continuous
 62
     7
370
    25
100
AcDbSpline
210
0.0
220
0.0
230
1.0
 70
     8
 71
     3
 72
    10
 73
     6
 74
     0
 42
0.00000001
 43
0.00000001
 40
0.0
 40
0.0
 40
0.0
 40
0.0
 40
0.0461134477817432
 40
0.4790896849610196
 40
1.0
 40
1.0
 40
1.0
 40
1.0
 10
-11.50725367990303
 20
-8.85491497407451
 30
0.0
 10
-11.50733832386593
 20
-8.854902662134002
 30
0.0
 10
-11.50821772134042
 20
-8.854774748824898
 30
0.0
 10
-11.50913858816642
 20
-8.852778478477243
 30
0.0
 10
-11.50932195468306
 20
-8.850547037131228
 30
0.0
 10
-11.50942208976698
 20
-8.849328463694127
 30
0.0
  0
SPLINE
  5
11E
330
1F
100
AcDbEntity
  8
0
  6
Continuous
 62
     7
370
    25
100
AcDbSpline
210
0.0
220
0.0
230
1.0
 70
     8
 71
     3
 72
     8
 73
     4
 74
     0
 42
0.00000001
 43
0.00000001
 40
-0.4705882352941177
 40
-0.4705882352941177
 40
-0.4705882352941177
 40
-0.4705882352941177
 40
-0.411764705882353
 40
-0.411764705882353
 40
-0.411764705882353
 40
-0.411764705882353
 10
-11.50077495950726
 20
-8.877119787980039
 30
0.0
 10
-11.49411715632524
 20
-8.873276320013574
 30
0.0
 10
-11.4844345074682
 20
-8.862324694476614
 30
0.0
 10
-11.4844345074682
 20
-8.850143720098414
 30
0.0
  0
SPLINE
  5
11F
330
1F
100
AcDbEntity
  8
0
  6
Continuous
 62
     7
370
    25
100
AcDbSpline
210
0.0
220
0.0
230
1.0
 70
     8
 71
     3
 72
     8
 73
     4
 74
     0
 42
0.00000001
 43
0.00000001
 40
-0.4964705882352994
 40
-0.4964705882352994
 40
-0.4964705882352994
 40
-0.4964705882352994
 40
-0.4705882352941177
 40
-0.4705882352941177
 40
-0.4705882352941177
 40
-0.4705882352941177
 10
-11.50921103409368
 20
-8.880220137457641
 30
0.0
 10
-11.50701459042399
 20
-8.880065281745312
 30
0.0
 10
-11.50432249851497
 20
-8.879167738657333
 30
0.0
 10
-11.50077495950726
 20
-8.877119787980039
 30
0.0
  0
SPLINE
  5
121
330
1F
100
AcDbEntity
  8
0
  6
Continuous
 62
     7
370
    25
100
AcDbSpline
210
0.0
220
0.0
230
1.0
 70
     8
 71
     3
 72
     8
 73
     4
 74
     0
 42
0.00000001
 43
0.00000001
 40
-0.8823529411764707
 40
-0.8823529411764707
 40
-0.8823529411764707
 40
-0.8823529411764707
 40
-0.823529411764706
 40
-0.823529411764706
 40
-0.823529411764706
 40
-0.823529411764706
 10
-11.50263229331915
 20
-8.862951723346837
 30
0.0
 10
-11.49767626045723
 20
-8.860090666474958
 30
0.0
 10
-11.49485883277132
 20
-8.856812973117018
 30
0.0
 10
-11.49184027248987
 20
-8.8512816459912
 30
0.0
  0
SPLINE
  5
122
330
1F
100
AcDbEntity
  8
0
  6
Continuous
 62
     7
370
    25
100
AcDbSpline
210
0.0
220
0.0
230
1.0
 70
     8
 71
     3
 72
    10
 73
     6
 74
     0
 42
0.00000001
 43
0.00000001
 40
0.0
 40
0.0
 40
0.0
 40
0.0
 40
0.1117295065167223
 40
0.5471982188674229
 40
0.9999999999999999
 40
0.9999999999999999
 40
0.9999999999999999
 40
0.9999999999999999
 10
-11.51271026406162
 20
-8.863994873301358
 30
0.0
 10
-11.51244333504699
 20
-8.864211573797878
 30
0.0
 10
-11.5111360431245
 20
-8.86527287022189
 30
0.0
 10
-11.50761018052744
 20
-8.865254649706937
 30
0.0
 10
-11.50431303509337
 20
-8.863729287075062
 30
0.0
 10
-11.50263229331915
 20
-8.862951723346837
 30
0.0
  0
SPLINE
  5
126
330
1F
100
AcDbEntity
  8
0
  6
Continuous
 62
     7
370
    25
100
AcDbSpline
210
0.0
220
0.0
230
1.0
 70
     8
 71
     3
 72
    10
 73
     6
 74
     0
 42
0.00000001
 43
0.00000001
 40
0.0
 40
0.0
 40
0.0
 40
0.0
 40
0.1022502147707167
 40
0.5231667601018475
 40
0.9999999999999999
 40
0.9999999999999999
 40
0.9999999999999999
 40
0.9999999999999999
 10
-11.47531320952308
 20
-8.840501003507521
 30
0.0
 10
-11.474997164533
 20
-8.840827798790299
 30
0.0
 10
-11.47338010941112
 20
-8.842499858156527
 30
0.0
 10
-11.4682466141186
 20
-8.84226006274978
 30
0.0
 10
-11.46355036457192
 20
-8.840098389130226
 30
0.0
 10
-11.46105598593374
 20
-8.838950231979345
 30
0.0
  0
SPLINE
  5
127
330
1F
100
AcDbEntity
  8
0
  6
Continuous
 62
     7
370
    25
100
AcDbSpline
210
0.0
220
0.0
230
1.0
 70
     8
 71
     3
 72
    10
 73
     6
 74
     0
 42
0.00000001
 43
0.00000001
 40
0.0
 40
0.0
 40
0.0
 40
0.0
 40
0.4532738130564534
 40
0.8475366763432773
 40
1.0
 40
1.0
 40
1.0
 40
1.0
 10
-11.4424873618598
 20
-8.808606595958778
 30
0.0
 10
-11.44269198010308
 20
-8.806091613572255
 30
0.0
 10
-11.44307457768724
 20
-8.801389070095137
 30
0.0
 10
-11.44538828917702
 20
-8.797270945848418
 30
0.0
 10
-11.44745480339402
 20
-8.7963487082239
 30
0.0
 10
-11.44803108386756
 20
-8.796091527542247
 30
0.0
  0
SPLINE
  5
12A
330
1F
100
AcDbEntity
  8
0
  6
Continuous
 62
     7
370
    25
100
AcDbSpline
210
0.0
220
0.0
230
1.0
 70
     8
 71
     3
 72
     9
 73
     5
 74
     0
 42
0.00000001
 43
0.00000001
 40
0.0
 40
0.0
 40
0.0
 40
0.0
 40
0.476587158662904
 40
1.0
 40
1.0
 40
1.0
 40
1.0
 10
-11.46945028399875
 20
-8.832330975456392
 30
0.0
 10
-11.47014304901665
 20
-8.83183140863853
 30
0.0
 10
-11.47159664466081
 20
-8.830783191520677
 30
0.0
 10
-11.47199681821951
 20
-8.828525252993536
 30
0.0
 10
-11.47220627419889
 20
-8.827343418973483
 30
0.0
  0
SPLINE
  5
12B
330
1F
100
AcDbEntity
  8
0
  6
Continuous
 62
     7
370
    25
100
AcDbSpline
210
0.0
220
0.0
230
1.0
 70
     8
 71
     3
 72
     8
 73
     4
 74
     0
 42
0.00000001
 43
0.00000001
 40
-0.1111111111111111
 40
-0.1111111111111111
 40
-0.1111111111111111
 40
-0.1111111111111111
 40
0.0
 40
0.0
 40
0.0
 40
0.0
 10
-11.46105598593374
 20
-8.838950231979345
 30
0.0
 10
-11.4546275996186
 20
-8.835166622145556
 30
0.0
 10
-11.44869575939861
 20
-8.82811861700689
 30
0.0
 10
-11.44441540634987
 20
-8.81962517966703
 30
0.0
  0
SPLINE
  5
12C
330
1F
100
AcDbEntity
  8
0
  6
Continuous
 62
     7
370
    25
100
AcDbSpline
210
0.0
220
0.0
230
1.0
 70
     8
 71
     3
 72
    10
 73
     6
 74
     0
 42
0.00000001
 43
0.00000001
 40
0.0
 40
0.0
 40
0.0
 40
0.0
 40
0.2744062033662356
 40
0.630125051868949
 40
1.0
 40
1.0
 40
1.0
 40
1.0
 10
-11.45456424611793
 20
-8.80441375350793
 30
0.0
 10
-11.45509865867228
 20
-8.8040735159919
 30
0.0
 10
-11.45632584207556
 20
-8.80329222103644
 30
0.0
 10
-11.45902241001289
 20
-8.803611150593786
 30
0.0
 10
-11.46105213059817
 20
-8.804602099438299
 30
0.0
 10
-11.46208679048595
 20
-8.805107240405828
 30
0.0
  0
SPLINE
  5
12D
330
1F
100
AcDbEntity
  8
0
  6
Continuous
 62
     7
370
    25
100
AcDbSpline
210
0.0
220
0.0
230
1.0
 70
     8
 71
     3
 72
     8
 73
     4
 74
     0
 42
0.00000001
 43
0.00000001
 40
0.3333333333333333
 40
0.3333333333333333
 40
0.3333333333333333
 40
0.3333333333333333
 40
0.6666666666666666
 40
0.6666666666666666
 40
0.6666666666666666
 40
0.6666666666666666
 10
-11.46208679048595
 20
-8.805107240405828
 30
0.0
 10
-11.46696268457929
 20
-8.807922034151346
 30
0.0
 10
-11.47096805165758
 20
-8.813594802422704
 30
0.0
 10
-11.47220627419889
 20
-8.82025765926144
 30
0.0
  0
SPLINE
  5
131
330
1F
100
AcDbEntity
  8
0
  6
Continuous
 62
     7
370
    25
100
AcDbSpline
210
0.0
220
0.0
230
1.0
 70
     8
 71
     3
 72
     8
 73
     4
 74
     0
 42
0.00000001
 43
0.00000001
 40
0.3333333333333333
 40
0.3333333333333333
 40
0.3333333333333333
 40
0.3333333333333333
 40
0.6666666666666666
 40
0.6666666666666666
 40
0.6666666666666666
 40
0.6666666666666666
 10
-11.45932465462194
 20
-8.806701787499232
 30
0.0
 10
-11.46420054871528
 20
-8.80951658124475
 30
0.0
 10
-11.46820591579356
 20
-8.815189349516109
 30
0.0
 10
-11.46944413833488
 20
-8.821852206354844
 30
0.0
  0
SPLINE
  5
132
330
1F
100
AcDbEntity
  8
0
  6
Continuous
 62
     7
370
    25
100
AcDbSpline
210
0.0
220
0.0
230
1.0
 70
     8
 71
     3
 72
     8
 73
     4
 74
     0
 42
0.00000001
 43
0.00000001
 40
0.0
 40
0.0
 40
0.0
 40
0.0
 40
0.3333333333333333
 40
0.3333333333333333
 40
0.3333333333333333
 40
0.3333333333333333
 10
-11.44875890796254
 20
-8.809910877039234
 30
0.0
 10
-11.45037739681724
 20
-8.80474837270515
 30
0.0
 10
-11.45444561783169
 20
-8.803885179513408
 30
0.0
 10
-11.45932465462194
 20
-8.806701787499232
 30
0.0
  0
SPLINE
  5
13A
330
1F
100
AcDbEntity
  8
0
  6
Continuous
 62
     7
370
    25
100
AcDbSpline
210
0.0
220
0.0
230
1.0
 70
     8
 71
     3
 72
    10
 73
     6
 74
     0
 42
0.00000001
 43
0.00000001
 40
0.0
 40
0.0
 40
0.0
 40
0.0
 40
0.1071128853643408
 40
0.5456052019254941
 40
1.0
 40
1.0
 40
1.0
 40
1.0
 10
-11.42824369220093
 20
-8.807922514640607
 30
0.0
 10
-11.42849736398501
 20
-8.807862211980803
 30
0.0
 10
-11.42978950212976
 20
-8.807555045903
 30
0.0
 10
-11.43112186660148
 20
-8.805105811192046
 30
0.0
 10
-11.43141236762046
 20
-8.802328960363036
 30
0.0
 10
-11.43156020506788
 20
-8.800915806839987
 30
0.0
  0
SPLINE
  5
13B
330
1F
100
AcDbEntity
  8
0
  6
Continuous
 62
     7
370
    25
100
AcDbSpline
210
0.0
220
0.0
230
1.0
 70
     8
 71
     3
 72
     8
 73
     4
 74
     0
 42
0.00000001
 43
0.00000001
 40
-0.625
 40
-0.625
 40
-0.625
 40
-0.625
 40
-0.5
 40
-0.5
 40
-0.5
 40
-0.5
 10
-11.4199337982368
 20
-8.815210898327829
 30
0.0
 10
-11.41312357425974
 20
-8.81127943970932
 30
0.0
 10
-11.40707859695481
 20
-8.803743335234662
 30
0.0
 10
-11.40388090295543
 20
-8.796297690347405
 30
0.0
  0
SPLINE
  5
13C
330
1F
100
AcDbEntity
  8
0
  6
Continuous
 62
     7
370
    25
100
AcDbSpline
210
0.0
220
0.0
230
1.0
 70
     8
 71
     3
 72
    10
 73
     6
 74
     0
 42
0.00000001
 43
0.00000001
 40
0.0
 40
0.0
 40
0.0
 40
0.0
 40
0.1023386459077414
 40
0.5231439473384539
 40
1.0
 40
1.0
 40
1.0
 40
1.0
 10
-11.43419967870888
 20
-8.816764628620977
 30
0.0
 10
-11.43388315770258
 20
-8.817091871910431
 30
0.0
 10
-11.43226513699122
 20
-8.818764703758722
 30
0.0
 10
-11.42712821363703
 20
-8.818523208213724
 30
0.0
 10
-11.42242972918108
 20
-8.81636002529386
 30
0.0
 10
-11.4199337982368
 20
-8.815210898327829
 30
0.0
  0
SPLINE
  5
13E
330
1F
100
AcDbEntity
  8
0
  6
Continuous
 62
     7
370
    25
100
AcDbSpline
210
0.0
220
0.0
230
1.0
 70
     8
 71
     3
 72
     8
 73
     4
 74
     0
 42
0.00000001
 43
0.00000001
 40
-0.125
 40
-0.125
 40
-0.125
 40
-0.125
 40
0.0
 40
0.0
 40
0.0
 40
0.0
 10
-11.43156020506788
 20
-8.800915806839987
 30
0.0
 10
-11.43156020506788
 20
-8.793744763976525
 30
0.0
 10
-11.42674716491061
 20
-8.785188775158081
 30
0.0
 10
-11.4200092229601
 20
-8.781299044065308
 30
0.0
  0
SPLINE
  5
143
330
1F
100
AcDbEntity
  8
0
  6
Continuous
 62
     7
370
    25
100
AcDbSpline
210
0.0
220
0.0
230
1.0
 70
     8
 71
     3
 72
    11
 73
     7
 74
     0
 42
0.00000001
 43
0.00000001
 40
0.0
 40
0.0
 40
0.0
 40
0.0
 40
0.0272222281732093
 40
0.3460859380191963
 40
0.63708140080217
 40
1.0
 40
1.0
 40
1.0
 40
1.0
 10
-11.38698898025049
 20
-8.784489084710184
 30
0.0
 10
-11.38703292326828
 20
-8.784477068748572
 30
0.0
 10
-11.38759158659427
 20
-8.78432430552436
 30
0.0
 10
-11.38818270295257
 20
-8.78325229441227
 30
0.0
 10
-11.38864828121418
 20
-8.781350727673152
 30
0.0
 10
-11.38867554609359
 20
-8.779846159166715
 30
0.0
 10
-11.38869067794717
 20
-8.779011132170815
 30
0.0
  0
SPLINE
  5
145
330
1F
100
AcDbEntity
  8
0
  6
Continuous
 62
     7
370
    25
100
AcDbSpline
210
0.0
220
0.0
230
1.0
 70
     8
 71
     3
 72
     9
 73
     5
 74
     0
 42
0.00000001
 43
0.00000001
 40
0.0
 40
0.0
 40
0.0
 40
0.0
 40
0.071156906661515
 40
0.9999999999999999
 40
0.9999999999999999
 40
0.9999999999999999
 40
0.9999999999999999
 10
-11.39327652540689
 20
-8.792743684162796
 30
0.0
 10
-11.39312387891221
 20
-8.792866747918229
 30
0.0
 10
-11.39097866909573
 20
-8.794596218200239
 30
0.0
 10
-11.38776152679019
 20
-8.794225265130851
 30
0.0
 10
-11.3847733063794
 20
-8.793880707934393
 30
0.0
  0
SPLINE
  5
151
330
1F
100
AcDbEntity
  8
0
  6
Continuous
 62
     7
370
    25
100
AcDbSpline
210
0.0
220
0.0
230
1.0
 70
     8
 71
     3
 72
     8
 73
     4
 74
     0
 42
0.00000001
 43
0.00000001
 40
-0.1818181818181818
 40
-0.1818181818181818
 40
-0.1818181818181818
 40
-0.1818181818181818
 40
-0.0909090909090909
 40
-0.0909090909090909
 40
-0.0909090909090909
 40
-0.0909090909090909
 10
-11.36102551797031
 20
-8.78120387198989
 30
0.0
 10
-11.35612448230254
 20
-8.77837456432239
 30
0.0
 10
-11.35170113654905
 20
-8.773518376083093
 30
0.0
 10
-11.3492639751766
 20
-8.768487806100751
 30
0.0
  0
SPLINE
  5
152
330
1F
100
AcDbEntity
  8
0
  6
Continuous
 62
     7
370
    25
100
AcDbSpline
210
0.0
220
0.0
230
1.0
 70
     8
 71
     3
 72
    10
 73
     6
 74
     0
 42
0.00000001
 43
0.00000001
 40
0.0
 40
0.0
 40
0.0
 40
0.0
 40
0.065872160075561
 40
0.5075748122682879
 40
1.0
 40
1.0
 40
1.0
 40
1.0
 10
-11.3740569370321
 20
-8.782558686255019
 30
0.0
 10
-11.37387673563843
 20
-8.782757907244065
 30
0.0
 10
-11.37248820232697
 20
-8.78429299514762
 30
0.0
 10
-11.36782647687772
 20
-8.784251943303474
 30
0.0
 10
-11.36337310926332
 20
-8.782256021513753
 30
0.0
 10
-11.36102551797031
 20
-8.78120387198989
 30
0.0
  0
SPLINE
  5
156
330
1F
100
AcDbEntity
  8
0
  6
Continuous
 62
     7
370
    25
100
AcDbSpline
210
0.0
220
0.0
230
1.0
 70
     8
 71
     3
 72
    10
 73
     6
 74
     0
 42
0.00000001
 43
0.00000001
 40
0.0
 40
0.0
 40
0.0
 40
0.0
 40
0.1242293801613353
 40
0.5571435388538155
 40
1.0
 40
1.0
 40
1.0
 40
1.0
 10
-11.35224481483091
 20
-8.7461496780685
 30
0.0
 10
-11.3524607807617
 20
-8.745934336490539
 30
0.0
 10
-11.35342934409827
 20
-8.74496857324957
 30
0.0
 10
-11.35622273592206
 20
-8.744998481257767
 30
0.0
 10
-11.35876234682748
 20
-8.746117485952066
 30
0.0
 10
-11.3600465679155
 20
-8.746683340124035
 30
0.0
  0
SPLINE
  5
157
330
1F
100
AcDbEntity
  8
0
  6
Continuous
 62
     7
370
    25
100
AcDbSpline
210
0.0
220
0.0
230
1.0
 70
     8
 71
     3
 72
     8
 73
     4
 74
     0
 42
0.00000001
 43
0.00000001
 40
0.5
 40
0.5
 40
0.5
 40
0.5
 40
0.75
 40
0.75
 40
0.75
 40
0.75
 10
-11.3600465679155
 20
-8.746683340124035
 30
0.0
 10
-11.36625653680269
 20
-8.750268278855044
 30
0.0
 10
-11.37144198653141
 20
-8.759039255142948
 30
0.0
 10
-11.37144198653141
 20
-8.766210298006408
 30
0.0
  0
SPLINE
  5
158
330
1F
100
AcDbEntity
  8
0
  6
Continuous
 62
     7
370
    25
100
AcDbSpline
210
0.0
220
0.0
230
1.0
 70
     8
 71
     3
 72
     9
 73
     5
 74
     0
 42
0.00000001
 43
0.00000001
 40
0.0
 40
0.0
 40
0.0
 40
0.0
 40
0.5744846715225659
 40
1.0
 40
1.0
 40
1.0
 40
1.0
 10
-11.37144198653141
 20
-8.766210298006408
 30
0.0
 10
-11.37125497802735
 20
-8.768072188979628
 30
0.0
 10
-11.37092945410422
 20
-8.77131316487597
 30
0.0
 10
-11.36888515618372
 20
-8.77259964076995
 30
0.0
 10
-11.36801527608257
 20
-8.773147055982555
 30
0.0
  0
SPLINE
  5
15C
330
1F
100
AcDbEntity
  8
0
  6
Continuous
 62
     7
370
    25
100
AcDbSpline
210
0.0
220
0.0
230
1.0
 70
     8
 71
     3
 72
     8
 73
     4
 74
     0
 42
0.00000001
 43
0.00000001
 40
0.5
 40
0.5
 40
0.5
 40
0.5
 40
0.75
 40
0.75
 40
0.75
 40
0.75
 10
-11.35728443205149
 20
-8.748277887217439
 30
0.0
 10
-11.36349440093868
 20
-8.751862825948448
 30
0.0
 10
-11.3686798506674
 20
-8.760633802236352
 30
0.0
 10
-11.3686798506674
 20
-8.767804845099812
 30
0.0
  0
SPLINE
  5
15D
330
1F
100
AcDbEntity
  8
0
  6
Continuous
 62
     7
370
    25
100
AcDbSpline
210
0.0
220
0.0
230
1.0
 70
     8
 71
     3
 72
     8
 73
     4
 74
     0
 42
0.00000001
 43
0.00000001
 40
0.25
 40
0.25
 40
0.25
 40
0.25
 40
0.5
 40
0.5
 40
0.5
 40
0.5
 10
-11.34604457692738
 20
-8.75473777971001
 30
0.0
 10
-11.34604457692738
 20
-8.747566736846549
 30
0.0
 10
-11.35121745586887
 20
-8.7447754964177
 30
0.0
 10
-11.35728443205149
 20
-8.748277887217439
 30
0.0
  0
SPLINE
  5
15E
330
1F
100
AcDbEntity
  8
0
  6
Continuous
 62
     7
370
    25
100
AcDbSpline
210
0.0
220
0.0
230
1.0
 70
     8
 71
     3
 72
     8
 73
     4
 74
     0
 42
0.00000001
 43
0.00000001
 40
0.0
 40
0.0
 40
0.0
 40
0.0
 40
0.25
 40
0.25
 40
0.25
 40
0.25
 10
-11.35728443205149
 20
-8.774167674559616
 30
0.0
 10
-11.35121745586887
 20
-8.770665283759877
 30
0.0
 10
-11.34604457692738
 20
-8.76189430629242
 30
0.0
 10
-11.34604457692738
 20
-8.75473777971001
 30
0.0
  0
SPLINE
  5
15F
330
1F
100
AcDbEntity
  8
0
  6
Continuous
 62
     7
370
    25
100
AcDbSpline
210
0.0
220
0.0
230
1.0
 70
     8
 71
     3
 72
     8
 73
     4
 74
     0
 42
0.00000001
 43
0.00000001
 40
0.75
 40
0.75
 40
0.75
 40
0.75
 40
1.0
 40
1.0
 40
1.0
 40
1.0
 10
-11.3686798506674
 20
-8.767804845099812
 30
0.0
 10
-11.3686798506674
 20
-8.774961371682224
 30
0.0
 10
-11.36349440093868
 20
-8.777752613290625
 30
0.0
 10
-11.35728443205149
 20
-8.774167674559616
 30
0.0
  0
SPLINE
  5
166
330
1F
100
AcDbEntity
  8
0
  6
Continuous
 62
     7
370
    25
100
AcDbSpline
210
0.0
220
0.0
230
1.0
 70
     8
 71
     3
 72
    12
 73
     8
 74
     0
 42
0.00000001
 43
0.00000001
 40
0.0
 40
0.0
 40
0.0
 40
0.0
 40
0.2499999999999992
 40
0.2499999999999992
 40
0.4999999999999984
 40
0.4999999999999984
 40
1.0
 40
1.0
 40
1.0
 40
1.0
 10
-0.5192811912632601
 20
0.0639719496509586
 30
0.0
 10
-0.5192811715996105
 20
0.0671560336563942
 30
0.0
 10
-0.5187384461267898
 20
0.0705936841192612
 30
0.0
 10
-0.5166439176419735
 20
0.0776397769278618
 30
0.0
 10
-0.5150939513724051
 20
0.0812079458890273
 30
0.0
 10
-0.5093190591323606
 20
0.0912128125928883
 30
0.0
 10
-0.5039131560366232
 20
0.0969529211460767
 30
0.0
 10
-0.4983985321415562
 20
0.1001375388118472
 30
0.0
  0
SPLINE
  5
168
330
1F
100
AcDbEntity
  8
0
  6
Continuous
 62
     7
370
    25
100
AcDbSpline
210
0.0
220
0.0
230
1.0
 70
     8
 71
     3
 72
    10
 73
     6
 74
     0
 42
0.00000001
 43
0.00000001
 40
0.0
 40
0.0
 40
0.0
 40
0.0
 40
0.2843595463782014
 40
0.7161917825473206
 40
1.0
 40
1.0
 40
1.0
 40
1.0
 10
-0.5130366514365748
 20
-0.6766756755511204
 30
0.0
 10
-0.5141284123219865
 20
-0.6760396345811159
 30
0.0
 10
-0.5168781359890736
 20
-0.6744376932294627
 30
0.0
 10
-0.5189008929286191
 20
-0.6695306541554105
 30
0.0
 10
-0.5191730860465208
 20
-0.6652276013777033
 30
0.0
 10
-0.519281032213068
 20
-0.6635210995550834
 30
0.0
  0
SPLINE
  5
16F
330
1F
100
AcDbEntity
  8
0
  6
Continuous
 62
     7
370
    25
100
AcDbSpline
210
0.0
220
0.0
230
1.0
 70
     8
 71
     3
 72
    15
 73
    11
 74
     0
 42
0.00000001
 43
0.00000001
 40
0.0
 40
0.0
 40
0.0
 40
0.0
 40
0.190019678734163
 40
0.358967911612312
 40
0.5082472761621699
 40
0.6395682353558606
 40
0.7552909600756654
 40
0.8589251242998718
 40
0.955654204894097
 40
1.0
 40
1.0
 40
1.0
 40
1.0
 10
-0.5192815446647928
 20
0.0639717482837494
 30
0.0
 10
-0.4361377128715442
 20
0.0135289430583981
 30
0.0
 10
-0.2790699404119243
 20
-0.0817630212699025
 30
0.0
 10
-0.0586521969320241
 20
-0.217752045520881
 30
0.0
 10
0.1302208725852128
 20
-0.3413238440508102
 30
0.0
 10
0.2856028986470024
 20
-0.4556003540195695
 30
0.0
 10
0.4068627378572962
 20
-0.5639448954891488
 30
0.0
 10
0.4881356773247337
 20
-0.6699254248088641
 30
0.0
 10
0.5289561478022431
 20
-0.7580589794844141
 30
0.0
 10
0.5253147476643911
 20
-0.809854505300651
 30
0.0
 10
0.52417010171939
 20
-0.8261360278882146
 30
0.0
  0
SPLINE
  5
171
330
1F
100
AcDbEntity
  8
0
  6
Continuous
 62
     7
370
    25
100
AcDbSpline
210
0.0
220
0.0
230
1.0
 70
     8
 71
     3
 72
    12
 73
     8
 74
     0
 42
0.00000001
 43
0.00000001
 40
0.0
 40
0.0
 40
0.0
 40
0.0
 40
0.0133770970283025
 40
0.2159579301825487
 40
0.4462420998202706
 40
0.706868232828139
 40
1.0
 40
1.0
 40
1.0
 40
1.0
 10
0.29726613923289
 20
-1.197104267193525
 30
0.0
 10
0.2943536848613182
 20
-1.194407566930478
 30
0.0
 10
0.2473354404316571
 20
-1.150872425793485
 30
0.0
 10
0.1283550081673266
 20
-1.069498954772266
 30
0.0
 10
-0.0580529102370035
 20
-0.9450259997043251
 30
0.0
 10
-0.2792503970297478
 20
-0.8093220169437991
 30
0.0
 10
-0.4362001745205327
 20
-0.7139869184758985
 30
0.0
 10
-0.5192815456723879
 20
-0.6635212801918597
 30
0.0
  0
LINE
  5
175
330
1F
100
AcDbEntity
  8
0
  6
Continuous
 62
     7
370
    25
100
AcDbLine
 10
-13.5089575585
 20
-8.1205149834
 30
0.0
 11
-11.7620697428
 21
-9.1289718538
 31
0.0
  0
LINE
  5
176
330
1F
100
AcDbEntity
  8
0
  6
Continuous
 62
     7
370
    25
100
AcDbLine
 10
-11.5873628832
 20
-8.8745555339
 30
0.0
 11
-11.590815553
 21
-8.87256235
 31
0.0
  0
LINE
  5
177
330
1F
100
AcDbEntity
  8
0
  6
Continuous
 62
     7
370
    25
100
AcDbLine
 10
-11.5486569916
 20
-8.8771927644
 30
0.0
 11
-11.5452043218
 21
-8.8791859483
 31
0.0
  0
LINE
  5
178
330
1F
100
AcDbEntity
  8
0
  6
Continuous
 62
     7
370
    25
100
AcDbLine
 10
-11.5284264352
 20
-8.8513276431
 30
0.0
 11
-11.5318791051
 21
-8.8493344593
 31
0.0
  0
LINE
  5
179
330
1F
100
AcDbEntity
  8
0
  6
Continuous
 62
     7
370
    25
100
AcDbLine
 10
-11.5076371603
 20
-8.8548051345
 30
0.0
 11
-11.5041844904
 21
-8.8567983184
 31
0.0
  0
LINE
  5
17A
330
1F
100
AcDbEntity
  8
0
  6
Continuous
 62
     7
370
    25
100
AcDbLine
 10
-11.4513372882
 20
-8.8059896395
 30
0.0
 11
-11.454789958
 21
-8.8039964556
 31
0.0
  0
LINE
  5
17B
330
1F
100
AcDbEntity
  8
0
  6
Continuous
 62
     7
370
    25
100
AcDbLine
 10
-11.4698272209
 20
-8.8321773333
 30
0.0
 11
-11.466374551
 21
-8.8341705172
 31
0.0
  0
LINE
  5
17C
330
1F
100
AcDbEntity
  8
0
  6
Continuous
 62
     7
370
    25
100
AcDbLine
 10
-11.6095230857
 20
-9.1167897548
 30
0.0
 11
1.5667784479
 21
-1.5102727887
 31
0.0
  0
LINE
  5
17D
330
1F
100
AcDbEntity
  8
0
  6
Continuous
 62
     7
370
    25
100
AcDbLine
 10
-11.4286907335
 20
-8.8079369323
 30
0.0
 11
-11.4252380636
 21
-8.8099301162
 31
0.0
  0
LINE
  5
17E
330
1F
100
AcDbEntity
  8
0
  6
Continuous
 62
     7
370
    25
100
AcDbLine
 10
-11.3873494945
 20
-8.784321826
 30
0.0
 11
-11.3838968247
 21
-8.7863150099
 31
0.0
  0
LINE
  5
17F
330
1F
100
AcDbEntity
  8
0
  6
Continuous
 62
     7
370
    25
100
AcDbLine
 10
-11.3685084459
 20
-8.7731695361
 30
0.0
 11
-11.3650557761
 21
-8.7751627199
 31
0.0
  0
LINE
  5
180
330
1F
100
AcDbEntity
  8
0
  6
Continuous
 62
     7
370
    25
100
AcDbLine
 10
-11.3489957005
 20
-8.747732236
 30
0.0
 11
-11.3524483703
 21
-8.7457390521
 31
0.0
  0
LINE
  5
181
330
1F
100
AcDbEntity
  8
0
  6
Continuous
 62
     7
370
    25
100
AcDbLine
 10
-1.2038767345
 20
-2.1709234194
 30
0.0
 11
-9.1458579769
 21
-6.7557316003
 31
0.0
  0
LINE
  5
182
330
1F
100
AcDbEntity
  8
0
  6
Continuous
 62
     7
370
    25
100
AcDbLine
 10
0.5294160793
 20
-0.823208497
 30
0.0
 11
0.5260974374
 21
-0.8528196805
 31
0.0
  0
LINE
  5
183
330
1F
100
AcDbEntity
  8
0
  6
Continuous
 62
     7
370
    25
100
AcDbLine
 10
1.6897999455
 20
-0.7194532146
 30
0.0
 11
-0.0570878702
 21
0.2890036558
 31
0.0
  0
LINE
  5
184
330
1F
100
AcDbEntity
  8
0
  6
Continuous
 62
     7
370
    25
100
AcDbLine
 10
1.7555362375
 20
-1.183336093
 30
0.0
 11
1.7555362375
 21
-0.8576841865
 31
0.0
  0
LINE
  5
185
330
1F
100
AcDbEntity
  8
0
  6
Continuous
 62
     7
370
    25
100
AcDbLine
 10
-11.6242856654
 20
-8.3396141316
 30
0.0
 11
-13.3711734812
 21
-7.3311572612
 31
0.0
  0
LINE
  5
186
330
1F
100
AcDbEntity
  8
0
  6
Continuous
 62
     7
370
    25
100
AcDbLine
 10
-13.5660454287
 20
-7.6686853744
 30
0.0
 11
-11.819157613
 21
-8.6771422448
 31
0.0
  0
LINE
  5
187
330
1F
100
AcDbEntity
  8
0
  6
Continuous
 62
     7
370
    25
100
AcDbLine
 10
-11.6034065282
 20
-9.1032707152
 30
0.0
 11
1.5728950054
 21
-1.4967537491
 31
0.0
  0
LINE
  5
188
330
1F
100
AcDbEntity
  8
0
  6
Continuous
 62
     7
370
    25
100
AcDbLine
 10
-11.7773993385
 20
-8.6771422448
 30
0.0
 11
-11.7773993385
 21
-9.0027941512
 31
0.0
  0
LINE
  5
189
330
1F
100
AcDbEntity
  8
0
  6
Continuous
 62
     7
370
    25
100
AcDbLine
 10
1.5728950054
 20
-0.7692608919
 30
0.0
 11
-11.6034065282
 21
-8.375777858
 31
0.0
  0
LINE
  5
18A
330
1F
100
AcDbEntity
  8
0
  6
Continuous
 62
     7
370
    25
100
AcDbLine
 10
1.7468878157
 20
-1.1953893624
 30
0.0
 11
1.7468878157
 21
-0.8697374559
 31
0.0
  0
LINE
  5
18B
330
1F
100
AcDbEntity
  8
0
  6
Continuous
 62
     7
370
    25
100
AcDbLine
 10
-11.5143642751
 20
-8.8319558593
 30
0.0
 11
-11.5143642751
 21
-8.8550258591
 31
0.0
  0
LINE
  5
18C
330
1F
100
AcDbEntity
  8
0
  6
Continuous
 62
     7
370
    25
100
AcDbLine
 10
-11.4890781366
 20
-8.8528761931
 30
0.0
 11
-11.4889162877
 21
-8.8527827597
 31
0.0
  0
LINE
  5
18D
330
1F
100
AcDbEntity
  8
0
  6
Continuous
 62
     7
370
    25
100
AcDbLine
 10
-11.4889162877
 20
-8.8527827597
 30
0.0
 11
-11.4889162877
 21
-8.8549112094
 31
0.0
  0
LINE
  5
18E
330
1F
100
AcDbEntity
  8
0
  6
Continuous
 62
     7
370
    25
100
AcDbLine
 10
-11.5066599539
 20
-8.871434516
 30
0.0
 11
-11.513168479
 21
-8.8796374186
 31
0.0
  0
LINE
  5
18F
330
1F
100
AcDbEntity
  8
0
  6
Continuous
 62
     7
370
    25
100
AcDbLine
 10
-11.4816723716
 20
-8.8517382672
 30
0.0
 11
-11.4816723716
 21
-8.8130832252
 31
0.0
  0
LINE
  5
190
330
1F
100
AcDbEntity
  8
0
  6
Continuous
 62
     7
370
    25
100
AcDbLine
 10
-11.4816723716
 20
-8.8130832252
 30
0.0
 11
-11.4893735501
 21
-8.8175290209
 31
0.0
  0
LINE
  5
191
330
1F
100
AcDbEntity
  8
0
  6
Continuous
 62
     7
370
    25
100
AcDbLine
 10
-11.4893735501
 20
-8.8175290209
 30
0.0
 11
-11.4893735501
 21
-8.8400927653
 31
0.0
  0
LINE
  5
192
330
1F
100
AcDbEntity
  8
0
  6
Continuous
 62
     7
370
    25
100
AcDbLine
 10
-11.5066599539
 20
-8.8509230108
 30
0.0
 11
-11.5066599539
 21
-8.8275082494
 31
0.0
  0
LINE
  5
193
330
1F
100
AcDbEntity
  8
0
  6
Continuous
 62
     7
370
    25
100
AcDbLine
 10
-11.5066599539
 20
-8.8275082494
 30
0.0
 11
-11.5143642751
 21
-8.8319558593
 31
0.0
  0
LINE
  5
194
330
1F
100
AcDbEntity
  8
0
  6
Continuous
 62
     7
370
    25
100
AcDbLine
 10
-11.5739859476
 20
-8.8663747182
 30
0.0
 11
-11.5739859476
 21
-8.9062618296
 31
0.0
  0
LINE
  5
195
330
1F
100
AcDbEntity
  8
0
  6
Continuous
 62
     7
370
    25
100
AcDbLine
 10
-11.5739859476
 20
-8.9062618296
 30
0.0
 11
-11.5662894831
 21
-8.9018187552
 31
0.0
  0
LINE
  5
196
330
1F
100
AcDbEntity
  8
0
  6
Continuous
 62
     7
370
    25
100
AcDbLine
 10
-11.5662894831
 20
-8.9018187552
 30
0.0
 11
-11.5662894831
 21
-8.8754317853
 31
0.0
  0
LINE
  5
197
330
1F
100
AcDbEntity
  8
0
  6
Continuous
 62
     7
370
    25
100
AcDbLine
 10
-11.5580823304
 20
-8.8658400154
 30
0.0
 11
-11.5553686117
 21
-8.8557886526
 31
0.0
  0
LINE
  5
198
330
1F
100
AcDbEntity
  8
0
  6
Continuous
 62
     7
370
    25
100
AcDbLine
 10
-11.5665990387
 20
-8.8664797471
 30
0.0
 11
-11.566762459
 21
-8.8665740876
 31
0.0
  0
LINE
  5
199
330
1F
100
AcDbEntity
  8
0
  6
Continuous
 62
     7
370
    25
100
AcDbLine
 10
-11.566762459
 20
-8.8665740876
 30
0.0
 11
-11.566762459
 21
-8.862204687
 31
0.0
  0
LINE
  5
19A
330
1F
100
AcDbEntity
  8
0
  6
Continuous
 62
     7
370
    25
100
AcDbLine
 10
-11.566762459
 20
-8.862204687
 30
0.0
 11
-11.5739859476
 21
-8.8663747182
 31
0.0
  0
LINE
  5
19B
330
1F
100
AcDbEntity
  8
0
  6
Continuous
 62
     7
370
    25
100
AcDbLine
 10
-11.4416532705
 20
-8.8212197268
 30
0.0
 11
-11.4481633669
 21
-8.8209405848
 31
0.0
  0
LINE
  5
19C
330
1F
100
AcDbEntity
  8
0
  6
Continuous
 62
     7
370
    25
100
AcDbLine
 10
-11.4694441383
 20
-8.8289379661
 30
0.0
 11
-11.439725226
 21
-8.8117816032
 31
0.0
  0
LINE
  5
19D
330
1F
100
AcDbEntity
  8
0
  6
Continuous
 62
     7
370
    25
100
AcDbLine
 10
-11.439725226
 20
-8.8117816032
 30
0.0
 11
-11.439725226
 21
-8.8102011431
 31
0.0
  0
LINE
  5
19E
330
1F
100
AcDbEntity
  8
0
  6
Continuous
 62
     7
370
    25
100
AcDbLine
 10
-11.4172470871
 20
-8.7828935912
 30
0.0
 11
-11.4171716624
 21
-8.7747771826
 31
0.0
  0
LINE
  5
19F
330
1F
100
AcDbEntity
  8
0
  6
Continuous
 62
     7
370
    25
100
AcDbLine
 10
-11.4011187671
 20
-8.7978922374
 30
0.0
 11
-11.4078629944
 21
-8.7973363569
 31
0.0
  0
LINE
  5
1A0
330
1F
100
AcDbEntity
  8
0
  6
Continuous
 62
     7
370
    25
100
AcDbLine
 10
-11.4170129562
 20
-8.7747272977
 30
0.0
 11
-11.4098570356
 21
-8.7786927285
 31
0.0
  0
LINE
  5
1A1
330
1F
100
AcDbEntity
  8
0
  6
Continuous
 62
     7
370
    25
100
AcDbLine
 10
-11.4098570356
 20
-8.7786927285
 30
0.0
 11
-11.3936155785
 21
-8.7693167349
 31
0.0
  0
LINE
  5
1A2
330
1F
100
AcDbEntity
  8
0
  6
Continuous
 62
     7
370
    25
100
AcDbLine
 10
-11.3936155785
 20
-8.7693167349
 30
0.0
 11
-11.3936155785
 21
-8.7866255856
 31
0.0
  0
LINE
  5
1A3
330
1F
100
AcDbEntity
  8
0
  6
Continuous
 62
     7
370
    25
100
AcDbLine
 10
-11.3820111705
 20
-8.795475255
 30
0.0
 11
-11.3785982018
 21
-8.7867494758
 31
0.0
  0
LINE
  5
1A4
330
1F
100
AcDbEntity
  8
0
  6
Continuous
 62
     7
370
    25
100
AcDbLine
 10
-11.3785982018
 20
-8.7867494758
 30
0.0
 11
-11.3827434189
 21
-8.7865240845
 31
0.0
  0
LINE
  5
1A5
330
1F
100
AcDbEntity
  8
0
  6
Continuous
 62
     7
370
    25
100
AcDbLine
 10
-11.3859285421
 20
-8.7806056793
 30
0.0
 11
-11.3859285421
 21
-8.7648791032
 31
0.0
  0
LINE
  5
1A6
330
1F
100
AcDbEntity
  8
0
  6
Continuous
 62
     7
370
    25
100
AcDbLine
 10
-11.3859285421
 20
-8.7648791032
 30
0.0
 11
-11.3797782844
 21
-8.7613286351
 31
0.0
  0
LINE
  5
1A7
330
1F
100
AcDbEntity
  8
0
  6
Continuous
 62
     7
370
    25
100
AcDbLine
 10
-11.3797782844
 20
-8.7613286351
 30
0.0
 11
-11.3797782844
 21
-8.7532321793
 31
0.0
  0
LINE
  5
1A8
330
1F
100
AcDbEntity
  8
0
  6
Continuous
 62
     7
370
    25
100
AcDbLine
 10
-11.3797782844
 20
-8.7532321793
 30
0.0
 11
-11.3859285421
 21
-8.7567826474
 31
0.0
  0
LINE
  5
1A9
330
1F
100
AcDbEntity
  8
0
  6
Continuous
 62
     7
370
    25
100
AcDbLine
 10
-11.3859285421
 20
-8.7567826474
 30
0.0
 11
-11.3859285421
 21
-8.7438595282
 31
0.0
  0
LINE
  5
1AA
330
1F
100
AcDbEntity
  8
0
  6
Continuous
 62
     7
370
    25
100
AcDbLine
 10
-11.3859285421
 20
-8.7438595282
 30
0.0
 11
-11.3936155785
 21
-8.7506887172
 31
0.0
  0
LINE
  5
1AB
330
1F
100
AcDbEntity
  8
0
  6
Continuous
 62
     7
370
    25
100
AcDbLine
 10
-11.3936155785
 20
-8.7506887172
 30
0.0
 11
-11.3936155785
 21
-8.7612202791
 31
0.0
  0
LINE
  5
1AC
330
1F
100
AcDbEntity
  8
0
  6
Continuous
 62
     7
370
    25
100
AcDbLine
 10
-11.3936155785
 20
-8.7612202791
 30
0.0
 11
-11.4170129562
 21
-8.7747272977
 31
0.0
  0
LINE
  5
1AD
330
1F
100
AcDbEntity
  8
0
  6
Continuous
 62
     7
370
    25
100
AcDbLine
 10
-11.3463431331
 20
-8.7699907341
 30
0.0
 11
-11.3463431331
 21
-8.7748464301
 31
0.0
  0
LINE
  5
1AE
330
1F
100
AcDbEntity
  8
0
  6
Continuous
 62
     7
370
    25
100
AcDbLine
 10
-11.3463431331
 20
-8.7748464301
 30
0.0
 11
-11.3386576681
 21
-8.7704097056
 31
0.0
  0
LINE
  5
1AF
330
1F
100
AcDbEntity
  8
0
  6
Continuous
 62
     7
370
    25
100
AcDbLine
 10
-11.3386576681
 20
-8.7704097056
 30
0.0
 11
-11.3386576681
 21
-8.7305225942
 31
0.0
  0
LINE
  5
1B0
330
1F
100
AcDbEntity
  8
0
  6
Continuous
 62
     7
370
    25
100
AcDbLine
 10
-11.3386576681
 20
-8.7305225942
 30
0.0
 11
-11.3463431331
 21
-8.7349593187
 31
0.0
  0
LINE
  5
1B1
330
1F
100
AcDbEntity
  8
0
  6
Continuous
 62
     7
370
    25
100
AcDbLine
 10
-11.3463431331
 20
-8.7349593187
 30
0.0
 11
-11.3463431331
 21
-8.7398186438
 31
0.0
  0
LINE
  5
1B2
330
1F
100
AcDbEntity
  8
0
  6
Continuous
 62
     7
370
    25
100
AcDbLine
 10
-11.3463431331
 20
-8.7398186438
 30
0.0
 11
-11.3465018393
 21
-8.7399102629
 31
0.0
  0
LINE
  5
1B3
330
1F
100
AcDbEntity
  8
0
  6
Continuous
 62
     7
370
    25
100
AcDbLine
 10
-11.3465018393
 20
-8.7700823532
 30
0.0
 11
-11.3463431331
 21
-8.7699907341
 31
0.0
  0
LINE
  5
1B4
330
1F
100
AcDbEntity
  8
0
  6
Continuous
 62
     7
370
    25
100
AcDbLine
 10
-11.6159613774
 20
-8.9142953743
 30
0.0
 11
-11.6159613774
 21
-8.9306026016
 31
0.0
  0
LINE
  5
1B5
330
1F
100
AcDbEntity
  8
0
  6
Continuous
 62
     7
370
    25
100
AcDbLine
 10
-11.6159613774
 20
-8.9306026016
 30
0.0
 11
-11.6073833865
 21
-8.9256506328
 31
0.0
  0
LINE
  5
1B6
330
1F
100
AcDbEntity
  8
0
  6
Continuous
 62
     7
370
    25
100
AcDbLine
 10
-11.6073833865
 20
-8.9256506328
 30
0.0
 11
-11.6073833865
 21
-8.9093434056
 31
0.0
  0
LINE
  5
1B7
330
1F
100
AcDbEntity
  8
0
  6
Continuous
 62
     7
370
    25
100
AcDbLine
 10
-11.6073833865
 20
-8.9093434056
 30
0.0
 11
-11.5938430773
 21
-8.9015267514
 31
0.0
  0
LINE
  5
1B8
330
1F
100
AcDbEntity
  8
0
  6
Continuous
 62
     7
370
    25
100
AcDbLine
 10
-11.5938430773
 20
-8.8661070256
 30
0.0
 11
-11.6159613774
 21
-8.8788756484
 31
0.0
  0
LINE
  5
1B9
330
1F
100
AcDbEntity
  8
0
  6
Continuous
 62
     7
370
    25
100
AcDbLine
 10
-11.6159613774
 20
-8.8788756484
 30
0.0
 11
-11.6159613774
 21
-8.9052354004
 31
0.0
  0
LINE
  5
1BA
330
1F
100
AcDbEntity
  8
0
  6
Continuous
 62
     7
370
    25
100
AcDbLine
 10
-11.6159613774
 20
-8.9052354004
 30
0.0
 11
-11.6215003806
 21
-8.9084329988
 31
0.0
  0
LINE
  5
1BB
330
1F
100
AcDbEntity
  8
0
  6
Continuous
 62
     7
370
    25
100
AcDbLine
 10
-11.6215003806
 20
-8.9084329988
 30
0.0
 11
-11.6215003806
 21
-8.9174929728
 31
0.0
  0
LINE
  5
1BC
330
1F
100
AcDbEntity
  8
0
  6
Continuous
 62
     7
370
    25
100
AcDbLine
 10
-11.6215003806
 20
-8.9174929728
 30
0.0
 11
-11.6159613774
 21
-8.9142953743
 31
0.0
  0
LINE
  5
1BD
330
1F
100
AcDbEntity
  8
0
  6
Continuous
 62
     7
370
    25
100
AcDbLine
 10
-11.819157613
 20
-8.6771422448
 30
0.0
 11
-11.819157613
 21
-9.0027941512
 31
0.0
  0
LINE
  5
1BE
330
1F
100
AcDbEntity
  8
0
  6
Continuous
 62
     7
370
    25
100
AcDbLine
 10
1.5520158682
 20
-0.7330971655
 30
0.0
 11
-11.6242856654
 21
-8.3396141316
 31
0.0
  0
LINE
  5
1BF
330
1F
100
AcDbEntity
  8
0
  6
Continuous
 62
     7
370
    25
100
AcDbLine
 10
-0.1948719475
 20
0.2753597049
 30
0.0
 11
1.5520158682
 21
-0.7330971655
 31
0.0
  0
LINE
  5
1C0
330
1F
100
AcDbEntity
  8
0
  6
Continuous
 62
     7
370
    25
100
AcDbLine
 10
-13.3711734812
 20
-7.3311572612
 30
0.0
 11
-13.0676520987
 21
-7.1559380968
 31
0.0
  0
LINE
  5
1C1
330
1F
100
AcDbEntity
  8
0
  6
Continuous
 62
     7
370
    25
100
AcDbLine
 10
-9.1310953972
 20
-6.7571934521
 30
0.0
 11
-1.1891141548
 21
-2.1723852712
 31
0.0
  0
LINE
  5
1C2
330
1F
100
AcDbEntity
  8
0
  6
Continuous
 62
     7
370
    25
100
AcDbLine
 10
-0.4983985321
 20
0.1001375373
 30
0.0
 11
-0.1948719475
 21
0.2753597049
 31
0.0
  0
LINE
  5
1C3
330
1F
100
AcDbEntity
  8
0
  6
Continuous
 62
     7
370
    25
100
AcDbLine
 10
-11.819157613
 20
-9.0027941512
 30
0.0
 11
-13.5660454287
 21
-7.9943372808
 31
0.0
  0
LINE
  5
1C4
330
1F
100
AcDbEntity
  8
0
  6
Continuous
 62
     7
370
    25
100
AcDbLine
 10
-13.5660454287
 20
-7.9943372808
 30
0.0
 11
-13.5660454287
 21
-7.6686853744
 31
0.0
  0
LINE
  5
1C5
330
1F
100
AcDbEntity
  8
0
  6
Continuous
 62
     7
370
    25
100
AcDbLine
 10
-11.6101455224
 20
-8.9077488585
 30
0.0
 11
-11.5966052132
 21
-8.8999322044
 31
0.0
  0
LINE
  5
1C6
330
1F
100
AcDbEntity
  8
0
  6
Continuous
 62
     7
370
    25
100
AcDbLine
 10
-11.6101455224
 20
-8.9240560857
 30
0.0
 11
-11.6101455224
 21
-8.9077488585
 31
0.0
  0
LINE
  5
1C7
330
1F
100
AcDbEntity
  8
0
  6
Continuous
 62
     7
370
    25
100
AcDbLine
 10
-11.6159613774
 20
-8.9274135074
 30
0.0
 11
-11.6101455224
 21
-8.9240560857
 31
0.0
  0
LINE
  5
1C8
330
1F
100
AcDbEntity
  8
0
  6
Continuous
 62
     7
370
    25
100
AcDbLine
 10
-11.6215003806
 20
-8.9143038786
 30
0.0
 11
-11.6187235133
 21
-8.9127008272
 31
0.0
  0
LINE
  5
1C9
330
1F
100
AcDbEntity
  8
0
  6
Continuous
 62
     7
370
    25
100
AcDbLine
 10
-11.6101455224
 20
-8.8813945501
 30
0.0
 11
-11.6101455224
 21
-8.8986888845
 31
0.0
  0
LINE
  5
1CA
330
1F
100
AcDbEntity
  8
0
  6
Continuous
 62
     7
370
    25
100
AcDbLine
 10
-11.5972683222
 20
-8.8739607007
 30
0.0
 11
-11.6101455224
 21
-8.8813945501
 31
0.0
  0
LINE
  5
1CB
330
1F
100
AcDbEntity
  8
0
  6
Continuous
 62
     7
370
    25
100
AcDbLine
 10
-11.6101455224
 20
-8.8813945501
 30
0.0
 11
-11.6073833865
 21
-8.8829890972
 31
0.0
  0
LINE
  5
1CC
330
1F
100
AcDbEntity
  8
0
  6
Continuous
 62
     7
370
    25
100
AcDbLine
 10
-11.5972683222
 20
-8.8739607007
 30
0.0
 11
-11.5945061864
 21
-8.8755552478
 31
0.0
  0
LINE
  5
1CD
330
1F
100
AcDbEntity
  8
0
  6
Continuous
 62
     7
370
    25
100
AcDbLine
 10
-11.5945061864
 20
-8.8755552478
 30
0.0
 11
-11.6073833865
 21
-8.8829890972
 31
0.0
  0
LINE
  5
1CE
330
1F
100
AcDbEntity
  8
0
  6
Continuous
 62
     7
370
    25
100
AcDbLine
 10
-11.6101455224
 20
-8.8986888845
 30
0.0
 11
-11.6073833865
 21
-8.9002834316
 31
0.0
  0
LINE
  5
1CF
330
1F
100
AcDbEntity
  8
0
  6
Continuous
 62
     7
370
    25
100
AcDbLine
 10
-11.6073833865
 20
-8.8829890972
 30
0.0
 11
-11.6073833865
 21
-8.9002834316
 31
0.0
  0
LINE
  5
1D0
330
1F
100
AcDbEntity
  8
0
  6
Continuous
 62
     7
370
    25
100
AcDbLine
 10
-11.6073833865
 20
-8.9002834316
 30
0.0
 11
-11.5945061864
 21
-8.8928495822
 31
0.0
  0
LINE
  5
1D1
330
1F
100
AcDbEntity
  8
0
  6
Continuous
 62
     7
370
    25
100
AcDbLine
 10
-11.5798954943
 20
-8.8725778405
 30
0.0
 11
-11.5771333584
 21
-8.8741723876
 31
0.0
  0
LINE
  5
1D2
330
1F
100
AcDbEntity
  8
0
  6
Continuous
 62
     7
370
    25
100
AcDbLine
 10
-11.6187235133
 20
-8.9127008272
 30
0.0
 11
-11.6159613774
 21
-8.9142953743
 31
0.0
  0
LINE
  5
1D3
330
1F
100
AcDbEntity
  8
0
  6
Continuous
 62
     7
370
    25
100
AcDbLine
 10
-11.5966052132
 20
-8.8999322044
 30
0.0
 11
-11.5938430773
 21
-8.9015267514
 31
0.0
  0
LINE
  5
1D4
330
1F
100
AcDbEntity
  8
0
  6
Continuous
 62
     7
370
    25
100
AcDbLine
 10
-11.6101455224
 20
-8.9240560857
 30
0.0
 11
-11.6073833865
 21
-8.9256506328
 31
0.0
  0
LINE
  5
1D5
330
1F
100
AcDbEntity
  8
0
  6
Continuous
 62
     7
370
    25
100
AcDbLine
 10
-11.6101455224
 20
-8.9077488585
 30
0.0
 11
-11.6073833865
 21
-8.9093434056
 31
0.0
  0
LINE
  5
1D6
330
1F
100
AcDbEntity
  8
0
  6
Continuous
 62
     7
370
    25
100
AcDbLine
 10
-11.5695245948
 20
-8.8649795405
 30
0.0
 11
-11.5695245948
 21
-8.8637992341
 31
0.0
  0
LINE
  5
1D7
330
1F
100
AcDbEntity
  8
0
  6
Continuous
 62
     7
370
    25
100
AcDbLine
 10
-11.5608444662
 20
-8.8642454683
 30
0.0
 11
-11.5587890562
 21
-8.8566324197
 31
0.0
  0
LINE
  5
1D8
330
1F
100
AcDbEntity
  8
0
  6
Continuous
 62
     7
370
    25
100
AcDbLine
 10
-11.569051619
 20
-8.9002242081
 30
0.0
 11
-11.569051619
 21
-8.8738372382
 31
0.0
  0
LINE
  5
1D9
330
1F
100
AcDbEntity
  8
0
  6
Continuous
 62
     7
370
    25
100
AcDbLine
 10
-11.5739859476
 20
-8.9030727354
 30
0.0
 11
-11.569051619
 21
-8.9002242081
 31
0.0
  0
LINE
  5
1DA
330
1F
100
AcDbEntity
  8
0
  6
Continuous
 62
     7
370
    25
100
AcDbLine
 10
-11.5695245948
 20
-8.8649795405
 30
0.0
 11
-11.566762459
 21
-8.8665740876
 31
0.0
  0
LINE
  5
1DB
330
1F
100
AcDbEntity
  8
0
  6
Continuous
 62
     7
370
    25
100
AcDbLine
 10
-11.569051619
 20
-8.8738372382
 30
0.0
 11
-11.5662894831
 21
-8.8754317853
 31
0.0
  0
LINE
  5
1DC
330
1F
100
AcDbEntity
  8
0
  6
Continuous
 62
     7
370
    25
100
AcDbLine
 10
-11.5637498894
 20
-8.8647596164
 30
0.0
 11
-11.5609877536
 21
-8.8663541635
 31
0.0
  0
LINE
  5
1DD
330
1F
100
AcDbEntity
  8
0
  6
Continuous
 62
     7
370
    25
100
AcDbLine
 10
-11.5608444662
 20
-8.8642454683
 30
0.0
 11
-11.5580823304
 21
-8.8658400154
 31
0.0
  0
LINE
  5
1DE
330
1F
100
AcDbEntity
  8
0
  6
Continuous
 62
     7
370
    25
100
AcDbLine
 10
-11.569051619
 20
-8.9002242081
 30
0.0
 11
-11.5662894831
 21
-8.9018187552
 31
0.0
  0
LINE
  5
1DF
330
1F
100
AcDbEntity
  8
0
  6
Continuous
 62
     7
370
    25
100
AcDbLine
 10
-11.5515279416
 20
-8.870171707
 30
0.0
 11
-11.5487658057
 21
-8.8717662541
 31
0.0
  0
LINE
  5
1E0
330
1F
100
AcDbEntity
  8
0
  6
Continuous
 62
     7
370
    25
100
AcDbLine
 10
-11.5399093915
 20
-8.850515938
 30
0.0
 11
-11.5371472556
 21
-8.8521104851
 31
0.0
  0
LINE
  5
1E1
330
1F
100
AcDbEntity
  8
0
  6
Continuous
 62
     7
370
    25
100
AcDbLine
 10
-11.5399093915
 20
-8.8844713341
 30
0.0
 11
-11.5371472556
 21
-8.8860658811
 31
0.0
  0
LINE
  5
1E2
330
1F
100
AcDbEntity
  8
0
  6
Continuous
 62
     7
370
    25
100
AcDbLine
 10
-11.5201685415
 20
-8.8520683106
 30
0.0
 11
-11.5174064056
 21
-8.8536628577
 31
0.0
  0
LINE
  5
1E3
330
1F
100
AcDbEntity
  8
0
  6
Continuous
 62
     7
370
    25
100
AcDbLine
 10
-11.5094220898
 20
-8.8493284637
 30
0.0
 11
-11.5094220898
 21
-8.8291027965
 31
0.0
  0
LINE
  5
1E4
330
1F
100
AcDbEntity
  8
0
  6
Continuous
 62
     7
370
    25
100
AcDbLine
 10
-11.4844345075
 20
-8.8501437201
 30
0.0
 11
-11.4844345075
 21
-8.8146777723
 31
0.0
  0
LINE
  5
1E5
330
1F
100
AcDbEntity
  8
0
  6
Continuous
 62
     7
370
    25
100
AcDbLine
 10
-11.4918402725
 20
-8.851281646
 30
0.0
 11
-11.4916784236
 21
-8.8511882126
 31
0.0
  0
LINE
  5
1E6
330
1F
100
AcDbEntity
  8
0
  6
Continuous
 62
     7
370
    25
100
AcDbLine
 10
-11.5094220898
 20
-8.8493284637
 30
0.0
 11
-11.5066599539
 21
-8.8509230108
 31
0.0
  0
LINE
  5
1E7
330
1F
100
AcDbEntity
  8
0
  6
Continuous
 62
     7
370
    25
100
AcDbLine
 10
-11.5026322933
 20
-8.8629517233
 30
0.0
 11
-11.4998701575
 21
-8.8645462704
 31
0.0
  0
LINE
  5
1E8
330
1F
100
AcDbEntity
  8
0
  6
Continuous
 62
     7
370
    25
100
AcDbLine
 10
-11.4844345075
 20
-8.8501437201
 30
0.0
 11
-11.4816723716
 21
-8.8517382672
 31
0.0
  0
LINE
  5
1E9
330
1F
100
AcDbEntity
  8
0
  6
Continuous
 62
     7
370
    25
100
AcDbLine
 10
-11.4424873619
 20
-8.8101870561
 30
0.0
 11
-11.4424873619
 21
-8.808606596
 31
0.0
  0
LINE
  5
1EA
330
1F
100
AcDbEntity
  8
0
  6
Continuous
 62
     7
370
    25
100
AcDbLine
 10
-11.4722062742
 20
-8.827343419
 30
0.0
 11
-11.4424873619
 21
-8.8101870561
 31
0.0
  0
LINE
  5
1EB
330
1F
100
AcDbEntity
  8
0
  6
Continuous
 62
     7
370
    25
100
AcDbLine
 10
-11.5007749595
 20
-8.877119788
 30
0.0
 11
-11.4980128236
 21
-8.8787143351
 31
0.0
  0
LINE
  5
1EC
330
1F
100
AcDbEntity
  8
0
  6
Continuous
 62
     7
370
    25
100
AcDbLine
 10
-11.4918402725
 20
-8.851281646
 30
0.0
 11
-11.4890781366
 21
-8.8528761931
 31
0.0
  0
LINE
  5
1ED
330
1F
100
AcDbEntity
  8
0
  6
Continuous
 62
     7
370
    25
100
AcDbLine
 10
-11.4694441383
 20
-8.8218522064
 30
0.0
 11
-11.448758908
 21
-8.809910877
 31
0.0
  0
LINE
  5
1EE
330
1F
100
AcDbEntity
  8
0
  6
Continuous
 62
     7
370
    25
100
AcDbLine
 10
-11.4722062742
 20
-8.8202576593
 30
0.0
 11
-11.4694441383
 21
-8.8218522064
 31
0.0
  0
LINE
  5
1EF
330
1F
100
AcDbEntity
  8
0
  6
Continuous
 62
     7
370
    25
100
AcDbLine
 10
-11.4620867905
 20
-8.8051072404
 30
0.0
 11
-11.4593246546
 21
-8.8067017875
 31
0.0
  0
LINE
  5
1F0
330
1F
100
AcDbEntity
  8
0
  6
Continuous
 62
     7
370
    25
100
AcDbLine
 10
-11.4610559859
 20
-8.838950232
 30
0.0
 11
-11.4582938501
 21
-8.8405447791
 31
0.0
  0
LINE
  5
1F1
330
1F
100
AcDbEntity
  8
0
  6
Continuous
 62
     7
370
    25
100
AcDbLine
 10
-11.4424873619
 20
-8.808606596
 30
0.0
 11
-11.439725226
 21
-8.8102011431
 31
0.0
  0
LINE
  5
1F2
330
1F
100
AcDbEntity
  8
0
  6
Continuous
 62
     7
370
    25
100
AcDbLine
 10
-11.4916784236
 20
-8.8511882126
 30
0.0
 11
-11.4889162877
 21
-8.8527827597
 31
0.0
  0
LINE
  5
1F3
330
1F
100
AcDbEntity
  8
0
  6
Continuous
 62
     7
370
    25
100
AcDbLine
 10
-11.4722062742
 20
-8.827343419
 30
0.0
 11
-11.4694441383
 21
-8.8289379661
 31
0.0
  0
LINE
  5
1F4
330
1F
100
AcDbEntity
  8
0
  6
Continuous
 62
     7
370
    25
100
AcDbLine
 10
-11.4424873619
 20
-8.8101870561
 30
0.0
 11
-11.439725226
 21
-8.8117816032
 31
0.0
  0
LINE
  5
1F5
330
1F
100
AcDbEntity
  8
0
  6
Continuous
 62
     7
370
    25
100
AcDbLine
 10
-11.420009223
 20
-8.7812990441
 30
0.0
 11
-11.41996776
 21
-8.7768372382
 31
0.0
  0
LINE
  5
1F6
330
1F
100
AcDbEntity
  8
0
  6
Continuous
 62
     7
370
    25
100
AcDbLine
 10
-11.3886906779
 20
-8.7551881004
 30
0.0
 11
-11.3886906779
 21
-8.746313419
 31
0.0
  0
LINE
  5
1F7
330
1F
100
AcDbEntity
  8
0
  6
Continuous
 62
     7
370
    25
100
AcDbLine
 10
-11.3825404203
 20
-8.759734088
 30
0.0
 11
-11.3825404203
 21
-8.7548267264
 31
0.0
  0
LINE
  5
1F8
330
1F
100
AcDbEntity
  8
0
  6
Continuous
 62
     7
370
    25
100
AcDbLine
 10
-11.3886906779
 20
-8.7632845561
 30
0.0
 11
-11.3825404203
 21
-8.759734088
 31
0.0
  0
LINE
  5
1F9
330
1F
100
AcDbEntity
  8
0
  6
Continuous
 62
     7
370
    25
100
AcDbLine
 10
-11.3886906779
 20
-8.7790111322
 30
0.0
 11
-11.3886906779
 21
-8.7632845561
 31
0.0
  0
LINE
  5
1FA
330
1F
100
AcDbEntity
  8
0
  6
Continuous
 62
     7
370
    25
100
AcDbLine
 10
-11.3847733064
 20
-8.7938807079
 30
0.0
 11
-11.3819135142
 21
-8.7865692096
 31
0.0
  0
LINE
  5
1FB
330
1F
100
AcDbEntity
  8
0
  6
Continuous
 62
     7
370
    25
100
AcDbLine
 10
-11.4126191714
 20
-8.7770981814
 30
0.0
 11
-11.3963777143
 21
-8.7677221878
 31
0.0
  0
LINE
  5
1FC
330
1F
100
AcDbEntity
  8
0
  6
Continuous
 62
     7
370
    25
100
AcDbLine
 10
-11.4169564631
 20
-8.774694685
 30
0.0
 11
-11.4126191714
 21
-8.7770981814
 31
0.0
  0
LINE
  5
1FD
330
1F
100
AcDbEntity
  8
0
  6
Continuous
 62
     7
370
    25
100
AcDbLine
 10
-11.4315602051
 20
-8.8009158068
 30
0.0
 11
-11.4287980692
 21
-8.8025103539
 31
0.0
  0
LINE
  5
1FE
330
1F
100
AcDbEntity
  8
0
  6
Continuous
 62
     7
370
    25
100
AcDbLine
 10
-11.420009223
 20
-8.7812990441
 30
0.0
 11
-11.4172470871
 21
-8.7828935912
 31
0.0
  0
LINE
  5
1FF
330
1F
100
AcDbEntity
  8
0
  6
Continuous
 62
     7
370
    25
100
AcDbLine
 10
-11.4199337982
 20
-8.8152108983
 30
0.0
 11
-11.4171716624
 21
-8.8168054454
 31
0.0
  0
LINE
  5
200
330
1F
100
AcDbEntity
  8
0
  6
Continuous
 62
     7
370
    25
100
AcDbLine
 10
-11.4126191714
 20
-8.7770981814
 30
0.0
 11
-11.4098570356
 21
-8.7786927285
 31
0.0
  0
LINE
  5
201
330
1F
100
AcDbEntity
  8
0
  6
Continuous
 62
     7
370
    25
100
AcDbLine
 10
-11.3963777143
 20
-8.7677221878
 30
0.0
 11
-11.3936155785
 21
-8.7693167349
 31
0.0
  0
LINE
  5
202
330
1F
100
AcDbEntity
  8
0
  6
Continuous
 62
     7
370
    25
100
AcDbLine
 10
-11.3886906779
 20
-8.7551881004
 30
0.0
 11
-11.3859285421
 21
-8.7567826474
 31
0.0
  0
LINE
  5
203
330
1F
100
AcDbEntity
  8
0
  6
Continuous
 62
     7
370
    25
100
AcDbLine
 10
-11.3825404203
 20
-8.759734088
 30
0.0
 11
-11.3797782844
 21
-8.7613286351
 31
0.0
  0
LINE
  5
204
330
1F
100
AcDbEntity
  8
0
  6
Continuous
 62
     7
370
    25
100
AcDbLine
 10
-11.3886906779
 20
-8.7632845561
 30
0.0
 11
-11.3859285421
 21
-8.7648791032
 31
0.0
  0
LINE
  5
205
330
1F
100
AcDbEntity
  8
0
  6
Continuous
 62
     7
370
    25
100
AcDbLine
 10
-11.3886906779
 20
-8.7790111322
 30
0.0
 11
-11.3859285421
 21
-8.7806056793
 31
0.0
  0
LINE
  5
206
330
1F
100
AcDbEntity
  8
0
  6
Continuous
 62
     7
370
    25
100
AcDbLine
 10
-11.341419804
 20
-8.7688151585
 30
0.0
 11
-11.341419804
 21
-8.7321171413
 31
0.0
  0
LINE
  5
207
330
1F
100
AcDbEntity
  8
0
  6
Continuous
 62
     7
370
    25
100
AcDbLine
 10
-11.3463431331
 20
-8.7716573359
 30
0.0
 11
-11.341419804
 21
-8.7688151585
 31
0.0
  0
LINE
  5
208
330
1F
100
AcDbEntity
  8
0
  6
Continuous
 62
     7
370
    25
100
AcDbLine
 10
-11.3492639752
 20
-8.7684878061
 30
0.0
 11
-11.349105269
 21
-8.768396187
 31
0.0
  0
LINE
  5
209
330
1F
100
AcDbEntity
  8
0
  6
Continuous
 62
     7
370
    25
100
AcDbLine
 10
-11.3847733064
 20
-8.7938807079
 30
0.0
 11
-11.3820111705
 21
-8.795475255
 31
0.0
  0
LINE
  5
20A
330
1F
100
AcDbEntity
  8
0
  6
Continuous
 62
     7
370
    25
100
AcDbLine
 10
-11.3714419865
 20
-8.766210298
 30
0.0
 11
-11.3686798507
 21
-8.7678048451
 31
0.0
  0
LINE
  5
20B
330
1F
100
AcDbEntity
  8
0
  6
Continuous
 62
     7
370
    25
100
AcDbLine
 10
-11.3600465679
 20
-8.7466833401
 30
0.0
 11
-11.3572844321
 21
-8.7482778872
 31
0.0
  0
LINE
  5
20C
330
1F
100
AcDbEntity
  8
0
  6
Continuous
 62
     7
370
    25
100
AcDbLine
 10
-11.361025518
 20
-8.781203872
 30
0.0
 11
-11.3582633821
 21
-8.7827984191
 31
0.0
  0
LINE
  5
20D
330
1F
100
AcDbEntity
  8
0
  6
Continuous
 62
     7
370
    25
100
AcDbLine
 10
-11.3492639752
 20
-8.7383157158
 30
0.0
 11
-11.3465018393
 21
-8.7399102629
 31
0.0
  0
LINE
  5
20E
330
1F
100
AcDbEntity
  8
0
  6
Continuous
 62
     7
370
    25
100
AcDbLine
 10
-11.341419804
 20
-8.7688151585
 30
0.0
 11
-11.3386576681
 21
-8.7704097056
 31
0.0
  0
LINE
  5
20F
330
1F
100
AcDbEntity
  8
0
  6
Continuous
 62
     7
370
    25
100
AcDbLine
 10
-11.3492639752
 20
-8.7684878061
 30
0.0
 11
-11.3465018393
 21
-8.7700823532
 31
0.0
  0
LINE
  5
210
330
1F
100
AcDbEntity
  8
0
  6
Continuous
 62
     7
370
    25
100
AcDbLine
 10
-11.349105269
 20
-8.768396187
 30
0.0
 11
-11.3463431331
 21
-8.7699907341
 31
0.0
  0
LINE
  5
211
330
1F
100
AcDbEntity
  8
0
  6
Continuous
 62
     7
370
    25
100
AcDbLine
 10
0.5241701017
 20
-0.8261360279
 30
0.0
 11
0.5233889902
 21
-0.8769862911
 31
0.0
  0
LINE
  5
212
330
1F
100
AcDbEntity
  8
0
  6
Continuous
 62
     7
370
    25
100
AcDbLine
 10
-0.5192815424
 20
-0.6635213941
 30
0.0
 11
-0.5192815424
 21
0.0639717469
 31
0.0
  0
ARC
  5
213
330
1F
100
AcDbEntity
  8
0
  6
Continuous
 62
     7
370
    25
100
AcDbCircle
 10
-11.7982784758
 20
-8.6368456576
 30
0.0
 40
0.0453845051548782
100
AcDbArc
 50
242.6096722366
 51
297.3903277634
  0
ARC
  5
214
330
1F
100
AcDbEntity
  8
0
  6
Continuous
 62
     7
370
    25
100
AcDbCircle
 10
-11.3960665614
 20
-8.6963952356
 30
0.0
 40
0.4235288839765445
100
AcDbArc
 50
122.60547834
 51
177.3945215143
  0
ARC
  5
215
330
1F
100
AcDbEntity
  8
0
  6
Continuous
 62
     7
370
    25
100
AcDbCircle
 10
-11.6487377123
 20
-8.3778406785
 30
0.0
 40
0.0453780947117788
100
AcDbArc
 50
2.6054784857
 51
57.39452166
  0
ARC
  5
216
330
1F
100
AcDbEntity
  8
0
  6
Continuous
 62
     7
370
    25
100
AcDbCircle
 10
-13.1429543772
 20
-7.6879383651
 30
0.0
 40
0.4235288839765513
100
AcDbArc
 50
122.60547834
 51
177.3945215143
  0
ARC
  5
217
330
1F
100
AcDbEntity
  8
0
  6
Continuous
 62
     7
370
    25
100
AcDbCircle
 10
-11.7982784758
 20
-8.9624975641
 30
0.0
 40
0.045384505154879
100
AcDbArc
 50
242.6096722366
 51
297.3903277634
  0
ARC
  5
218
330
1F
100
AcDbEntity
  8
0
  6
Continuous
 62
     7
370
    25
100
AcDbCircle
 10
1.5275638213
 20
-0.7713237124
 30
0.0
 40
0.04537809471177
100
AcDbArc
 50
2.6054784857
 51
57.39452166
  0
ARC
  5
219
330
1F
100
AcDbEntity
  8
0
  6
Continuous
 62
     7
370
    25
100
AcDbCircle
 10
-13.4349509842
 20
-8.0110281549
 30
0.0
 40
0.1321527096307904
100
AcDbArc
 50
172.7441704352
 51
235.9436491714
  0
ARC
  5
21A
330
1F
100
AcDbEntity
  8
0
  6
Continuous
 62
     7
370
    25
100
AcDbCircle
 10
-0.1141459482
 20
0.1626758742
 30
0.0
 40
0.1386157735032993
100
AcDbArc
 50
65.6928809325
 51
125.6175775179
  0
ARC
  5
21B
330
1F
100
AcDbEntity
  8
0
  6
Continuous
 62
     7
370
    25
100
AcDbCircle
 10
-11.618218927
 20
-9.1047202687
 30
0.0
 40
0.0148831570647356
100
AcDbArc
 50
306.0548711409
 51
5.589215198
  0
ARC
  5
21C
330
1F
100
AcDbEntity
  8
0
  6
Continuous
 62
     7
370
    25
100
AcDbCircle
 10
-11.6811247098
 20
-9.0163623775
 30
0.0
 40
0.1386981583848322
100
AcDbArc
 50
174.3860292221
 51
234.2284502047
  0
ARC
  5
21D
330
1F
100
AcDbEntity
  8
0
  6
Continuous
 62
     7
370
    25
100
AcDbCircle
 10
-9.1397445908
 20
-6.7692666622
 30
0.0
 40
0.014851631233548
100
AcDbArc
 50
54.3823580675
 51
114.3078590296
  0
ARC
  5
21E
330
1F
100
AcDbEntity
  8
0
  6
Continuous
 62
     7
370
    25
100
AcDbCircle
 10
1.5588491721
 20
-1.4985420571
 30
0.0
 40
0.0141592188895618
100
AcDbArc
 50
304.0563508299
 51
7.2558295637
  0
ARC
  5
21F
330
1F
100
AcDbEntity
  8
0
  6
Continuous
 62
     7
370
    25
100
AcDbCircle
 10
-1.1977633694
 20
-2.1844585427
 30
0.0
 40
0.0148516934143515
100
AcDbArc
 50
54.3824300376
 51
114.3071115319
  0
ARC
  5
220
330
1F
100
AcDbEntity
  8
0
  6
Continuous
 62
     7
370
    25
100
AcDbCircle
 10
1.6324063909
 20
-0.8425253861
 30
0.0
 40
0.1357835468863581
100
AcDbArc
 50
64.9345216856
 51
126.3025516988
  0
ARC
  5
221
330
1F
100
AcDbEntity
  8
0
  6
Continuous
 62
     7
370
    25
100
AcDbCircle
 10
1.7407288454
 20
-0.8561749873
 30
0.0
 40
0.0148954177662657
100
AcDbArc
 50
294.4236859892
 51
353.7446937474
  0
ARC
  5
222
330
1F
100
AcDbEntity
  8
0
  6
Continuous
 62
     7
370
    25
100
AcDbCircle
 10
1.7407589621
 20
-1.1818624795
 30
0.0
 40
0.0148505692468625
100
AcDbArc
 50
294.3746582936
 51
354.3052007488
  0
ENDSEC
  0
SECTION
  2
OBJECTS
  0
DICTIONARY
  5
C
330
0
100
AcDbDictionary
281
     1
  3
ACAD_GROUP
350
D
  3
ACAD_LAYOUT
350
1A
  3
ACAD_MLINESTYLE
350
17
  3
ACAD_PLOTSETTINGS
350
19
  3
ACAD_PLOTSTYLENAME
350
E
  3
ACAD_SCALELIST
350
47
  3
DWGPROPS
350
223
  0
DICTIONARY
  5
D
102
{ACAD_REACTORS
330
C
102
}
330
C
100
AcDbDictionary
281
     1
  0
DICTIONARY
  5
1A
102
{ACAD_REACTORS
330
C
102
}
330
C
100
AcDbDictionary
281
     1
  3
Layout1
350
1E
  3
Layout2
350
26
  3
Model
350
22
  0
DICTIONARY
  5
17
102
{ACAD_REACTORS
330
C
102
}
330
C
100
AcDbDictionary
281
     1
  3
Standard
350
18
  0
DICTIONARY
  5
19
102
{ACAD_REACTORS
330
C
102
}
330
C
100
AcDbDictionary
281
     1
  0
ACDBDICTIONARYWDFLT
  5
E
102
{ACAD_REACTORS
330
C
102
}
330
C
100
AcDbDictionary
281
     1
  3
Normal
350
F
100
AcDbDictionaryWithDefault
340
F
  0
DICTIONARY
  5
47
102
{ACAD_REACTORS
330
C
102
}
330
C
100
AcDbDictionary
281
     1
  3
A0
350
48
  3
A1
350
49
  3
A2
350
4A
  3
A3
350
4B
  3
A4
350
4C
  3
A5
350
4D
  3
A6
350
4E
  3
A7
350
4F
  3
A8
350
50
  3
A9
350
51
  3
B1
350
52
  3
B2
350
53
  3
B3
350
54
  3
B4
350
55
  3
B5
350
56
  3
B6
350
57
  3
B7
350
58
  0
XRECORD
  5
223
102
{ACAD_REACTORS
330
C
102
}
330
C
100
AcDbXrecord
280
     1
  1
DWGPROPS COOKIE
  2

  3

  4

  6

  7

  8
Alan Ramirez
  9

300
=
301
=
302
=
303
=
304
=
305
=
306
=
307
=
308
=
309
=
 40
0.0
 41
2460425.671271007
 42
2460425.671300174
  1

 90
        0
  0
LAYOUT
  5
1E
102
{ACAD_REACTORS
330
1A
102
}
330
1A
100
AcDbPlotSettings
  1

  2
none_device
  4

  6

 40
0.0
 41
0.0
 42
0.0
 43
0.0
 44
0.0
 45
0.0
 46
0.0
 47
0.0
 48
0.0
 49
0.0
140
0.0
141
0.0
142
1.0
143
1.0
 70
   688
 72
     0
 73
     0
 74
     5
  7

 75
    16
147
1.0
148
0.0
149
0.0
100
AcDbLayout
  1
Layout1
 70
     1
 71
     1
 10
0.0
 20
0.0
 11
12.0
 21
9.0
 12
0.0
 22
0.0
 32
0.0
 14
1.0000000000E+20
 24
1.0000000000E+20
 34
1.0000000000E+20
 15
-1.0000000000E+20
 25
-1.0000000000E+20
 35
-1.0000000000E+20
146
0.0
 13
0.0
 23
0.0
 33
0.0
 16
1.0
 26
0.0
 36
0.0
 17
0.0
 27
1.0
 37
0.0
 76
     0
330
1B
  0
LAYOUT
  5
26
102
{ACAD_REACTORS
330
1A
102
}
330
1A
100
AcDbPlotSettings
  1

  2
none_device
  4

  6

 40
0.0
 41
0.0
 42
0.0
 43
0.0
 44
0.0
 45
0.0
 46
0.0
 47
0.0
 48
0.0
 49
0.0
140
0.0
141
0.0
142
1.0
143
1.0
 70
   688
 72
     0
 73
     0
 74
     5
  7

 75
    16
147
1.0
148
0.0
149
0.0
100
AcDbLayout
  1
Layout2
 70
     1
 71
     2
 10
0.0
 20
0.0
 11
0.0
 21
0.0
 12
0.0
 22
0.0
 32
0.0
 14
0.0
 24
0.0
 34
0.0
 15
0.0
 25
0.0
 35
0.0
146
0.0
 13
0.0
 23
0.0
 33
0.0
 16
1.0
 26
0.0
 36
0.0
 17
0.0
 27
1.0
 37
0.0
 76
     0
330
23
  0
LAYOUT
  5
22
102
{ACAD_REACTORS
330
1A
102
}
330
1A
100
AcDbPlotSettings
  1

  2
none_device
  4
ANSI_A_(11.00_x_8.50_Inches)
  6

 40
6.35
 41
19.05
 42
6.35000508
 43
19.05000254
 44
279.4
 45
215.9
 46
239.960652379
 47
168.7167049781
 48
0.0
 49
0.0
140
0.0
141
0.0
142
0.7107095292
143
1.0
 70
  1696
 72
     0
 73
     0
 74
     0
  7

 75
     0
147
0.5913241897
148
-39.4088153714
149
0.0
100
AcDbLayout
  1
Model
 70
     1
 71
     0
 10
0.0
 20
0.0
 11
12.0
 21
9.0
 12
0.0
 22
0.0
 32
0.0
 14
-13.5671036938
 24
-9.1442573903
 34
0.0
 15
1.7556119203
 25
0.3012916477
 35
0.0
146
0.0
 13
0.0
 23
0.0
 33
0.0
 16
1.0
 26
0.0
 36
0.0
 17
0.0
 27
1.0
 37
0.0
 76
     0
330
1F
331
29
  0
MLINESTYLE
  5
18
102
{ACAD_REACTORS
330
17
102
}
330
17
100
AcDbMlineStyle
  2
Standard
 70
     0
  3

 62
   256
 51
90.0
 52
90.0
 71
     2
 49
0.5
 62
   256
  6
BYLAYER
 49
-0.5
 62
   256
  6
BYLAYER
  0
ACDBPLACEHOLDER
  5
F
102
{ACAD_REACTORS
330
E
102
}
330
E
  0
SCALE
  5
48
102
{ACAD_REACTORS
330
47
102
}
330
47
100
AcDbScale
 70
     0
300
1:1
140
1.0
141
1.0
290
     1
  0
SCALE
  5
49
102
{ACAD_REACTORS
330
47
102
}
330
47
100
AcDbScale
 70
     0
300
1/128" = 1'-0"
140
0.0078125
141
12.0
290
     0
  0
SCALE
  5
4A
102
{ACAD_REACTORS
330
47
102
}
330
47
100
AcDbScale
 70
     0
300
1/64" = 1'-0"
140
0.015625
141
12.0
290
     0
  0
SCALE
  5
4B
102
{ACAD_REACTORS
330
47
102
}
330
47
100
AcDbScale
 70
     0
300
1/32" = 1'-0"
140
0.03125
141
12.0
290
     0
  0
SCALE
  5
4C
102
{ACAD_REACTORS
330
47
102
}
330
47
100
AcDbScale
 70
     0
300
1/16" = 1'-0"
140
0.0625
141
12.0
290
     0
  0
SCALE
  5
4D
102
{ACAD_REACTORS
330
47
102
}
330
47
100
AcDbScale
 70
     0
300
3/32" = 1'-0"
140
0.09375
141
12.0
290
     0
  0
SCALE
  5
4E
102
{ACAD_REACTORS
330
47
102
}
330
47
100
AcDbScale
 70
     0
300
1/8" = 1'-0"
140
0.125
141
12.0
290
     0
  0
SCALE
  5
4F
102
{ACAD_REACTORS
330
47
102
}
330
47
100
AcDbScale
 70
     0
300
3/16" = 1'-0"
140
0.1875
141
12.0
290
     0
  0
SCALE
  5
50
102
{ACAD_REACTORS
330
47
102
}
330
47
100
AcDbScale
 70
     0
300
1/4" = 1'-0"
140
0.25
141
12.0
290
     0
  0
SCALE
  5
51
102
{ACAD_REACTORS
330
47
102
}
330
47
100
AcDbScale
 70
     0
300
3/8" = 1'-0"
140
0.375
141
12.0
290
     0
  0
SCALE
  5
52
102
{ACAD_REACTORS
330
47
102
}
330
47
100
AcDbScale
 70
     0
300
1/2" = 1'-0"
140
0.5
141
12.0
290
     0
  0
SCALE
  5
53
102
{ACAD_REACTORS
330
47
102
}
330
47
100
AcDbScale
 70
     0
300
3/4" = 1'-0"
140
0.75
141
12.0
290
     0
  0
SCALE
  5
54
102
{ACAD_REACTORS
330
47
102
}
330
47
100
AcDbScale
 70
     0
300
1" = 1'-0"
140
1.0
141
12.0
290
     0
  0
SCALE
  5
55
102
{ACAD_REACTORS
330
47
102
}
330
47
100
AcDbScale
 70
     0
300
1-1/2" = 1'-0"
140
1.5
141
12.0
290
     0
  0
SCALE
  5
56
102
{ACAD_REACTORS
330
47
102
}
330
47
100
AcDbScale
 70
     0
300
3" = 1'-0"
140
3.0
141
12.0
290
     0
  0
SCALE
  5
57
102
{ACAD_REACTORS
330
47
102
}
330
47
100
AcDbScale
 70
     0
300
6" = 1'-0"
140
6.0
141
12.0
290
     0
  0
SCALE
  5
58
102
{ACAD_REACTORS
330
47
102
}
330
47
100
AcDbScale
 70
     0
300
1'-0" = 1'-0"
140
12.0
141
12.0
290
     0
  0
ENDSEC
  0
EOF
