  0
SECTION
  2
HEADER
  9
$ACADVER
  1
AC1015
  9
$ACADMAINTVER
 70
     6
  9
$DWGCODEPAGE
  3
ANSI_1252
  9
$INSBASE
 10
0.0
 20
0.0
 30
0.0
  9
$EXTMIN
 10
-1.533944406
 20
-3.6171219914
 30
0.0
  9
$EXTMAX
 10
2.6435467308
 20
2.9859323592
 30
0.0
  9
$LIMMIN
 10
0.0
 20
0.0
  9
$LIMMAX
 10
12.0
 20
9.0
  9
$ORTHOMODE
 70
     0
  9
$REGENMODE
 70
     1
  9
$FILLMODE
 70
     1
  9
$QTEXTMODE
 70
     0
  9
$MIRRTEXT
 70
     1
  9
$LTSCALE
 40
1.0
  9
$ATTMODE
 70
     1
  9
$TEXTSIZE
 40
0.125
  9
$TRACEWID
 40
0.05
  9
$TEXTSTYLE
  7
Standard
  9
$CLAYER
  8
0
  9
$CELTYPE
  6
ByLayer
  9
$CECOLOR
 62
   256
  9
$CELTSCALE
 40
1.0
  9
$DISPSILH
 70
     0
  9
$DIMSCALE
 40
1.0
  9
$DIMASZ
 40
0.13
  9
$DIMEXO
 40
0.0
  9
$DIMDLI
 40
0.38
  9
$DIMRND
 40
0.0
  9
$DIMDLE
 40
0.0
  9
$DIMEXE
 40
0.125
  9
$DIMTP
 40
0.0
  9
$DIMTM
 40
0.0
  9
$DIMTXT
 40
0.125
  9
$DIMCEN
 40
0.09
  9
$DIMTSZ
 40
0.0
  9
$DIMTOL
 70
     0
  9
$DIMLIM
 70
     0
  9
$DIMTIH
 70
     1
  9
$DIMTOH
 70
     1
  9
$DIMSE1
 70
     0
  9
$DIMSE2
 70
     0
  9
$DIMTAD
 70
     0
  9
$DIMZIN
 70
     0
  9
$DIMBLK
  1

  9
$DIMASO
 70
     1
  9
$DIMSHO
 70
     1
  9
$DIMPOST
  1

  9
$DIMAPOST
  1

  9
$DIMALT
 70
     0
  9
$DIMALTD
 70
     2
  9
$DIMALTF
 40
25.4
  9
$DIMLFAC
 40
1.0
  9
$DIMTOFL
 70
     0
  9
$DIMTVP
 40
0.0
  9
$DIMTIX
 70
     0
  9
$DIMSOXD
 70
     0
  9
$DIMSAH
 70
     0
  9
$DIMBLK1
  1

  9
$DIMBLK2
  1

  9
$DIMSTYLE
  2
Standard
  9
$DIMCLRD
 70
     0
  9
$DIMCLRE
 70
     0
  9
$DIMCLRT
 70
     0
  9
$DIMTFAC
 40
1.0
  9
$DIMGAP
 40
0.06
  9
$DIMJUST
 70
     0
  9
$DIMSD1
 70
     0
  9
$DIMSD2
 70
     0
  9
$DIMTOLJ
 70
     1
  9
$DIMTZIN
 70
     0
  9
$DIMALTZ
 70
     0
  9
$DIMALTTZ
 70
     0
  9
$DIMUPT
 70
     0
  9
$DIMDEC
 70
     3
  9
$DIMTDEC
 70
     3
  9
$DIMALTU
 70
     2
  9
$DIMALTTD
 70
     2
  9
$DIMTXSTY
  7
Standard
  9
$DIMAUNIT
 70
     0
  9
$DIMADEC
 70
     2
  9
$DIMALTRND
 40
0.0
  9
$DIMAZIN
 70
     0
  9
$DIMDSEP
 70
    46
  9
$DIMATFIT
 70
     3
  9
$DIMFRAC
 70
     0
  9
$DIMLDRBLK
  1

  9
$DIMLUNIT
 70
     2
  9
$DIMLWD
 70
    -2
  9
$DIMLWE
 70
    -2
  9
$DIMTMOVE
 70
     0
  9
$LUNITS
 70
     2
  9
$LUPREC
 70
     2
  9
$SKETCHINC
 40
0.1
  9
$FILLETRAD
 40
0.0
  9
$AUNITS
 70
     0
  9
$AUPREC
 70
     2
  9
$MENU
  1
.
  9
$ELEVATION
 40
0.0
  9
$PELEVATION
 40
0.0
  9
$THICKNESS
 40
0.0
  9
$LIMCHECK
 70
     0
  9
$CHAMFERA
 40
0.0
  9
$CHAMFERB
 40
0.0
  9
$CHAMFERC
 40
0.0
  9
$CHAMFERD
 40
0.0
  9
$SKPOLY
 70
     0
  9
$TDCREATE
 40
2460425.430595879
  9
$TDUCREATE
 40
2460425.680595879
  9
$TDUPDATE
 40
2460425.430635023
  9
$TDUUPDATE
 40
2460425.680635023
  9
$TDINDWG
 40
0.0000000116
  9
$TDUSRTIMER
 40
0.0000000116
  9
$USRTIMER
 70
     1
  9
$ANGBASE
 50
0.0
  9
$ANGDIR
 70
     0
  9
$PDMODE
 70
     0
  9
$PDSIZE
 40
-1.0
  9
$PLINEWID
 40
0.0
  9
$SPLFRAME
 70
     0
  9
$SPLINETYPE
 70
     6
  9
$SPLINESEGS
 70
     8
  9
$HANDSEED
  5
2D1
  9
$SURFTAB1
 70
     6
  9
$SURFTAB2
 70
     6
  9
$SURFTYPE
 70
     6
  9
$SURFU
 70
     6
  9
$SURFV
 70
     6
  9
$UCSBASE
  2

  9
$UCSNAME
  2

  9
$UCSORG
 10
0.0
 20
0.0
 30
0.0
  9
$UCSXDIR
 10
1.0
 20
0.0
 30
0.0
  9
$UCSYDIR
 10
0.0
 20
1.0
 30
0.0
  9
$UCSORTHOREF
  2

  9
$UCSORTHOVIEW
 70
     0
  9
$UCSORGTOP
 10
0.0
 20
0.0
 30
0.0
  9
$UCSORGBOTTOM
 10
0.0
 20
0.0
 30
0.0
  9
$UCSORGLEFT
 10
0.0
 20
0.0
 30
0.0
  9
$UCSORGRIGHT
 10
0.0
 20
0.0
 30
0.0
  9
$UCSORGFRONT
 10
0.0
 20
0.0
 30
0.0
  9
$UCSORGBACK
 10
0.0
 20
0.0
 30
0.0
  9
$PUCSBASE
  2

  9
$PUCSNAME
  2

  9
$PUCSORG
 10
0.0
 20
0.0
 30
0.0
  9
$PUCSXDIR
 10
1.0
 20
0.0
 30
0.0
  9
$PUCSYDIR
 10
0.0
 20
1.0
 30
0.0
  9
$PUCSORTHOREF
  2

  9
$PUCSORTHOVIEW
 70
     0
  9
$PUCSORGTOP
 10
0.0
 20
0.0
 30
0.0
  9
$PUCSORGBOTTOM
 10
0.0
 20
0.0
 30
0.0
  9
$PUCSORGLEFT
 10
0.0
 20
0.0
 30
0.0
  9
$PUCSORGRIGHT
 10
0.0
 20
0.0
 30
0.0
  9
$PUCSORGFRONT
 10
0.0
 20
0.0
 30
0.0
  9
$PUCSORGBACK
 10
0.0
 20
0.0
 30
0.0
  9
$USERI1
 70
     0
  9
$USERI2
 70
     0
  9
$USERI3
 70
     0
  9
$USERI4
 70
     0
  9
$USERI5
 70
     0
  9
$USERR1
 40
0.0
  9
$USERR2
 40
0.0
  9
$USERR3
 40
0.0
  9
$USERR4
 40
0.0
  9
$USERR5
 40
0.0
  9
$WORLDVIEW
 70
     1
  9
$SHADEDGE
 70
     3
  9
$SHADEDIF
 70
    70
  9
$TILEMODE
 70
     1
  9
$MAXACTVP
 70
    64
  9
$PINSBASE
 10
0.0
 20
0.0
 30
0.0
  9
$PLIMCHECK
 70
     0
  9
$PEXTMIN
 10
1.0000000000E+20
 20
1.0000000000E+20
 30
1.0000000000E+20
  9
$PEXTMAX
 10
-1.0000000000E+20
 20
-1.0000000000E+20
 30
-1.0000000000E+20
  9
$PLIMMIN
 10
0.0
 20
0.0
  9
$PLIMMAX
 10
12.0
 20
9.0
  9
$UNITMODE
 70
     0
  9
$VISRETAIN
 70
     1
  9
$PLINEGEN
 70
     0
  9
$PSLTSCALE
 70
     1
  9
$TREEDEPTH
 70
  3020
  9
$CMLSTYLE
  2
Standard
  9
$CMLJUST
 70
     0
  9
$CMLSCALE
 40
1.0
  9
$PROXYGRAPHICS
 70
     1
  9
$MEASUREMENT
 70
     0
  9
$CELWEIGHT
370
    -1
  9
$ENDCAPS
280
     0
  9
$JOINSTYLE
280
     0
  9
$LWDISPLAY
290
     1
  9
$INSUNITS
 70
     1
  9
$HYPERLINKBASE
  1

  9
$STYLESHEET
  1

  9
$XEDIT
290
     1
  9
$CEPSNTYPE
380
     0
  9
$PSTYLEMODE
290
     1
  9
$FINGERPRINTGUID
  2
{526705e9-cfab-4828-93db-12d2af92405a}
  9
$VERSIONGUID
  2
{FAEB1C32-E019-11D5-929B-00C0DF256EC4}
  9
$EXTNAMES
290
     1
  9
$PSVPSCALE
 40
0.0
  9
$OLESTARTUP
290
     0
  0
ENDSEC
  0
SECTION
  2
CLASSES
  0
CLASS
  1
ACDBDICTIONARYWDFLT
  2
AcDbDictionaryWithDefault
  3
ObjectDBX Classes
 90
        0
280
     0
281
     0
  0
CLASS
  1
VISUALSTYLE
  2
AcDbVisualStyle
  3
ObjectDBX Classes
 90
     4095
280
     0
281
     0
  0
CLASS
  1
MATERIAL
  2
AcDbMaterial
  3
ObjectDBX Classes
 90
     1153
280
     0
281
     0
  0
CLASS
  1
SCALE
  2
AcDbScale
  3
ObjectDBX Classes
 90
     1153
280
     0
281
     0
  0
CLASS
  1
TABLESTYLE
  2
AcDbTableStyle
  3
ObjectDBX Classes
 90
     4095
280
     0
281
     0
  0
CLASS
  1
MLEADERSTYLE
  2
AcDbMLeaderStyle
  3
ACDB_MLEADERSTYLE_CLASS
 90
     4095
280
     0
281
     0
  0
CLASS
  1
SUN
  2
AcDbSun
  3
SCENEOE
 90
     1153
280
     0
281
     0
  0
CLASS
  1
ACDBPLACEHOLDER
  2
AcDbPlaceHolder
  3
ObjectDBX Classes
 90
        0
280
     0
281
     0
  0
CLASS
  1
LAYOUT
  2
AcDbLayout
  3
ObjectDBX Classes
 90
        0
280
     0
281
     0
  0
ENDSEC
  0
SECTION
  2
TABLES
  0
TABLE
  2
VPORT
  5
8
330
0
100
AcDbSymbolTable
 70
     1
  0
VPORT
  5
29
330
8
100
AcDbSymbolTableRecord
100
AcDbViewportTableRecord
  2
*Active
 70
     0
 10
0.0
 20
0.0
 11
1.0
 21
1.0
 12
0.5548011624
 22
-0.3155948161
 13
0.0
 23
0.0
 14
0.5
 24
0.5
 15
0.5
 25
0.5
 16
0.0
 26
0.0
 36
1.0
 17
0.0
 27
0.0
 37
0.0
 40
6.7351154377
 41
0.6326604197
 42
50.0
 43
0.0
 44
0.0
 50
0.0
 51
0.0
 71
     0
 72
   100
 73
     1
 74
     3
 75
     0
 76
     0
 77
     0
 78
     0
281
     0
 65
     1
110
0.0
120
0.0
130
0.0
111
1.0
121
0.0
131
0.0
112
0.0
122
1.0
132
0.0
 79
     0
146
0.0
  0
ENDTAB
  0
TABLE
  2
LTYPE
  5
5
330
0
100
AcDbSymbolTable
 70
     6
  0
LTYPE
  5
14
330
5
100
AcDbSymbolTableRecord
100
AcDbLinetypeTableRecord
  2
ByBlock
 70
     0
  3

 72
    65
 73
     0
 40
0.0
  0
LTYPE
  5
15
330
5
100
AcDbSymbolTableRecord
100
AcDbLinetypeTableRecord
  2
ByLayer
 70
     0
  3

 72
    65
 73
     0
 40
0.0
  0
LTYPE
  5
16
330
5
100
AcDbSymbolTableRecord
100
AcDbLinetypeTableRecord
  2
Continuous
 70
     0
  3
Solid line
 72
    65
 73
     0
 40
0.0
  0
LTYPE
  5
5E
330
5
100
AcDbSymbolTableRecord
100
AcDbLinetypeTableRecord
  2
HIDDEN
 70
     0
  3
Hidden __ __ __ __ __ __ __ __ __ __ __ __ __ __
 72
    65
 73
     2
 40
0.075
 49
0.05
 74
     0
 49
-0.025
 74
     0
  0
LTYPE
  5
5F
330
5
100
AcDbSymbolTableRecord
100
AcDbLinetypeTableRecord
  2
PHANTOM
 70
     0
  3
Phantom ______  __  __  ______  __  __  ______
 72
    65
 73
     6
 40
0.5
 49
0.25
 74
     0
 49
-0.05
 74
     0
 49
0.05
 74
     0
 49
-0.05
 74
     0
 49
0.05
 74
     0
 49
-0.05
 74
     0
  0
LTYPE
  5
60
330
5
100
AcDbSymbolTableRecord
100
AcDbLinetypeTableRecord
  2
CENTER
 70
     0
  3
Center ____ _ ____ _ ____ _ ____ _ ____ _ ____
 72
    65
 73
     4
 40
0.4
 49
0.25
 74
     0
 49
-0.05
 74
     0
 49
0.05
 74
     0
 49
-0.05
 74
     0
  0
LTYPE
  5
61
330
5
100
AcDbSymbolTableRecord
100
AcDbLinetypeTableRecord
  2
CENTERX2
 70
     0
  3
Center (2x) ________  __  ________  __  _____
 72
    65
 73
     4
 40
0.8
 49
0.5
 74
     0
 49
-0.1
 74
     0
 49
0.1
 74
     0
 49
-0.1
 74
     0
  0
LTYPE
  5
62
330
5
100
AcDbSymbolTableRecord
100
AcDbLinetypeTableRecord
  2
DOT2
 70
     0
  3
Dot (.5x) ........................................
 72
    65
 73
     2
 40
0.025
 49
0.0
 74
     0
 49
-0.025
 74
     0
  0
ENDTAB
  0
TABLE
  2
LAYER
  5
2
330
0
100
AcDbSymbolTable
 70
     1
  0
LAYER
  5
10
330
2
100
AcDbSymbolTableRecord
100
AcDbLayerTableRecord
  2
0
 70
     0
 62
     7
  6
Continuous
370
    -3
390
F
  0
ENDTAB
  0
TABLE
  2
STYLE
  5
3
330
0
100
AcDbSymbolTable
 70
     1
  0
STYLE
  5
11
330
3
100
AcDbSymbolTableRecord
100
AcDbTextStyleTableRecord
  2
Standard
 70
     0
 40
0.0
 41
1.0
 50
0.0
 71
     0
 42
0.125
  3
txt
  4

  0
ENDTAB
  0
TABLE
  2
VIEW
  5
6
330
0
100
AcDbSymbolTable
 70
     0
  0
ENDTAB
  0
TABLE
  2
UCS
  5
7
330
0
100
AcDbSymbolTable
 70
     0
  0
ENDTAB
  0
TABLE
  2
APPID
  5
9
330
0
100
AcDbSymbolTable
 70
     1
  0
APPID
  5
12
330
9
100
AcDbSymbolTableRecord
100
AcDbRegAppTableRecord
  2
ACAD
 70
     0
  0
ENDTAB
  0
TABLE
  2
DIMSTYLE
  5
A
330
0
100
AcDbSymbolTable
 70
     1
100
AcDbDimStyleTable
  0
DIMSTYLE
105
27
330
A
100
AcDbSymbolTableRecord
100
AcDbDimStyleTableRecord
  2
Standard
 70
     0
178
     0
340
11
  0
ENDTAB
  0
TABLE
  2
BLOCK_RECORD
  5
1
330
0
100
AcDbSymbolTable
 70
     1
  0
BLOCK_RECORD
  5
1F
330
1
100
AcDbSymbolTableRecord
100
AcDbBlockTableRecord
  2
*Model_Space
340
22
  0
BLOCK_RECORD
  5
1B
330
1
100
AcDbSymbolTableRecord
100
AcDbBlockTableRecord
  2
*Paper_Space
340
1E
  0
BLOCK_RECORD
  5
23
330
1
100
AcDbSymbolTableRecord
100
AcDbBlockTableRecord
  2
*Paper_Space0
340
26
  0
ENDTAB
  0
ENDSEC
  0
SECTION
  2
BLOCKS
  0
BLOCK
  5
20
330
1F
100
AcDbEntity
  8
0
100
AcDbBlockBegin
  2
*Model_Space
 70
     0
 10
0.0
 20
0.0
 30
0.0
  3
*Model_Space
  1

  0
ENDBLK
  5
21
330
1F
100
AcDbEntity
  8
0
100
AcDbBlockEnd
  0
BLOCK
  5
1C
330
1B
100
AcDbEntity
 67
     1
  8
0
100
AcDbBlockBegin
  2
*Paper_Space
 70
     0
 10
0.0
 20
0.0
 30
0.0
  3
*Paper_Space
  1

  0
ENDBLK
  5
1D
330
1B
100
AcDbEntity
 67
     1
  8
0
100
AcDbBlockEnd
  0
BLOCK
  5
24
330
23
100
AcDbEntity
  8
0
100
AcDbBlockBegin
  2
*Paper_Space0
 70
     0
 10
0.0
 20
0.0
 30
0.0
  3
*Paper_Space0
  1

  0
ENDBLK
  5
25
330
23
100
AcDbEntity
  8
0
100
AcDbBlockEnd
  0
ENDSEC
  0
SECTION
  2
ENTITIES
  0
LINE
  5
63
330
1F
100
AcDbEntity
  8
0
  6
Continuous
 62
     7
100
AcDbLine
 10
0.3402838548
 20
0.2884336052
 30
0.0
 11
0.6637652973
 21
0.1585215459
 31
0.0
  0
LINE
  5
64
330
1F
100
AcDbEntity
  8
0
  6
Continuous
 62
     7
100
AcDbLine
 10
0.5020245761
 20
0.2234775755
 30
0.0
 11
0.4899458731
 21
-0.2133397235
 31
0.0
  0
LWPOLYLINE
  5
65
330
1F
100
AcDbEntity
  8
0
  6
Continuous
 62
     7
370
    25
100
AcDbPolyline
 90
        3
 70
   128
 43
0.0
 10
2.2651666559
 20
0.5310987619
 10
1.9937513945
 20
0.7141840771
 10
1.8972177446
 20
0.7793073538
  0
SPLINE
  5
67
330
1F
100
AcDbEntity
  8
0
  6
Continuous
 62
     7
370
    25
100
AcDbSpline
210
0.0
220
0.0
230
1.0
 70
     8
 71
     3
 72
    22
 73
    18
 74
     0
 42
0.00000001
 43
0.00000001
 40
0.0
 40
0.0
 40
0.0
 40
0.0
 40
0.0997887539215696
 40
0.2032955434943238
 40
0.2947057136787654
 40
0.3740911097866144
 40
0.4413534101698209
 40
0.4961447972547254
 40
0.5404645336910381
 40
0.5826424755358014
 40
0.6415622674097169
 40
0.7047728691734025
 40
0.7724093294650523
 40
0.8257091055217666
 40
0.8842551983594146
 40
0.9516919214115684
 40
0.9999999999999999
 40
0.9999999999999999
 40
0.9999999999999999
 40
0.9999999999999999
 10
2.547610421117788
 20
-1.046908236728988
 30
0.0
 10
2.549488264436017
 20
-0.9904545190162817
 30
0.0
 10
2.553313917758401
 20
-0.8754436708629907
 30
0.0
 10
2.558781168613021
 20
-0.7086936397952307
 30
0.0
 10
2.563683540728873
 20
-0.5534901985997496
 30
0.0
 10
2.568516524463411
 20
-0.4187157242352255
 30
0.0
 10
2.571277471463069
 20
-0.3047917206977157
 30
0.0
 10
2.575292247323326
 20
-0.2104478445222989
 30
0.0
 10
2.579064028693422
 20
-0.1303318751030216
 30
0.0
 10
2.576400738004109
 20
-0.0486724435904949
 30
0.0
 10
2.564430490804968
 20
0.0415521820084898
 30
0.0
 10
2.540846580028167
 20
0.1421308742917473
 30
0.0
 10
2.506999637525009
 20
0.2337474391237346
 30
0.0
 10
2.465146924612363
 20
0.316201684680473
 30
0.0
 10
2.41508470718496
 20
0.3910735372193138
 30
0.0
 10
2.35911771475539
 20
0.4575087137199378
 30
0.0
 10
2.314798944552379
 20
0.4914516105150818
 30
0.0
 10
2.296301745511356
 20
0.5056182607892816
 30
0.0
  0
SPLINE
  5
68
330
1F
100
AcDbEntity
  8
0
  6
Continuous
 62
     7
370
    25
100
AcDbSpline
210
0.0
220
0.0
230
1.0
 70
     8
 71
     3
 72
    15
 73
    11
 74
     0
 42
0.00000001
 43
0.00000001
 40
0.0
 40
0.0
 40
0.0
 40
0.0
 40
0.0839078210060516
 40
0.1791054551967533
 40
0.2864479632137057
 40
0.4060539727285976
 40
0.5364374321803601
 40
0.6794886828772323
 40
0.8337464941832009
 40
1.0
 40
1.0
 40
1.0
 40
1.0
 10
0.8630513189870072
 20
-1.046751642303817
 30
0.0
 10
0.8770201375733129
 20
-1.06295832371197
 30
0.0
 10
0.9068372819284345
 20
-1.097552298576681
 30
0.0
 10
0.9517563372071804
 20
-1.159490912514324
 30
0.0
 10
0.9989535341594888
 20
-1.234600436963235
 30
0.0
 10
1.046288830093148
 20
-1.324318727901374
 30
0.0
 10
1.091576695571325
 20
-1.429142529031403
 30
0.0
 10
1.131624241052265
 20
-1.548501281372367
 30
0.0
 10
1.164550991102668
 20
-1.681634643991403
 30
0.0
 10
1.175688220029547
 20
-1.773535427975531
 30
0.0
 10
1.181465249592183
 20
-1.821205593453092
 30
0.0
  0
LWPOLYLINE
  5
69
330
1F
100
AcDbEntity
  8
0
  6
Continuous
 62
     7
370
    25
100
AcDbPolyline
 90
        3
 70
   128
 43
0.0
 10
1.1814652496
 20
-1.8212055935
 10
1.2529195887
 20
-2.5989755856
 10
1.3393013234
 20
-3.540146664
  0
SPLINE
  5
6A
330
1F
100
AcDbEntity
  8
0
  6
Continuous
 62
     7
370
    25
100
AcDbSpline
210
0.0
220
0.0
230
1.0
 70
     8
 71
     3
 72
    10
 73
     6
 74
     0
 42
0.00000001
 43
0.00000001
 40
0.0
 40
0.0
 40
0.0
 40
0.0
 40
0.3357559549618696
 40
0.6684407173343009
 40
0.9999999999999999
 40
0.9999999999999999
 40
0.9999999999999999
 40
0.9999999999999999
 10
0.6239431061806752
 20
-0.8560743955662808
 30
0.0
 10
0.6520948461882856
 20
-0.8736466641417172
 30
0.0
 10
0.7081408194816947
 20
-0.9086304660316632
 30
0.0
 10
0.7911939006537375
 20
-0.9690779925463582
 30
0.0
 10
0.8425844697009329
 20
-1.024813562994409
 30
0.0
 10
0.8682362167302828
 20
-1.052634129689378
 30
0.0
  0
SPLINE
  5
6B
330
1F
100
AcDbEntity
  8
0
  6
Continuous
 62
     7
370
    25
100
AcDbSpline
210
0.0
220
0.0
230
1.0
 70
     8
 71
     3
 72
     9
 73
     5
 74
     0
 42
0.00000001
 43
0.00000001
 40
0.0
 40
0.0
 40
0.0
 40
0.0
 40
0.4551844449971381
 40
1.0
 40
1.0
 40
1.0
 40
1.0
 10
2.462828919370995
 20
-3.393360548364727
 30
0.0
 10
2.475742570866949
 20
-3.037333983597035
 30
0.0
 10
2.50411272199554
 20
-2.25517508365938
 30
0.0
 10
2.532284725181877
 20
-1.473032992591979
 30
0.0
 10
2.547633270733384
 20
-1.046909815155993
 30
0.0
  0
SPLINE
  5
6C
330
1F
100
AcDbEntity
  8
0
  6
Continuous
 62
     7
370
    25
100
AcDbSpline
210
0.0
220
0.0
230
1.0
 70
     8
 71
     3
 72
    18
 73
    14
 74
     0
 42
0.00000001
 43
0.00000001
 40
0.0
 40
0.0
 40
0.0
 40
0.0
 40
0.1277467275136379
 40
0.2388094736861332
 40
0.3330096817978633
 40
0.4105716644039814
 40
0.4729254763224843
 40
0.5323584321758639
 40
0.6034437547340828
 40
0.6743148481597097
 40
0.7573210437231922
 40
0.8659364311135167
 40
1.0
 40
1.0
 40
1.0
 40
1.0
 10
1.453660415662852
 20
-3.603088011434498
 30
0.0
 10
1.495150395544421
 20
-3.607683599094032
 30
0.0
 10
1.572711679904589
 20
-3.616274581357235
 30
0.0
 10
1.682296314210032
 20
-3.618281325114629
 30
0.0
 10
1.775805090824033
 20
-3.614520514287421
 30
0.0
 10
1.853429332815166
 20
-3.607174582170838
 30
0.0
 10
1.919577006261123
 20
-3.598047063300802
 30
0.0
 10
1.983551578538262
 20
-3.586781381337505
 30
0.0
 10
2.050255788997493
 20
-3.572304343902319
 30
0.0
 10
2.12455477605935
 20
-3.552891083449265
 30
0.0
 10
2.21082893392877
 20
-3.526091261016349
 30
0.0
 10
2.317158617314306
 20
-3.487180958074283
 30
0.0
 10
2.394994088708795
 20
-3.45113384360544
 30
0.0
 10
2.437992877071822
 20
-3.431220271831873
 30
0.0
  0
SPLINE
  5
70
330
1F
100
AcDbEntity
  8
0
  6
Continuous
 62
     7
370
    25
100
AcDbSpline
210
0.0
220
0.0
230
1.0
 70
     8
 71
     3
 72
    48
 73
    44
 74
     0
 42
0.00000001
 43
0.00000001
 40
0.0
 40
0.0
 40
0.0
 40
0.0
 40
0.0031913193644873
 40
0.0288885451386236
 40
0.0546659218370028
 40
0.0804960139427676
 40
0.1063337755432344
 40
0.1321327060188064
 40
0.1578629693727671
 40
0.1835090099052236
 40
0.2090690810103485
 40
0.2345514281886648
 40
0.2599696108244889
 40
0.2853386295630095
 40
0.3106724244749049
 40
0.3359826162218081
 40
0.3612781170871545
 40
0.3865652483625048
 40
0.4118480990336459
 40
0.4371284306652938
 40
0.4624075001208798
 40
0.4876855526335705
 40
0.5129620814168094
 40
0.5382361349293311
 40
0.5635062390210995
 40
0.5887714819759613
 40
0.6140314385718384
 40
0.639286495134046
 40
0.6645381229979317
 40
0.6897884291971285
 40
0.7150419932008538
 40
0.7403058176606886
 40
0.7655897248277105
 40
0.7909065067892246
 40
0.8162715648566182
 40
0.8417016838502303
 40
0.8672125828287658
 40
0.8928151075456257
 40
0.9185105449462969
 40
0.94428653634846
 40
0.9701159228776446
 40
0.9959540790210152
 40
1.0
 40
1.0
 40
1.0
 40
1.0
 10
0.4979096609332972
 20
-0.5849245982767796
 30
0.0
 10
0.4951847899837868
 20
-0.5847060116950167
 30
0.0
 10
0.4705186414629532
 20
-0.58272731648694
 30
0.0
 10
0.4255960179176831
 20
-0.5719663651562317
 30
0.0
 10
0.3638178201814706
 20
-0.5522188187375866
 30
0.0
 10
0.3049539097457499
 20
-0.5245358431771135
 30
0.0
 10
0.2492996325341198
 20
-0.4900592787347376
 30
0.0
 10
0.1974112709689716
 20
-0.448828390811125
 30
0.0
 10
0.1497215560989653
 20
-0.4012723474869188
 30
0.0
 10
0.1066273590668459
 20
-0.3477861751758178
 30
0.0
 10
0.0684682974143064
 20
-0.2888278130113157
 30
0.0
 10
0.0355382650797443
 20
-0.2248805485282279
 30
0.0
 10
0.0080887165752216
 20
-0.1564577232200808
 30
0.0
 10
-0.0136680266854999
 20
-0.0841007895779494
 30
0.0
 10
-0.0295589467730756
 20
-0.0083803659926203
 30
0.0
 10
-0.0394523530571145
 20
0.070104651106331
 30
0.0
 10
-0.0432608158488368
 20
0.1507295575430394
 30
0.0
 10
-0.0409440383748602
 20
0.2328479659534329
 30
0.0
 10
-0.0325111997852064
 20
0.3157965151200514
 30
0.0
 10
-0.0180224821371688
 20
0.3989018338557614
 30
0.0
 10
0.0024104889218655
 20
0.4814869765377388
 30
0.0
 10
0.0286252211418391
 20
0.5628783892256756
 30
0.0
 10
0.060409123643466
 20
0.6424113223202128
 30
0.0
 10
0.0975008417234111
 20
0.7194357864208775
 30
0.0
 10
0.1395925404333878
 20
0.7933233414422124
 30
0.0
 10
0.1863327905565859
 20
0.8634732628986361
 30
0.0
 10
0.2373303621292999
 20
0.9293186737764849
 30
0.0
 10
0.292158056055859
 20
0.9903314706264551
 30
0.0
 10
0.3503566578508127
 20
1.046026554265476
 30
0.0
 10
0.4114404270565228
 20
1.09596682044575
 30
0.0
 10
0.4749031174893945
 20
1.139766935010283
 30
0.0
 10
0.5402254199354323
 20
1.177096314238557
 30
0.0
 10
0.6068816034490531
 20
1.207679697448283
 30
0.0
 10
0.6743464813077573
 20
1.231296416959994
 30
0.0
 10
0.742100983799892
 20
1.247777117221502
 30
0.0
 10
0.809636702513244
 20
1.257001078642852
 30
0.0
 10
0.8764521753875139
 20
1.258885057748129
 30
0.0
 10
0.9420626390444826
 20
1.253404758555499
 30
0.0
 10
1.005940595357124
 20
1.240506194714015
 30
0.0
 10
1.067705008221391
 20
1.220454765082296
 30
0.0
 10
1.126381795441352
 20
1.192576202535742
 30
0.0
 10
1.167215140089811
 20
1.169178239542201
 30
0.0
 10
1.187174760575291
 20
1.153169352206774
 30
0.0
 10
1.18987703734041
 20
1.151001954068448
 30
0.0
  0
SPLINE
  5
80
330
1F
100
AcDbEntity
  8
0
  6
Continuous
 62
     7
370
    25
100
AcDbSpline
210
0.0
220
0.0
230
1.0
 70
     8
 71
     3
 72
    11
 73
     7
 74
     0
 42
0.00000001
 43
0.00000001
 40
0.0
 40
0.0
 40
0.0
 40
0.0
 40
0.3271280425185157
 40
0.5103186791241198
 40
0.7981910631377974
 40
1.0
 40
1.0
 40
1.0
 40
1.0
 10
2.64319424032599
 20
2.777288380531287
 30
0.0
 10
2.643260394895059
 20
2.78595855171617
 30
0.0
 10
2.643363595806989
 20
2.799483990479496
 30
0.0
 10
2.63638179835765
 20
2.819347329131139
 30
0.0
 10
2.627411294554434
 20
2.835032883600483
 30
0.0
 10
2.617243023665975
 20
2.843003661315704
 30
0.0
 10
2.61305244532401
 20
2.846288602170293
 30
0.0
  0
SPLINE
  5
84
330
1F
100
AcDbEntity
  8
0
  6
Continuous
 62
     7
370
    25
100
AcDbSpline
210
0.0
220
0.0
230
1.0
 70
     8
 71
     3
 72
     9
 73
     5
 74
     0
 42
0.00000001
 43
0.00000001
 40
0.0
 40
0.0
 40
0.0
 40
0.0
 40
0.6899345222804496
 40
1.0
 40
1.0
 40
1.0
 40
1.0
 10
1.562819373719144
 20
0.8428687820688002
 30
0.0
 10
1.551290910118585
 20
0.8481310110496046
 30
0.0
 10
1.534581406204427
 20
0.8557581536419362
 30
0.0
 10
1.516944054741705
 20
0.8607924299193995
 30
0.0
 10
1.511475320934708
 20
0.8623533851983434
 30
0.0
  0
SPLINE
  5
85
330
1F
100
AcDbEntity
  8
0
  6
Continuous
 62
     7
370
    25
100
AcDbSpline
210
0.0
220
0.0
230
1.0
 70
     8
 71
     3
 72
     9
 73
     5
 74
     0
 42
0.00000001
 43
0.00000001
 40
0.0
 40
0.0
 40
0.0
 40
0.0
 40
0.8591580712138998
 40
1.0
 40
1.0
 40
1.0
 40
1.0
 10
1.757823752784289
 20
0.8366524212331122
 30
0.0
 10
1.749096280656388
 20
0.8464378874444208
 30
0.0
 10
1.738938112537721
 20
0.8578274867965894
 30
0.0
 10
1.727291476614333
 20
0.8671356783409221
 30
0.0
 10
1.725651141947013
 20
0.8684466619915363
 30
0.0
  0
SPLINE
  5
8B
330
1F
100
AcDbEntity
  8
0
  6
Continuous
 62
     7
370
    25
100
AcDbSpline
210
0.0
220
0.0
230
1.0
 70
     8
 71
     3
 72
    50
 73
    46
 74
     0
 42
0.00000001
 43
0.00000001
 40
0.0
 40
0.0
 40
0.0
 40
0.0
 40
0.0104159550378433
 40
0.0224894415015257
 40
0.0354212960068878
 40
0.0400598001432009
 40
0.0446983042777876
 40
0.0493368084117332
 40
0.0539753125461231
 40
0.0586138166820421
 40
0.0632523208205757
 40
0.0884947174116708
 40
0.1074509037533305
 40
0.1201208799869927
 40
0.1319561130432464
 40
0.15263729453631
 40
0.1723578506871222
 40
0.1924758954971171
 40
0.2124336115507256
 40
0.2323031935671443
 40
0.2524133901508348
 40
0.2837433066377446
 40
0.3148511874933214
 40
0.3461796482142467
 40
0.3772876372437296
 40
0.4086167443133278
 40
0.4397250816030229
 40
0.4710548499302284
 40
0.5021638270621865
 40
0.5335341162336699
 40
0.564919857300584
 40
0.5960689109337366
 40
0.6273627025743067
 40
0.6585092172415842
 40
0.6898078221448793
 40
0.7209616480375075
 40
0.752248228013188
 40
0.7832176472990934
 40
0.8141585857796597
 40
0.8451451879331856
 40
0.8761161384866312
 40
0.9070871047638723
 40
0.9380580608427633
 40
0.9690290304103903
 40
1.0
 40
1.0
 40
1.0
 40
1.0
 10
2.529765535087293
 20
-1.052273336488976
 30
0.0
 10
2.530284141388318
 20
-1.03694608422267
 30
0.0
 10
2.531403881827565
 20
-1.00385249443951
 30
0.0
 10
2.533128280216961
 20
-0.9517331175789322
 30
0.0
 10
2.534554646779124
 20
-0.9081163448692352
 30
0.0
 10
2.535621435584182
 20
-0.8754392815359645
 30
0.0
 10
2.536289695244464
 20
-0.8549646745527915
 30
0.0
 10
2.536957674414174
 20
-0.8344900940799311
 30
0.0
 10
2.537625399771084
 20
-0.8140155375758701
 30
0.0
 10
2.538292881837298
 20
-0.7935410041609099
 30
0.0
 10
2.539947891798523
 20
-0.7427510884897657
 30
0.0
 10
2.542288816421751
 20
-0.6708950041001227
 30
0.0
 10
2.545022626069999
 20
-0.5872210658579501
 30
0.0
 10
2.547108466604712
 20
-0.5232743078357615
 30
0.0
 10
2.549324296667465
 20
-0.4567845309605505
 30
0.0
 10
2.551874320890286
 20
-0.3799243258158491
 30
0.0
 10
2.554034453834371
 20
-0.2909388833088511
 30
0.0
 10
2.558219612626937
 20
-0.2028747912958649
 30
0.0
 10
2.561804678176729
 20
-0.1144905538137752
 30
0.0
 10
2.555273295200225
 20
-0.027655083545095
 30
0.0
 10
2.538275476449379
 20
0.0725158174514029
 30
0.0
 10
2.50552536135606
 20
0.1827510393959191
 30
0.0
 10
2.450444394930086
 20
0.295656791228795
 30
0.0
 10
2.379598904885849
 20
0.3930823469818761
 30
0.0
 10
2.29460520566089
 20
0.4725820856320236
 30
0.0
 10
2.198312680223014
 20
0.531535871023221
 30
0.0
 10
2.093059443987014
 20
0.5685224501760632
 30
0.0
 10
1.982336819944877
 20
0.582311758898758
 30
0.0
 10
1.868784087242503
 20
0.5725708738104835
 30
0.0
 10
1.755880662347991
 20
0.539516055420878
 30
0.0
 10
1.646934330634526
 20
0.4839583862773855
 30
0.0
 10
1.545206173973612
 20
0.4076897306279002
 30
0.0
 10
1.453758843758421
 20
0.3130858641803756
 30
0.0
 10
1.374818568078307
 20
0.2025228250585592
 30
0.0
 10
1.310981749307977
 20
0.0794836140424481
 30
0.0
 10
1.263620690027325
 20
-0.0528416267896665
 30
0.0
 10
1.235209839479743
 20
-0.1898973654793799
 30
0.0
 10
1.223592093953998
 20
-0.3284040840836805
 30
0.0
 10
1.237002984040088
 20
-0.4621273320559306
 30
0.0
 10
1.246739461524288
 20
-0.5962686510497888
 30
0.0
 10
1.256971292478652
 20
-0.7304675871824391
 30
0.0
 10
1.267261867600666
 20
-0.8645912361508754
 30
0.0
 10
1.277463506354444
 20
-0.9987475325369121
 30
0.0
 10
1.287686172896052
 20
-1.132895837926368
 30
0.0
 10
1.294581348636879
 20
-1.222308086295782
 30
0.0
 10
1.298028936508516
 20
-1.267014210496356
 30
0.0
  0
SPLINE
  5
8D
330
1F
100
AcDbEntity
  8
0
  6
Continuous
 62
     7
370
    25
100
AcDbSpline
210
0.0
220
0.0
230
1.0
 70
     8
 71
     3
 72
    13
 73
     9
 74
     0
 42
0.00000001
 43
0.00000001
 40
0.0
 40
0.0
 40
0.0
 40
0.0
 40
0.1687347572869246
 40
0.3350783992175556
 40
0.5001918811198891
 40
0.6652621158752086
 40
0.8314769428297792
 40
1.0
 40
1.0
 40
1.0
 40
1.0
 10
1.481957283529942
 20
-3.566558420950363
 30
0.0
 10
1.535634269204484
 20
-3.572174576101929
 30
0.0
 10
1.642227591907197
 20
-3.583327300698818
 30
0.0
 10
1.80403447293359
 20
-3.579326019166073
 30
0.0
 10
1.965283031200774
 20
-3.55986240271747
 30
0.0
 10
2.126122424524401
 20
-3.523181187182285
 30
0.0
 10
2.286776870390796
 20
-3.47097458901729
 30
0.0
 10
2.391991586168997
 20
-3.422889141938131
 30
0.0
 10
2.444961705187936
 20
-3.398680628556489
 30
0.0
  0
SPLINE
  5
96
330
1F
100
AcDbEntity
  8
0
  6
Continuous
 62
     7
370
    25
100
AcDbSpline
210
0.0
220
0.0
230
1.0
 70
     8
 71
     3
 72
     9
 73
     5
 74
     0
 42
0.00000001
 43
0.00000001
 40
0.0
 40
0.0
 40
0.0
 40
0.0
 40
0.1200667948165328
 40
1.0
 40
1.0
 40
1.0
 40
1.0
 10
2.296243111790464
 20
0.5079845445704386
 30
0.0
 10
2.295094889066009
 20
0.5090871564316989
 30
0.0
 10
2.285531689463576
 20
0.5182704769571203
 30
0.0
 10
2.273974692438903
 20
0.5239597752838193
 30
0.0
 10
2.263805307004686
 20
0.5289659777956768
 30
0.0
  0
SPLINE
  5
98
330
1F
100
AcDbEntity
  8
0
  6
Continuous
 62
     7
370
    25
100
AcDbSpline
210
0.0
220
0.0
230
1.0
 70
     8
 71
     3
 72
    10
 73
     6
 74
     0
 42
0.00000001
 43
0.00000001
 40
0.0
 40
0.0
 40
0.0
 40
0.0
 40
0.3366059163035681
 40
0.6692169264853418
 40
1.0
 40
1.0
 40
1.0
 40
1.0
 10
0.6105858221713142
 20
-0.823977574694239
 30
0.0
 10
0.6402677292040667
 20
-0.8426571846875571
 30
0.0
 10
0.6992792724794029
 20
-0.8797947113387503
 30
0.0
 10
0.7864760948689937
 20
-0.9437689377848834
 30
0.0
 10
0.8400387516054411
 20
-1.002324837675719
 30
0.0
 10
0.8667462858694949
 20
-1.031522114248312
 30
0.0
  0
SPLINE
  5
9A
330
1F
100
AcDbEntity
  8
0
  6
Continuous
 62
     7
370
    25
100
AcDbSpline
210
0.0
220
0.0
230
1.0
 70
     8
 71
     3
 72
    20
 73
    16
 74
     0
 42
0.00000001
 43
0.00000001
 40
0.0
 40
0.0
 40
0.0
 40
0.0
 40
0.0830647159061197
 40
0.1683026688033103
 40
0.2515593210457788
 40
0.3377710488131466
 40
0.4133755334158106
 40
0.4912124141808888
 40
0.5662127144958925
 40
0.6433825280533018
 40
0.7185182033605806
 40
0.7958206198938432
 40
0.8711291592200449
 40
0.9486277530329068
 40
1.0
 40
1.0
 40
1.0
 40
1.0
 10
0.6377581986640507
 20
-0.0329027834434423
 30
0.0
 10
0.6506870266560785
 20
0.0119841185199458
 30
0.0
 10
0.6768829418749603
 20
0.1029323064760575
 30
0.0
 10
0.7430472923739416
 20
0.2402327137310819
 30
0.0
 10
0.8296453657726768
 20
0.3744575634130888
 30
0.0
 10
0.9307255985635152
 20
0.4949724219275339
 30
0.0
 10
1.042390748749975
 20
0.6005112855363411
 30
0.0
 10
1.157611695187318
 20
0.6871973455256286
 30
0.0
 10
1.27891947947749
 20
0.7579660494781936
 30
0.0
 10
1.400746068915046
 20
0.8097495877099464
 30
0.0
 10
1.522138558651144
 20
0.8421856680586304
 30
0.0
 10
1.63778919094761
 20
0.854000196378961
 30
0.0
 10
1.745694273830868
 20
0.8440793425368766
 30
0.0
 10
1.833288937328812
 20
0.8190828382590527
 30
0.0
 10
1.877996889763066
 20
0.7890905688132275
 30
0.0
 10
1.895818981711446
 20
0.7771346425249418
 30
0.0
  0
SPLINE
  5
9B
330
1F
100
AcDbEntity
  8
0
  6
Continuous
 62
     7
370
    25
100
AcDbSpline
210
0.0
220
0.0
230
1.0
 70
     8
 71
     3
 72
    11
 73
     7
 74
     0
 42
0.00000001
 43
0.00000001
 40
0.0
 40
0.0
 40
0.0
 40
0.0
 40
0.2407616840330875
 40
0.4999659852977295
 40
0.7591892064359619
 40
1.0
 40
1.0
 40
1.0
 40
1.0
 10
1.298028936508509
 20
-1.267014210496354
 30
0.0
 10
1.293416067130472
 20
-1.268030084311803
 30
0.0
 10
1.283836977364165
 20
-1.270139649025636
 30
0.0
 10
1.26667157355758
 20
-1.271632722098422
 30
0.0
 10
1.250253536993604
 20
-1.271570313944779
 30
0.0
 10
1.242348320261536
 20
-1.270200110249179
 30
0.0
 10
1.238541256224745
 20
-1.269540235461503
 30
0.0
  0
SPLINE
  5
9D
330
1F
100
AcDbEntity
  8
0
  6
Continuous
 62
     7
370
    25
100
AcDbSpline
210
0.0
220
0.0
230
1.0
 70
     8
 71
     3
 72
    15
 73
    11
 74
     0
 42
0.00000001
 43
0.00000001
 40
0.0
 40
0.0
 40
0.0
 40
0.0
 40
0.1248689745342049
 40
0.2495071793742417
 40
0.3751310980915447
 40
0.4997552569557822
 40
0.6246246324576814
 40
0.7501663939203689
 40
0.8747187010473099
 40
0.9999999999999999
 40
0.9999999999999999
 40
0.9999999999999999
 40
0.9999999999999999
 10
0.8650049106772844
 20
-1.031074063713495
 30
0.0
 10
0.8863008465842905
 20
-1.05643696713269
 30
0.0
 10
0.9288533614913163
 20
-1.107115900922856
 30
0.0
 10
0.9869248911955598
 20
-1.195038585658598
 30
0.0
 10
1.039512265308315
 20
-1.28981316332378
 30
0.0
 10
1.085479342248644
 20
-1.391095922918823
 30
0.0
 10
1.124290578395575
 20
-1.497024146081659
 30
0.0
 10
1.155117598521414
 20
-1.606040108296967
 30
0.0
 10
1.178424747520752
 20
-1.71676813821564
 30
0.0
 10
1.186716038713861
 20
-1.789981055824971
 30
0.0
 10
1.19087378092864
 20
-1.82669432895961
 30
0.0
  0
SPLINE
  5
9E
330
1F
100
AcDbEntity
  8
0
  6
Continuous
 62
     7
370
    25
100
AcDbSpline
210
0.0
220
0.0
230
1.0
 70
     8
 71
     3
 72
    11
 73
     7
 74
     0
 42
0.00000001
 43
0.00000001
 40
0.0
 40
0.0
 40
0.0
 40
0.0
 40
0.0654293565666351
 40
0.1399913590593251
 40
0.3389577926377302
 40
1.0
 40
1.0
 40
1.0
 40
1.0
 10
0.8650049922476811
 20
-1.031074191483854
 30
0.0
 10
0.8650265431812333
 20
-1.031033519392631
 30
0.0
 10
0.8650726531330238
 20
-1.030946498189537
 30
0.0
 10
0.865253710795324
 20
-1.030863506784884
 30
0.0
 10
0.8658198246810644
 20
-1.030942672484022
 30
0.0
 10
0.8663436497908136
 20
-1.031270291330405
 30
0.0
 10
0.8667462858694948
 20
-1.031522114248312
 30
0.0
  0
SPLINE
  5
A1
330
1F
100
AcDbEntity
  8
0
  6
Continuous
 62
     7
370
    25
100
AcDbSpline
210
0.0
220
0.0
230
1.0
 70
     8
 71
     3
 72
    13
 73
     9
 74
     0
 42
0.00000001
 43
0.00000001
 40
0.0
 40
0.0
 40
0.0
 40
0.0
 40
0.2393497116303556
 40
0.3467964374952576
 40
0.4999883631038282
 40
0.6150195915994132
 40
0.7606502880177852
 40
1.0
 40
1.0
 40
1.0
 40
1.0
 10
1.420820973885007
 20
-3.568735200161564
 30
0.0
 10
1.424518219305103
 20
-3.569490179023218
 30
0.0
 10
1.429875198979326
 20
-3.570584076224187
 30
0.0
 10
1.440154533370044
 20
-3.571161961470411
 30
0.0
 10
1.448476941525257
 20
-3.571111294484128
 30
0.0
 10
1.45794877438786
 20
-3.570558813287983
 30
0.0
 10
1.469468587386182
 20
-3.569321145434919
 30
0.0
 10
1.47716948661419
 20
-3.567617567847194
 30
0.0
 10
1.481957283530623
 20
-3.566558420950201
 30
0.0
  0
SPLINE
  5
A5
330
1F
100
AcDbEntity
  8
0
  6
Continuous
 62
     7
370
    25
100
AcDbSpline
210
0.0
220
0.0
230
1.0
 70
     8
 71
     3
 72
    11
 73
     7
 74
     0
 42
0.00000001
 43
0.00000001
 40
0.0
 40
0.0
 40
0.0
 40
0.0
 40
0.2635744113911989
 40
0.6073066435399308
 40
0.9463354175089421
 40
1.0
 40
1.0
 40
1.0
 40
1.0
 10
0.610585822171313
 20
-0.8239775746942385
 30
0.0
 10
0.6107216220996721
 20
-0.8276749430859716
 30
0.0
 10
0.6110345212094505
 20
-0.8361941175235138
 30
0.0
 10
0.6157450366953084
 20
-0.8474095499898282
 30
0.0
 10
0.6211601039882301
 20
-0.854947563944272
 30
0.0
 10
0.6252755274979384
 20
-0.8566612582911048
 30
0.0
 10
0.6258379319307843
 20
-0.8568954478696328
 30
0.0
  0
SPLINE
  5
BC
330
1F
100
AcDbEntity
  8
0
  6
Continuous
 62
     7
370
    25
100
AcDbSpline
210
0.0
220
0.0
230
1.0
 70
     8
 71
     3
 72
     9
 73
     5
 74
     0
 42
0.00000001
 43
0.00000001
 40
0.0
 40
0.0
 40
0.0
 40
0.0
 40
0.0628323605963583
 40
1.0
 40
1.0
 40
1.0
 40
1.0
 10
2.102633993673165
 20
0.6407364570450598
 30
0.0
 10
2.103078996319672
 20
0.6411733122982943
 30
0.0
 10
2.110161376199781
 20
0.6481260234345324
 30
0.0
 10
2.119093464580154
 20
0.6492952235498783
 30
0.0
 10
2.127464328762532
 20
0.6503909600619671
 30
0.0
  0
SPLINE
  5
BD
330
1F
100
AcDbEntity
  8
0
  6
Continuous
 62
     7
370
    25
100
AcDbSpline
210
0.0
220
0.0
230
1.0
 70
     8
 71
     3
 72
    11
 73
     7
 74
     0
 42
0.00000001
 43
0.00000001
 40
0.0
 40
0.0
 40
0.0
 40
0.0
 40
0.280051040237983
 40
0.5595275476722312
 40
0.7796442891958953
 40
1.0
 40
1.0
 40
1.0
 40
1.0
 10
2.127464328762532
 20
0.6503909600619671
 30
0.0
 10
2.133714725740786
 20
0.6506517505676483
 30
0.0
 10
2.146202696827231
 20
0.6511727965597504
 30
0.0
 10
2.160951227833195
 20
0.6420998005009694
 30
0.0
 10
2.170516753128314
 20
0.628374507184958
 30
0.0
 10
2.172831923066855
 20
0.6174579783887114
 30
0.0
 10
2.173990136060072
 20
0.6119967527213677
 30
0.0
  0
SPLINE
  5
BF
330
1F
100
AcDbEntity
  8
0
  6
Continuous
 62
     7
370
    25
100
AcDbSpline
210
0.0
220
0.0
230
1.0
 70
     8
 71
     3
 72
     9
 73
     5
 74
     0
 42
0.00000001
 43
0.00000001
 40
0.0
 40
0.0
 40
0.0
 40
0.0
 40
0.5603127187464393
 40
1.0
 40
1.0
 40
1.0
 40
1.0
 10
2.217928404694462
 20
0.6283025655584689
 30
0.0
 10
2.215759689810969
 20
0.6383356627993287
 30
0.0
 10
2.21188914607542
 20
0.6562419085531408
 30
0.0
 10
2.202129760833286
 20
0.6695146198360687
 30
0.0
 10
2.197838683269467
 20
0.6753504621749234
 30
0.0
  0
SPLINE
  5
C0
330
1F
100
AcDbEntity
  8
0
  6
Continuous
 62
     7
370
    25
100
AcDbSpline
210
0.0
220
0.0
230
1.0
 70
     8
 71
     3
 72
     9
 73
     5
 74
     0
 42
0.00000001
 43
0.00000001
 40
0.0
 40
0.0
 40
0.0
 40
0.0
 40
0.5584734788674963
 40
1.0
 40
1.0
 40
1.0
 40
1.0
 10
2.197838683269467
 20
0.6753504621749234
 30
0.0
 10
2.1872199740625
 20
0.6836142996062746
 30
0.0
 10
2.16820616300651
 20
0.6984114882715434
 30
0.0
 10
2.143742353108962
 20
0.6966462341807798
 30
0.0
 10
2.13294093223125
 20
0.6958668276831701
 30
0.0
  0
SPLINE
  5
C1
330
1F
100
AcDbEntity
  8
0
  6
Continuous
 62
     7
370
    25
100
AcDbSpline
210
0.0
220
0.0
230
1.0
 70
     8
 71
     3
 72
    10
 73
     6
 74
     0
 42
0.00000001
 43
0.00000001
 40
0.0
 40
0.0
 40
0.0
 40
0.0
 40
0.4895142327079192
 40
0.9780789610866732
 40
1.0
 40
1.0
 40
1.0
 40
1.0
 10
2.13294093223125
 20
0.6958668276831701
 30
0.0
 10
2.122040895888431
 20
0.6933153834014854
 30
0.0
 10
2.100261965860149
 20
0.6882174438410851
 30
0.0
 10
2.077335381760661
 20
0.6751870763947778
 30
0.0
 10
2.068894445930781
 20
0.6642115470876586
 30
0.0
 10
2.068531979247775
 20
0.6637402410876658
 30
0.0
  0
SPLINE
  5
D6
330
1F
100
AcDbEntity
  8
0
  6
Continuous
 62
     7
370
    25
100
AcDbSpline
210
0.0
220
0.0
230
1.0
 70
     8
 71
     3
 72
    11
 73
     7
 74
     0
 42
0.00000001
 43
0.00000001
 40
0.0
 40
0.0
 40
0.0
 40
0.0
 40
0.1891337172578848
 40
0.3509647071660338
 40
0.5119037176716392
 40
1.0
 40
1.0
 40
1.0
 40
1.0
 10
0.9702253642589648
 20
2.057100886552973
 30
0.0
 10
0.9702567791022179
 20
2.054210017322338
 30
0.0
 10
0.9703150738442816
 20
2.048845595326645
 30
0.0
 10
0.9726438814124483
 20
2.041860008935322
 30
0.0
 10
0.979438687246561
 20
2.033688296932516
 30
0.0
 10
0.987042118840181
 20
2.030852383583171
 30
0.0
 10
0.9927601541069215
 20
2.028719681743836
 30
0.0
  0
SPLINE
  5
D9
330
1F
100
AcDbEntity
  8
0
  6
Continuous
 62
     7
370
    25
100
AcDbSpline
210
0.0
220
0.0
230
1.0
 70
     8
 71
     3
 72
    11
 73
     7
 74
     0
 42
0.00000001
 43
0.00000001
 40
0.0
 40
0.0
 40
0.0
 40
0.0
 40
0.2572943322466025
 40
0.5007434440587817
 40
0.7229154403348094
 40
1.0
 40
1.0
 40
1.0
 40
1.0
 10
0.9918354034413187
 20
2.048023871764947
 30
0.0
 10
0.990698324713241
 20
2.048708539580344
 30
0.0
 10
0.9884853544021891
 20
2.050041032670746
 30
0.0
 10
0.9865639387498216
 20
2.053739870803933
 30
0.0
 10
0.9858184143858849
 20
2.058199036868029
 30
0.0
 10
0.9858431535136114
 20
2.061347698621117
 30
0.0
 10
0.9858568835893232
 20
2.063095188053168
 30
0.0
  0
SPLINE
  5
DF
330
1F
100
AcDbEntity
  8
0
  6
Continuous
 62
     7
370
    25
100
AcDbSpline
210
0.0
220
0.0
230
1.0
 70
     8
 71
     3
 72
    12
 73
     8
 74
     0
 42
0.00000001
 43
0.00000001
 40
0.0
 40
0.0
 40
0.0
 40
0.0
 40
0.2303759423932702
 40
0.4307596311569964
 40
0.6159382555707174
 40
0.8194421353398446
 40
1.0
 40
1.0
 40
1.0
 40
1.0
 10
0.8772043689235014
 20
2.047299895213908
 30
0.0
 10
0.8769831366786992
 20
2.052771570124598
 30
0.0
 10
0.876569474040227
 20
2.063002571859651
 30
0.0
 10
0.8708452313149264
 20
2.075211008308238
 30
0.0
 10
0.8624614047548799
 20
2.08343540292275
 30
0.0
 10
0.8522795627964144
 20
2.08808008218512
 30
0.0
 10
0.8446063504131406
 20
2.087717377279304
 30
0.0
 10
0.8409989647177323
 20
2.087546859844945
 30
0.0
  0
SPLINE
  5
E0
330
1F
100
AcDbEntity
  8
0
  6
Continuous
 62
     7
370
    25
100
AcDbSpline
210
0.0
220
0.0
230
1.0
 70
     8
 71
     3
 72
    12
 73
     8
 74
     0
 42
0.00000001
 43
0.00000001
 40
0.0
 40
0.0
 40
0.0
 40
0.0
 40
0.2176692954786087
 40
0.4119211744242103
 40
0.593105261575917
 40
0.7982905541534183
 40
1.0
 40
1.0
 40
1.0
 40
1.0
 10
0.8409989647177323
 20
2.087546859844945
 30
0.0
 10
0.8365945597623607
 20
2.086404134746332
 30
0.0
 10
0.8282595869410118
 20
2.084241621822175
 30
0.0
 10
0.8170484083487278
 20
2.076146868716475
 30
0.0
 10
0.8080512731977996
 20
2.065221671976484
 30
0.0
 10
0.8015243688335079
 20
2.051626217786407
 30
0.0
 10
0.8004122924136171
 20
2.041692548585235
 30
0.0
 10
0.7998610040896049
 20
2.036768142539702
 30
0.0
  0
SPLINE
  5
E1
330
1F
100
AcDbEntity
  8
0
  6
Continuous
 62
     7
370
    25
100
AcDbSpline
210
0.0
220
0.0
230
1.0
 70
     8
 71
     3
 72
    11
 73
     7
 74
     0
 42
0.00000001
 43
0.00000001
 40
0.0
 40
0.0
 40
0.0
 40
0.0
 40
0.2566826957827964
 40
0.5215407495811115
 40
0.7458698645323983
 40
0.9999999999999999
 40
0.9999999999999999
 40
0.9999999999999999
 40
0.9999999999999999
 10
0.7998610040896051
 20
2.036768142539702
 30
0.0
 10
0.8003602128098117
 20
2.030705407544111
 30
0.0
 10
0.8013745300754929
 20
2.018386839108985
 30
0.0
 10
0.8107994171513881
 20
2.005590147332935
 30
0.0
 10
0.8237495560683251
 20
1.998789501668314
 30
0.0
 10
0.8333890980219688
 20
1.999479292606857
 30
0.0
 10
0.8385090703088051
 20
1.999845670024584
 30
0.0
  0
SPLINE
  5
E2
330
1F
100
AcDbEntity
  8
0
  6
Continuous
 62
     7
370
    25
100
AcDbSpline
210
0.0
220
0.0
230
1.0
 70
     8
 71
     3
 72
     9
 73
     5
 74
     0
 42
0.00000001
 43
0.00000001
 40
0.0
 40
0.0
 40
0.0
 40
0.0
 40
0.5505980433224257
 40
1.0
 40
1.0
 40
1.0
 40
1.0
 10
0.8385090703088051
 20
1.999845670024584
 30
0.0
 10
0.8457725193795099
 20
2.00247459839111
 30
0.0
 10
0.8589644461558488
 20
2.007249276395162
 30
0.0
 10
0.8684552125968242
 20
2.020154726940771
 30
0.0
 10
0.8727203816057684
 20
2.025954461667773
 30
0.0
  0
SPLINE
  5
E4
330
1F
100
AcDbEntity
  8
0
  6
Continuous
 62
     7
370
    25
100
AcDbSpline
210
0.0
220
0.0
230
1.0
 70
     8
 71
     3
 72
    10
 73
     6
 74
     0
 42
0.00000001
 43
0.00000001
 40
0.0
 40
0.0
 40
0.0
 40
0.0
 40
0.2908461815630786
 40
0.5665622784057474
 40
0.9999999999999999
 40
0.9999999999999999
 40
0.9999999999999999
 40
0.9999999999999999
 10
0.8598007316867345
 20
2.032098967039446
 30
0.0
 10
0.858175208587333
 20
2.029720936858765
 30
0.0
 10
0.8550087235888063
 20
2.02508858380519
 30
0.0
 10
0.8478634939898312
 20
2.018551314491157
 30
0.0
 10
0.842049114594202
 20
2.016729059482472
 30
0.0
 10
0.8384953420667116
 20
2.015615289749315
 30
0.0
  0
SPLINE
  5
E5
330
1F
100
AcDbEntity
  8
0
  6
Continuous
 62
     7
370
    25
100
AcDbSpline
210
0.0
220
0.0
230
1.0
 70
     8
 71
     3
 72
    11
 73
     7
 74
     0
 42
0.00000001
 43
0.00000001
 40
0.0
 40
0.0
 40
0.0
 40
0.0
 40
0.2875750588395728
 40
0.5670798079646302
 40
0.7819879379489937
 40
1.0
 40
1.0
 40
1.0
 40
1.0
 10
0.8384953420667115
 20
2.015615289749315
 30
0.0
 10
0.835493581897572
 20
2.015491690889001
 30
0.0
 10
0.829574300903106
 20
2.015247961762233
 30
0.0
 10
0.8227022078508592
 20
2.019510689174301
 30
0.0
 10
0.8181530697435208
 20
2.025791289754655
 30
0.0
 10
0.8174127939777527
 20
2.030979546772596
 30
0.0
 10
0.8170400022966283
 20
2.033592274549541
 30
0.0
  0
SPLINE
  5
E6
330
1F
100
AcDbEntity
  8
0
  6
Continuous
 62
     7
370
    25
100
AcDbSpline
210
0.0
220
0.0
230
1.0
 70
     8
 71
     3
 72
    11
 73
     7
 74
     0
 42
0.00000001
 43
0.00000001
 40
0.0
 40
0.0
 40
0.0
 40
0.0
 40
0.256619528879879
 40
0.5214299930840365
 40
0.7457738339965128
 40
1.0
 40
1.0
 40
1.0
 40
1.0
 10
0.8829652592944797
 20
2.051169259988997
 30
0.0
 10
0.8834643231985443
 20
2.045106468884857
 30
0.0
 10
0.8844783804263047
 20
2.03278737089064
 30
0.0
 10
0.8939056697841051
 20
2.019989977071887
 30
0.0
 10
0.9068619054521255
 20
2.013191270308088
 30
0.0
 10
0.9165060432618554
 20
2.013882398198346
 30
0.0
 10
0.9216292063191829
 20
2.014249539455046
 30
0.0
  0
SPLINE
  5
E7
330
1F
100
AcDbEntity
  8
0
  6
Continuous
 62
     7
370
    25
100
AcDbSpline
210
0.0
220
0.0
230
1.0
 70
     8
 71
     3
 72
    10
 73
     6
 74
     0
 42
0.00000001
 43
0.00000001
 40
0.0
 40
0.0
 40
0.0
 40
0.0
 40
0.2962085828492422
 40
0.5796975449369411
 40
0.9999999999999999
 40
0.9999999999999999
 40
0.9999999999999999
 40
0.9999999999999999
 10
0.9216292063191829
 20
2.014249539455046
 30
0.0
 10
0.9253787672100185
 20
2.015275525488909
 30
0.0
 10
0.9327168774771181
 20
2.017283440246977
 30
0.0
 10
0.9447891818181152
 20
2.02549430788824
 30
0.0
 10
0.9509619636784299
 20
2.034576915549357
 30
0.0
 10
0.9546483333999627
 20
2.040001025882781
 30
0.0
  0
SPLINE
  5
E9
330
1F
100
AcDbEntity
  8
0
  6
Continuous
 62
     7
370
    25
100
AcDbSpline
210
0.0
220
0.0
230
1.0
 70
     8
 71
     3
 72
    11
 73
     7
 74
     0
 42
0.00000001
 43
0.00000001
 40
0.0
 40
0.0
 40
0.0
 40
0.0
 40
0.2762296260100633
 40
0.5460777759059597
 40
0.764313984915012
 40
1.0
 40
1.0
 40
1.0
 40
1.0
 10
0.9412798377751019
 20
2.046923040827582
 30
0.0
 10
0.939979727749544
 20
2.044715854517815
 30
0.0
 10
0.9374095429310482
 20
2.040352472470577
 30
0.0
 10
0.9325155870314011
 20
2.035546705913246
 30
0.0
 10
0.927307366529964
 20
2.032349992372136
 30
0.0
 10
0.9238843450077431
 20
2.03151417520448
 30
0.0
 10
0.9221070398675674
 20
2.031080201261086
 30
0.0
  0
SPLINE
  5
EA
330
1F
100
AcDbEntity
  8
0
  6
Continuous
 62
     7
370
    25
100
AcDbSpline
210
0.0
220
0.0
230
1.0
 70
     8
 71
     3
 72
    11
 73
     7
 74
     0
 42
0.00000001
 43
0.00000001
 40
0.0
 40
0.0
 40
0.0
 40
0.0
 40
0.2949917349916847
 40
0.5676807441798164
 40
0.779990529897918
 40
1.0
 40
1.0
 40
1.0
 40
1.0
 10
0.9221070398675674
 20
2.031080201261086
 30
0.0
 10
0.9185260148675596
 20
2.030947407044033
 30
0.0
 10
0.9116347067534925
 20
2.030691858460743
 30
0.0
 10
0.904117280417293
 20
2.036584994503894
 30
0.0
 10
0.8998848178687135
 20
2.044710699105046
 30
0.0
 10
0.8995458235010926
 20
2.05087537300229
 30
0.0
 10
0.8993733075416861
 20
2.054012606931211
 30
0.0
  0
SPLINE
  5
EB
330
1F
100
AcDbEntity
  8
0
  6
Continuous
 62
     7
370
    25
100
AcDbSpline
210
0.0
220
0.0
230
1.0
 70
     8
 71
     3
 72
    11
 73
     7
 74
     0
 42
0.00000001
 43
0.00000001
 40
0.0
 40
0.0
 40
0.0
 40
0.0
 40
0.2782824273697385
 40
0.54714474374686
 40
0.7649968584362248
 40
1.0
 40
1.0
 40
1.0
 40
1.0
 10
0.8993733075416861
 20
2.054012606931211
 30
0.0
 10
0.8999025392163518
 20
2.058114332655633
 30
0.0
 10
0.9009430875964802
 20
2.066178936991669
 30
0.0
 10
0.9072843245136465
 20
2.076125373830775
 30
0.0
 10
0.9151329682347007
 20
2.082736758761494
 30
0.0
 10
0.9206337992268361
 20
2.0842784584432
 30
0.0
 10
0.9234883814504343
 20
2.085078502747745
 30
0.0
  0
SPLINE
  5
ED
330
1F
100
AcDbEntity
  8
0
  6
Continuous
 62
     7
370
    25
100
AcDbSpline
210
0.0
220
0.0
230
1.0
 70
     8
 71
     3
 72
    12
 73
     8
 74
     0
 42
0.00000001
 43
0.00000001
 40
0.0
 40
0.0
 40
0.0
 40
0.0
 40
0.2177561366069702
 40
0.4120338098038933
 40
0.5932007247175168
 40
0.7983402137808059
 40
0.9999999999999999
 40
0.9999999999999999
 40
0.9999999999999999
 40
0.9999999999999999
 10
0.92411910072811
 20
2.101950729275407
 30
0.0
 10
0.9197118844211474
 20
2.10080764401559
 30
0.0
 10
0.9113726378038857
 20
2.098644720931669
 30
0.0
 10
0.900155961537016
 20
2.090549502591188
 30
0.0
 10
0.8911559265104027
 20
2.079623588450263
 30
0.0
 10
0.8846283554590357
 20
2.06602741327005
 30
0.0
 10
0.8835164543349128
 20
2.056093653763122
 30
0.0
 10
0.8829652592944797
 20
2.051169259988997
 30
0.0
  0
SPLINE
  5
F3
330
1F
100
AcDbEntity
  8
0
  6
Continuous
 62
     7
370
    25
100
AcDbSpline
210
0.0
220
0.0
230
1.0
 70
     8
 71
     3
 72
    12
 73
     8
 74
     0
 42
0.00000001
 43
0.00000001
 40
0.0
 40
0.0
 40
0.0
 40
0.0
 40
0.2128760539456264
 40
0.4024603247954471
 40
0.5789286130004198
 40
0.7836719793651217
 40
1.0
 40
1.0
 40
1.0
 40
1.0
 10
0.5655469543018207
 20
1.988402252200204
 30
0.0
 10
0.5692081431582747
 20
1.989310881868133
 30
0.0
 10
0.5761299327583506
 20
1.99102872370377
 30
0.0
 10
0.585576092447506
 20
1.997306316836799
 30
0.0
 10
0.5933558209185434
 20
2.006181239059164
 30
0.0
 10
0.599030783469859
 20
2.017963341793021
 30
0.0
 10
0.5999163632183021
 20
2.026712142774746
 30
0.0
 10
0.6003713352729463
 20
2.031206893208374
 30
0.0
  0
SPLINE
  5
F4
330
1F
100
AcDbEntity
  8
0
  6
Continuous
 62
     7
370
    25
100
AcDbSpline
210
0.0
220
0.0
230
1.0
 70
     8
 71
     3
 72
    11
 73
     7
 74
     0
 42
0.00000001
 43
0.00000001
 40
0.0
 40
0.0
 40
0.0
 40
0.0
 40
0.272915842680112
 40
0.5331769732585737
 40
0.7515723761485608
 40
1.0
 40
1.0
 40
1.0
 40
1.0
 10
0.6003713352729463
 20
2.031206893208374
 30
0.0
 10
0.6000037563667264
 20
2.036737290476397
 30
0.0
 10
0.5992856426554543
 20
2.047541648506055
 30
0.0
 10
0.5909879859844263
 20
2.058404968300782
 30
0.0
 10
0.5799015004228337
 20
2.063362466217077
 30
0.0
 10
0.5719022636174059
 20
2.062677693267529
 30
0.0
 10
0.5676453369484946
 20
2.062313279973863
 30
0.0
  0
SPLINE
  5
FF
330
1F
100
AcDbEntity
  8
0
  6
Continuous
 62
     7
370
    25
100
AcDbSpline
210
0.0
220
0.0
230
1.0
 70
     8
 71
     3
 72
    12
 73
     8
 74
     0
 42
0.00000001
 43
0.00000001
 40
0.0
 40
0.0
 40
0.0
 40
0.0
 40
0.200636071782905
 40
0.3867418904007182
 40
0.567435204212176
 40
0.7807258691732369
 40
1.0
 40
1.0
 40
1.0
 40
1.0
 10
0.6218445467142368
 20
2.019314229916207
 30
0.0
 10
0.6219742679613595
 20
2.020667039843933
 30
0.0
 10
0.6222243159207891
 20
2.023274687931102
 30
0.0
 10
0.6237909752612776
 20
2.026965542991187
 30
0.0
 10
0.6261296535256584
 20
2.030150359101294
 30
0.0
 10
0.629264258413809
 20
2.032695990905879
 30
0.0
 10
0.6316884959051471
 20
2.033380211539678
 30
0.0
 10
0.632917381320713
 20
2.033727054108077
 30
0.0
  0
SPLINE
  5
100
330
1F
100
AcDbEntity
  8
0
  6
Continuous
 62
     7
370
    25
100
AcDbSpline
210
0.0
220
0.0
230
1.0
 70
     8
 71
     3
 72
    10
 73
     6
 74
     0
 42
0.00000001
 43
0.00000001
 40
0.0
 40
0.0
 40
0.0
 40
0.0
 40
0.2440161039060226
 40
0.5436725374775268
 40
1.0
 40
1.0
 40
1.0
 40
1.0
 10
0.632917381320713
 20
2.033727054108077
 30
0.0
 10
0.6334245229974631
 20
2.033755280238039
 30
0.0
 10
0.6345544443339887
 20
2.033818168594395
 30
0.0
 10
0.6365589100271787
 20
2.033451479777881
 30
0.0
 10
0.6379072877057053
 20
2.032744428598351
 30
0.0
 10
0.6387211962661163
 20
2.032317637932179
 30
0.0
  0
SPLINE
  5
102
330
1F
100
AcDbEntity
  8
0
  6
Continuous
 62
     7
370
    25
100
AcDbSpline
210
0.0
220
0.0
230
1.0
 70
     8
 71
     3
 72
     9
 73
     5
 74
     0
 42
0.00000001
 43
0.00000001
 40
0.0
 40
0.0
 40
0.0
 40
0.0
 40
0.5176862473724301
 40
1.0
 40
1.0
 40
1.0
 40
1.0
 10
0.6447090923303882
 20
2.050973498347789
 30
0.0
 10
0.6433318071591623
 20
2.051525348619522
 30
0.0
 10
0.6406713440346025
 20
2.052591342306881
 30
0.0
 10
0.6376870873763143
 20
2.052236643004519
 30
0.0
 10
0.6362477393486516
 20
2.052065566652942
 30
0.0
  0
SPLINE
  5
103
330
1F
100
AcDbEntity
  8
0
  6
Continuous
 62
     7
370
    25
100
AcDbSpline
210
0.0
220
0.0
230
1.0
 70
     8
 71
     3
 72
    10
 73
     6
 74
     0
 42
0.00000001
 43
0.00000001
 40
0.0
 40
0.0
 40
0.0
 40
0.0
 40
0.2822059413477593
 40
0.5577459539386789
 40
1.0
 40
1.0
 40
1.0
 40
1.0
 10
0.6362477393486516
 20
2.052065566652942
 30
0.0
 10
0.6345514001188924
 20
2.051572111816906
 30
0.0
 10
0.6311987905409823
 20
2.050596857940477
 30
0.0
 10
0.6256634583694315
 20
2.046072507150965
 30
0.0
 10
0.6232480083523357
 20
2.041237862412626
 30
0.0
 10
0.6217597785038953
 20
2.038259095493303
 30
0.0
  0
SPLINE
  5
106
330
1F
100
AcDbEntity
  8
0
  6
Continuous
 62
     7
370
    25
100
AcDbSpline
210
0.0
220
0.0
230
1.0
 70
     8
 71
     3
 72
    12
 73
     8
 74
     0
 42
0.00000001
 43
0.00000001
 40
0.0
 40
0.0
 40
0.0
 40
0.0
 40
0.2107469423933747
 40
0.3953717187307684
 40
0.5702510452627277
 40
0.779222713492645
 40
0.9999999999999999
 40
0.9999999999999999
 40
0.9999999999999999
 40
0.9999999999999999
 10
0.7768082286521701
 20
1.996029774952075
 30
0.0
 10
0.7765864373636635
 20
1.99348618453375
 30
0.0
 10
0.7761703459037328
 20
1.988714282725736
 30
0.0
 10
0.7733736473180093
 20
1.982043950813563
 30
0.0
 10
0.7691068386862141
 20
1.976574035082288
 30
0.0
 10
0.7634164499214617
 20
1.972483537635166
 30
0.0
 10
0.7591082592005239
 20
1.971374610094219
 30
0.0
 10
0.7568949887628883
 20
1.970804914669192
 30
0.0
  0
SPLINE
  5
107
330
1F
100
AcDbEntity
  8
0
  6
Continuous
 62
     7
370
    25
100
AcDbSpline
210
0.0
220
0.0
230
1.0
 70
     8
 71
     3
 72
    10
 73
     6
 74
     0
 42
0.00000001
 43
0.00000001
 40
0.0
 40
0.0
 40
0.0
 40
0.0
 40
0.285370629527759
 40
0.5546912352184393
 40
1.0
 40
1.0
 40
1.0
 40
1.0
 10
0.7568949887628883
 20
1.970804914669192
 30
0.0
 10
0.755127195403421
 20
1.970635144250637
 30
0.0
 10
0.751691034212634
 20
1.970305151765677
 30
0.0
 10
0.7459116200115317
 20
1.972069756809715
 30
0.0
 10
0.7426212804783109
 20
1.974928503675364
 30
0.0
 10
0.740570963077723
 20
1.97670988167096
 30
0.0
  0
SPLINE
  5
109
330
1F
100
AcDbEntity
  8
0
  6
Continuous
 62
     7
370
    25
100
AcDbSpline
210
0.0
220
0.0
230
1.0
 70
     8
 71
     3
 72
    10
 73
     6
 74
     0
 42
0.00000001
 43
0.00000001
 40
0.0
 40
0.0
 40
0.0
 40
0.0
 40
0.4971750406809638
 40
0.7234176564792613
 40
1.0
 40
1.0
 40
1.0
 40
1.0
 10
0.7271519309758746
 20
1.965153397744102
 30
0.0
 10
0.7312140195907233
 20
1.960989962953995
 30
0.0
 10
0.737124587068407
 20
1.954931931089327
 30
0.0
 10
0.748330440425034
 20
1.953013846808154
 30
0.0
 10
0.754131466596237
 20
1.953734639041107
 30
0.0
 10
0.7573223611282615
 20
1.954131115789699
 30
0.0
  0
SPLINE
  5
10A
330
1F
100
AcDbEntity
  8
0
  6
Continuous
 62
     7
370
    25
100
AcDbSpline
210
0.0
220
0.0
230
1.0
 70
     8
 71
     3
 72
    12
 73
     8
 74
     0
 42
0.00000001
 43
0.00000001
 40
0.0
 40
0.0
 40
0.0
 40
0.0
 40
0.247995801399432
 40
0.5206175998575887
 40
0.6692313133377269
 40
0.8258210920275212
 40
1.0
 40
1.0
 40
1.0
 40
1.0
 10
0.7573223611282615
 20
1.954131115789699
 30
0.0
 10
0.7614714579417866
 20
1.955414069390776
 30
0.0
 10
0.7701816571163094
 20
1.958107373957839
 30
0.0
 10
0.7802889438666616
 20
1.967007430571494
 30
0.0
 10
0.7868029804276933
 20
1.976879198488399
 30
0.0
 10
0.7904901338788685
 20
1.986288345386932
 30
0.0
 10
0.7910799641329486
 20
1.992952554602093
 30
0.0
 10
0.7913905618215674
 20
1.996461848953109
 30
0.0
  0
SPLINE
  5
10E
330
1F
100
AcDbEntity
  8
0
  6
Continuous
 62
     7
370
    25
100
AcDbSpline
210
0.0
220
0.0
230
1.0
 70
     8
 71
     3
 72
    12
 73
     8
 74
     0
 42
0.00000001
 43
0.00000001
 40
0.0
 40
0.0
 40
0.0
 40
0.0
 40
0.1976451844727756
 40
0.3752308704726082
 40
0.5436940315025566
 40
0.7523636124230706
 40
1.0
 40
1.0
 40
1.0
 40
1.0
 10
0.7767774983824187
 20
2.027342379261583
 30
0.0
 10
0.7766117392505473
 20
2.025054538805846
 30
0.0
 10
0.7762970442909565
 20
2.020711056479177
 30
0.0
 10
0.7742456757665912
 20
2.014449746427827
 30
0.0
 10
0.7706756422282488
 20
2.00884839712658
 30
0.0
 10
0.765098515811485
 20
2.004397250497332
 30
0.0
 10
0.7606749556882755
 20
2.003290366565244
 30
0.0
 10
0.7582742979612946
 20
2.002689662745148
 30
0.0
  0
SPLINE
  5
10F
330
1F
100
AcDbEntity
  8
0
  6
Continuous
 62
     7
370
    25
100
AcDbSpline
210
0.0
220
0.0
230
1.0
 70
     8
 71
     3
 72
    11
 73
     7
 74
     0
 42
0.00000001
 43
0.00000001
 40
0.0
 40
0.0
 40
0.0
 40
0.0
 40
0.280363056204786
 40
0.5353477400650296
 40
0.746256874526862
 40
0.9999999999999999
 40
0.9999999999999999
 40
0.9999999999999999
 40
0.9999999999999999
 10
0.7582742979612946
 20
2.002689662745148
 30
0.0
 10
0.7557463376784949
 20
2.002469086001201
 30
0.0
 10
0.7509192472526351
 20
2.002047899048176
 30
0.0
 10
0.7451357062511218
 20
2.005527302345023
 30
0.0
 10
0.7420131336160293
 20
2.011849288098646
 30
0.0
 10
0.7418663114924854
 20
2.016805232500941
 30
0.0
 10
0.7417861330284404
 20
2.019511636689066
 30
0.0
  0
SPLINE
  5
113
330
1F
100
AcDbEntity
  8
0
  6
Continuous
 62
     7
370
    25
100
AcDbSpline
210
0.0
220
0.0
230
1.0
 70
     8
 71
     3
 72
    12
 73
     8
 74
     0
 42
0.00000001
 43
0.00000001
 40
0.0
 40
0.0
 40
0.0
 40
0.0
 40
0.2134216032909021
 40
0.4033723843707104
 40
0.5807695017393951
 40
0.7862944703105205
 40
1.0
 40
1.0
 40
1.0
 40
1.0
 10
0.7262338399818489
 20
2.017532464820859
 30
0.0
 10
0.7263465845136947
 20
2.013492073727892
 30
0.0
 10
0.7265596746129821
 20
2.005855629413775
 30
0.0
 10
0.7301011281095688
 20
1.996186986885044
 30
0.0
 10
0.7359667027444607
 20
1.988952957319641
 30
0.0
 10
0.7443371173393396
 20
1.984601733099179
 30
0.0
 10
0.7510493954246132
 20
1.985052801149452
 30
0.0
 10
0.7544710237402726
 20
1.985282736082644
 30
0.0
  0
SPLINE
  5
114
330
1F
100
AcDbEntity
  8
0
  6
Continuous
 62
     7
370
    25
100
AcDbSpline
210
0.0
220
0.0
230
1.0
 70
     8
 71
     3
 72
    10
 73
     6
 74
     0
 42
0.00000001
 43
0.00000001
 40
0.0
 40
0.0
 40
0.0
 40
0.0
 40
0.3065668130913886
 40
0.5696808635809691
 40
1.0
 40
1.0
 40
1.0
 40
1.0
 10
0.7544710237402726
 20
1.985282736082644
 30
0.0
 10
0.7569909226892515
 20
1.985838650938724
 30
0.0
 10
0.7616735502539094
 20
1.986871685310891
 30
0.0
 10
0.7696862491662809
 20
1.991503345558195
 30
0.0
 10
0.773956944214087
 20
1.997002184272998
 30
0.0
 10
0.7766071805159777
 20
2.000414561372529
 30
0.0
  0
SPLINE
  5
115
330
1F
100
AcDbEntity
  8
0
  6
Continuous
 62
     7
370
    25
100
AcDbSpline
210
0.0
220
0.0
230
1.0
 70
     8
 71
     3
 72
    12
 73
     8
 74
     0
 42
0.00000001
 43
0.00000001
 40
0.0
 40
0.0
 40
0.0
 40
0.0
 40
0.2179240638193109
 40
0.4122366753239181
 40
0.5933579700608564
 40
0.7984125883898842
 40
0.9999999999999999
 40
0.9999999999999999
 40
0.9999999999999999
 40
0.9999999999999999
 10
0.6816128483527109
 20
2.059926876055896
 30
0.0
 10
0.6772007688502407
 20
2.058783242391786
 30
0.0
 10
0.668854646106902
 20
2.056619884517403
 30
0.0
 10
0.6576296805281082
 20
2.048524019146065
 30
0.0
 10
0.6486269944161774
 20
2.037596740427
 30
0.0
 10
0.6421015112155453
 20
2.023999467933385
 30
0.0
 10
0.6409906464682491
 20
2.014066327481339
 30
0.0
 10
0.6404399499524709
 20
2.009142104392084
 30
0.0
  0
SPLINE
  5
116
330
1F
100
AcDbEntity
  8
0
  6
Continuous
 62
     7
370
    25
100
AcDbSpline
210
0.0
220
0.0
230
1.0
 70
     8
 71
     3
 72
    11
 73
     7
 74
     0
 42
0.00000001
 43
0.00000001
 40
0.0
 40
0.0
 40
0.0
 40
0.0
 40
0.2565249980640975
 40
0.5212366883736376
 40
0.7455904172338871
 40
1.0
 40
1.0
 40
1.0
 40
1.0
 10
0.6404399499524709
 20
2.009142104392084
 30
0.0
 10
0.6409381886172933
 20
2.003079269558278
 30
0.0
 10
0.6419505666452892
 20
1.990760111679793
 30
0.0
 10
0.6513778024001814
 20
1.977959462713995
 30
0.0
 10
0.6643429730513497
 20
1.971163520459331
 30
0.0
 10
0.6739943290302138
 20
1.971857116756195
 30
0.0
 10
0.6791229539437836
 20
1.972225686235535
 30
0.0
  0
SPLINE
  5
117
330
1F
100
AcDbEntity
  8
0
  6
Continuous
 62
     7
370
    25
100
AcDbSpline
210
0.0
220
0.0
230
1.0
 70
     8
 71
     3
 72
    12
 73
     8
 74
     0
 42
0.00000001
 43
0.00000001
 40
0.0
 40
0.0
 40
0.0
 40
0.0
 40
0.2176655575660933
 40
0.4120361217304704
 40
0.59336517375122
 40
0.7985795113229981
 40
0.9999999999999999
 40
0.9999999999999999
 40
0.9999999999999999
 40
0.9999999999999999
 10
0.6791229539437836
 20
1.972225686235535
 30
0.0
 10
0.683525406206121
 20
1.973368968178964
 30
0.0
 10
0.6918591516850133
 20
1.975533175797672
 30
0.0
 10
0.7030685272251888
 20
1.983632729046564
 30
0.0
 10
0.7120670693369033
 20
1.994555628371276
 30
0.0
 10
0.7186013184141404
 20
2.008136670155167
 30
0.0
 10
0.7197169644560347
 20
2.018060260862368
 30
0.0
 10
0.7202695830623204
 20
2.022975763324649
 30
0.0
  0
SPLINE
  5
118
330
1F
100
AcDbEntity
  8
0
  6
Continuous
 62
     7
370
    25
100
AcDbSpline
210
0.0
220
0.0
230
1.0
 70
     8
 71
     3
 72
    11
 73
     7
 74
     0
 42
0.00000001
 43
0.00000001
 40
0.0
 40
0.0
 40
0.0
 40
0.0
 40
0.2570116651892801
 40
0.5218836869694018
 40
0.7461091081710414
 40
1.0
 40
1.0
 40
1.0
 40
1.0
 10
0.7202695830623204
 20
2.022975763324649
 30
0.0
 10
0.7197704034988283
 20
2.029049811132455
 30
0.0
 10
0.718756777635336
 20
2.041383673342295
 30
0.0
 10
0.7093210857534784
 20
2.054188378699804
 30
0.0
 10
0.696367651509337
 20
2.060983187866454
 30
0.0
 10
0.686730434774439
 20
2.06029324942743
 30
0.0
 10
0.6816128483527107
 20
2.059926876055895
 30
0.0
  0
SPLINE
  5
119
330
1F
100
AcDbEntity
  8
0
  6
Continuous
 62
     7
370
    25
100
AcDbSpline
210
0.0
220
0.0
230
1.0
 70
     8
 71
     3
 72
    10
 73
     6
 74
     0
 42
0.00000001
 43
0.00000001
 40
0.0
 40
0.0
 40
0.0
 40
0.0
 40
0.3026245345869779
 40
0.5881187255956078
 40
1.0
 40
1.0
 40
1.0
 40
1.0
 10
1.040700309830562
 20
2.034883343852393
 30
0.0
 10
1.043396603590846
 20
2.035566105437969
 30
0.0
 10
1.048636564892376
 20
2.036892980253796
 30
0.0
 10
1.057349179685383
 20
2.041897264372077
 30
0.0
 10
1.062049111636028
 20
2.047852353397911
 30
0.0
 10
1.064824967767271
 20
2.05136952567999
 30
0.0
  0
SPLINE
  5
121
330
1F
100
AcDbEntity
  8
0
  6
Continuous
 62
     7
370
    25
100
AcDbSpline
210
0.0
220
0.0
230
1.0
 70
     8
 71
     3
 72
    10
 73
     6
 74
     0
 42
0.00000001
 43
0.00000001
 40
0.0
 40
0.0
 40
0.0
 40
0.0
 40
0.2410611250512366
 40
0.5098945677042281
 40
1.0
 40
1.0
 40
1.0
 40
1.0
 10
1.06661246298494
 20
2.114330210609313
 30
0.0
 10
1.065309922832616
 20
2.116016884365387
 30
0.0
 10
1.062554778685066
 20
2.119584551219712
 30
0.0
 10
1.05488062681301
 20
2.123364351328008
 30
0.0
 10
1.048265604000642
 20
2.122975132542674
 30
0.0
 10
1.04399377299802
 20
2.122723783919827
 30
0.0
  0
SPLINE
  5
122
330
1F
100
AcDbEntity
  8
0
  6
Continuous
 62
     7
370
    25
100
AcDbSpline
210
0.0
220
0.0
230
1.0
 70
     8
 71
     3
 72
    12
 73
     8
 74
     0
 42
0.00000001
 43
0.00000001
 40
0.0
 40
0.0
 40
0.0
 40
0.0
 40
0.211020503231585
 40
0.4053859308269468
 40
0.5911855440876653
 40
0.801364335251322
 40
1.0
 40
1.0
 40
1.0
 40
1.0
 10
1.04399377299802
 20
2.122723783919827
 30
0.0
 10
1.039841716345778
 20
2.121580439521371
 30
0.0
 10
1.031865309669467
 20
2.1193839907113
 30
0.0
 10
1.021205398369944
 20
2.111001212559999
 30
0.0
 10
1.012592197325104
 20
2.099956629857272
 30
0.0
 10
1.0062054694366
 20
2.086628976560897
 30
0.0
 10
1.005032752274516
 20
2.076934123556385
 30
0.0
 10
1.004462949886945
 20
2.072223567108731
 30
0.0
  0
SPLINE
  5
123
330
1F
100
AcDbEntity
  8
0
  6
Continuous
 62
     7
370
    25
100
AcDbSpline
210
0.0
220
0.0
230
1.0
 70
     8
 71
     3
 72
    11
 73
     7
 74
     0
 42
0.00000001
 43
0.00000001
 40
0.0
 40
0.0
 40
0.0
 40
0.0
 40
0.261609236524633
 40
0.5300129691213469
 40
0.7522464891627828
 40
1.0
 40
1.0
 40
1.0
 40
1.0
 10
1.004462949886945
 20
2.072223567108731
 30
0.0
 10
1.004923478105673
 20
2.066250252370039
 30
0.0
 10
1.005856495348545
 20
2.054148484396521
 30
0.0
 10
1.014540806673601
 20
2.041222456794928
 30
0.0
 10
1.026709284294209
 20
2.034027689719584
 30
0.0
 10
1.035870812964525
 20
2.034587984592125
 30
0.0
 10
1.040700309830562
 20
2.034883343852393
 30
0.0
  0
LWPOLYLINE
  5
12F
330
1F
100
AcDbEntity
  8
0
  6
Continuous
 62
     7
370
    25
100
AcDbPolyline
 90
        3
 70
   128
 43
0.0
 10
1.2596993928
 20
1.0920071918
 10
1.2307820668
 20
1.1193330013
 10
1.1863117069
 20
1.1551160408
  0
SPLINE
  5
131
330
1F
100
AcDbEntity
  8
0
  6
Continuous
 62
     7
370
    25
100
AcDbSpline
210
0.0
220
0.0
230
1.0
 70
     8
 71
     3
 72
    10
 73
     6
 74
     0
 42
0.00000001
 43
0.00000001
 40
0.0
 40
0.0
 40
0.0
 40
0.0
 40
0.4129891391360652
 40
0.8068285704151151
 40
1.0
 40
1.0
 40
1.0
 40
1.0
 10
0.5957598614131246
 20
2.03304720833703
 30
0.0
 10
0.5953711991176882
 20
2.038520002844702
 30
0.0
 10
0.5946118962341861
 20
2.049211826310176
 30
0.0
 10
0.5875642172996425
 20
2.059441538844574
 30
0.0
 10
0.5815808638842579
 20
2.061615538536029
 30
0.0
 10
0.5796118833934023
 20
2.062330950560429
 30
0.0
  0
SPLINE
  5
132
330
1F
100
AcDbEntity
  8
0
  6
Continuous
 62
     7
370
    25
100
AcDbSpline
210
0.0
220
0.0
230
1.0
 70
     8
 71
     3
 72
    12
 73
     8
 74
     0
 42
0.00000001
 43
0.00000001
 40
0.0
 40
0.0
 40
0.0
 40
0.0
 40
0.2128760539456264
 40
0.4024603247954471
 40
0.5789286130004198
 40
0.7836719793651217
 40
1.0
 40
1.0
 40
1.0
 40
1.0
 10
0.5609354804419991
 20
1.99024256732886
 30
0.0
 10
0.5645966692984533
 20
1.991151196996789
 30
0.0
 10
0.5715184588985294
 20
1.992869038832427
 30
0.0
 10
0.5809646185876841
 20
1.999146631965456
 30
0.0
 10
0.5887443470587221
 20
2.008021554187821
 30
0.0
 10
0.5944193096100375
 20
2.019803656921677
 30
0.0
 10
0.5953048893584806
 20
2.028552457903402
 30
0.0
 10
0.5957598614131246
 20
2.03304720833703
 30
0.0
  0
SPLINE
  5
137
330
1F
100
AcDbEntity
  8
0
  6
Continuous
 62
     7
370
    25
100
AcDbSpline
210
0.0
220
0.0
230
1.0
 70
     8
 71
     3
 72
     9
 73
     5
 74
     0
 42
0.00000001
 43
0.00000001
 40
0.0
 40
0.0
 40
0.0
 40
0.0
 40
0.2721947731549205
 40
1.0
 40
1.0
 40
1.0
 40
1.0
 10
0.5706228151212206
 20
2.044080456367027
 30
0.0
 10
0.5698468539888429
 20
2.044466796371909
 30
0.0
 10
0.5669960970717143
 20
2.045886147670994
 30
0.0
 10
0.5636162950920517
 20
2.045375788008521
 30
0.0
 10
0.561156457545552
 20
2.045004345578604
 30
0.0
  0
SPLINE
  5
142
330
1F
100
AcDbEntity
  8
0
  6
Continuous
 62
     7
370
    25
100
AcDbSpline
210
0.0
220
0.0
230
1.0
 70
     8
 71
     3
 72
    11
 73
     7
 74
     0
 42
0.00000001
 43
0.00000001
 40
0.0
 40
0.0
 40
0.0
 40
0.0
 40
0.2502602273632689
 40
0.5009600246102198
 40
0.7251487655861203
 40
0.9999999999999999
 40
0.9999999999999999
 40
0.9999999999999999
 40
0.9999999999999999
 10
0.5830517287897696
 20
2.028205582547146
 30
0.0
 10
0.5828898168206027
 20
2.030800154340026
 30
0.0
 10
0.5825657084917916
 20
2.0359938551646
 30
0.0
 10
0.5784793110148312
 20
2.041398987125653
 30
0.0
 10
0.5725539912390852
 20
2.04383553175877
 30
0.0
 10
0.5681780336244895
 20
2.043402517412072
 30
0.0
 10
0.5657679314053735
 20
2.043164030449947
 30
0.0
  0
SPLINE
  5
143
330
1F
100
AcDbEntity
  8
0
  6
Continuous
 62
     7
370
    25
100
AcDbSpline
210
0.0
220
0.0
230
1.0
 70
     8
 71
     3
 72
    12
 73
     8
 74
     0
 42
0.00000001
 43
0.00000001
 40
0.0
 40
0.0
 40
0.0
 40
0.0
 40
0.2367689276018539
 40
0.4344953719686011
 40
0.6087365171361384
 40
0.8027735137642106
 40
1.0
 40
1.0
 40
1.0
 40
1.0
 10
0.564743357378455
 20
2.007075608026243
 30
0.0
 10
0.5668257472332668
 20
2.007570675192416
 30
0.0
 10
0.5706471471260411
 20
2.008479174439738
 30
0.0
 10
0.5757674861864553
 20
2.011731843755323
 30
0.0
 10
0.5797392166495706
 20
2.016223730296555
 30
0.0
 10
0.5824371388242467
 20
2.021957270968703
 30
0.0
 10
0.5828457551525957
 20
2.026111523850771
 30
0.0
 10
0.5830517287897696
 20
2.028205582547146
 30
0.0
  0
SPLINE
  5
149
330
1F
100
AcDbEntity
  8
0
  6
Continuous
 62
     7
370
    25
100
AcDbSpline
210
0.0
220
0.0
230
1.0
 70
     8
 71
     3
 72
    10
 73
     6
 74
     0
 42
0.00000001
 43
0.00000001
 40
0.0
 40
0.0
 40
0.0
 40
0.0
 40
0.3318641891428213
 40
0.7393997482997531
 40
1.0
 40
1.0
 40
1.0
 40
1.0
 10
0.6283059074608914
 20
2.035567369236734
 30
0.0
 10
0.6288121090865114
 20
2.035593175283321
 30
0.0
 10
0.6299399359711754
 20
2.035650671647724
 30
0.0
 10
0.63142989852061
 20
2.035422499743853
 30
0.0
 10
0.6323134074381483
 20
2.034981745063314
 30
0.0
 10
0.6326580119969049
 20
2.034809832738275
 30
0.0
  0
SPLINE
  5
14A
330
1F
100
AcDbEntity
  8
0
  6
Continuous
 62
     7
370
    25
100
AcDbSpline
210
0.0
220
0.0
230
1.0
 70
     8
 71
     3
 72
    12
 73
     8
 74
     0
 42
0.00000001
 43
0.00000001
 40
0.0
 40
0.0
 40
0.0
 40
0.0
 40
0.200636071782905
 40
0.3867418904007182
 40
0.567435204212176
 40
0.7807258691732369
 40
1.0
 40
1.0
 40
1.0
 40
1.0
 10
0.6172330728544152
 20
2.021154545044863
 30
0.0
 10
0.6173627941015379
 20
2.022507354972589
 30
0.0
 10
0.617612842060968
 20
2.025115003059758
 30
0.0
 10
0.6191795014014558
 20
2.028805858119843
 30
0.0
 10
0.6215181796658364
 20
2.03199067422995
 30
0.0
 10
0.6246527845539873
 20
2.034536306034535
 30
0.0
 10
0.6270770220453257
 20
2.035220526668335
 30
0.0
 10
0.6283059074608914
 20
2.035567369236734
 30
0.0
  0
SPLINE
  5
153
330
1F
100
AcDbEntity
  8
0
  6
Continuous
 62
     7
370
    25
100
AcDbSpline
210
0.0
220
0.0
230
1.0
 70
     8
 71
     3
 72
    12
 73
     8
 74
     0
 42
0.00000001
 43
0.00000001
 40
0.0
 40
0.0
 40
0.0
 40
0.0
 40
0.2176655575660933
 40
0.4120361217304704
 40
0.59336517375122
 40
0.7985795113229981
 40
0.9999999999999999
 40
0.9999999999999999
 40
0.9999999999999999
 40
0.9999999999999999
 10
0.674511480083962
 20
1.974066001364191
 30
0.0
 10
0.6789139323462993
 20
1.97520928330762
 30
0.0
 10
0.6872476778251917
 20
1.977373490926328
 30
0.0
 10
0.6984570533653673
 20
1.98547304417522
 30
0.0
 10
0.7074555954770817
 20
1.996395943499933
 30
0.0
 10
0.7139898445543188
 20
2.009976985283823
 30
0.0
 10
0.715105490596213
 20
2.019900575991024
 30
0.0
 10
0.7156581092024987
 20
2.024816078453305
 30
0.0
  0
SPLINE
  5
154
330
1F
100
AcDbEntity
  8
0
  6
Continuous
 62
     7
370
    25
100
AcDbSpline
210
0.0
220
0.0
230
1.0
 70
     8
 71
     3
 72
     9
 73
     5
 74
     0
 42
0.00000001
 43
0.00000001
 40
0.0
 40
0.0
 40
0.0
 40
0.0
 40
0.2117679606662173
 40
1.0
 40
1.0
 40
1.0
 40
1.0
 10
0.6559807746880473
 20
1.976178744899652
 30
0.0
 10
0.6571332076662082
 20
1.975523151551047
 30
0.0
 10
0.6625751686433814
 20
1.972427341653539
 30
0.0
 10
0.6692500917954278
 20
1.973343699080656
 30
0.0
 10
0.674511480083962
 20
1.974066001364191
 30
0.0
  0
SPLINE
  5
155
330
1F
100
AcDbEntity
  8
0
  6
Continuous
 62
     7
370
    25
100
AcDbSpline
210
0.0
220
0.0
230
1.0
 70
     8
 71
     3
 72
    10
 73
     6
 74
     0
 42
0.00000001
 43
0.00000001
 40
0.0
 40
0.0
 40
0.0
 40
0.0
 40
0.3791336198803715
 40
0.7698625323154273
 40
1.0
 40
1.0
 40
1.0
 40
1.0
 10
0.715658109202499
 20
2.024816078453306
 30
0.0
 10
0.7151400849463935
 20
2.030838172288058
 30
0.0
 10
0.7140881933580606
 20
2.043066537609305
 30
0.0
 10
0.7057682942118788
 20
2.055398243494977
 30
0.0
 10
0.6982713137451626
 20
2.058504004524663
 30
0.0
 10
0.6954923968072569
 20
2.059655221600497
 30
0.0
  0
SPLINE
  5
156
330
1F
100
AcDbEntity
  8
0
  6
Continuous
 62
     7
370
    25
100
AcDbSpline
210
0.0
220
0.0
230
1.0
 70
     8
 71
     3
 72
     9
 73
     5
 74
     0
 42
0.00000001
 43
0.00000001
 40
0.0
 40
0.0
 40
0.0
 40
0.0
 40
0.2257128464145433
 40
1.0
 40
1.0
 40
1.0
 40
1.0
 10
0.6869499713418733
 20
2.043657931605624
 30
0.0
 10
0.6862558752770743
 20
2.04404834285432
 30
0.0
 10
0.6831807465202281
 20
2.045778023973038
 30
0.0
 10
0.6794284589839555
 20
2.045295215823744
 30
0.0
 10
0.6765231109480607
 20
2.044921383676098
 30
0.0
  0
SPLINE
  5
157
330
1F
100
AcDbEntity
  8
0
  6
Continuous
 62
     7
370
    25
100
AcDbSpline
210
0.0
220
0.0
230
1.0
 70
     8
 71
     3
 72
    11
 73
     7
 74
     0
 42
0.00000001
 43
0.00000001
 40
0.0
 40
0.0
 40
0.0
 40
0.0
 40
0.2946164747093076
 40
0.567224259674617
 40
0.7796526051257537
 40
1.0
 40
1.0
 40
1.0
 40
1.0
 10
0.6765231109480607
 20
2.044921383676098
 30
0.0
 10
0.6729191204714946
 20
2.043809160026631
 30
0.0
 10
0.6659803678713159
 20
2.04166779900198
 30
0.0
 10
0.6580570919213827
 20
2.033100543390902
 30
0.0
 10
0.6533187470651722
 20
2.023414912923985
 30
0.0
 10
0.6526247898363983
 20
2.017064916184119
 30
0.0
 10
0.6522714621119755
 20
2.013831820821524
 30
0.0
  0
SPLINE
  5
158
330
1F
100
AcDbEntity
  8
0
  6
Continuous
 62
     7
370
    25
100
AcDbSpline
210
0.0
220
0.0
230
1.0
 70
     8
 71
     3
 72
    10
 73
     6
 74
     0
 42
0.00000001
 43
0.00000001
 40
0.0
 40
0.0
 40
0.0
 40
0.0
 40
0.3985836480975497
 40
0.7852561504571937
 40
0.9999999999999999
 40
0.9999999999999999
 40
0.9999999999999999
 40
0.9999999999999999
 10
0.6522714621119755
 20
2.013831820821524
 30
0.0
 10
0.6525932086169034
 20
2.009913982775004
 30
0.0
 10
0.6532270866575324
 20
2.002195386095965
 30
0.0
 10
0.6584367930703714
 20
1.994657835873892
 30
0.0
 10
0.6629238823808018
 20
1.992820573342009
 30
0.0
 10
0.6645260583587517
 20
1.992164553884823
 30
0.0
  0
SPLINE
  5
15C
330
1F
100
AcDbEntity
  8
0
  6
Continuous
 62
     7
370
    25
100
AcDbSpline
210
0.0
220
0.0
230
1.0
 70
     8
 71
     3
 72
    11
 73
     7
 74
     0
 42
0.00000001
 43
0.00000001
 40
0.0
 40
0.0
 40
0.0
 40
0.0
 40
0.2946164747093076
 40
0.567224259674617
 40
0.7796526051257537
 40
1.0
 40
1.0
 40
1.0
 40
1.0
 10
0.6811345848078822
 20
2.043081068547442
 30
0.0
 10
0.6775305943313161
 20
2.041968844897974
 30
0.0
 10
0.6705918417311374
 20
2.039827483873323
 30
0.0
 10
0.6626685657812046
 20
2.031260228262245
 30
0.0
 10
0.6579302209249938
 20
2.021574597795329
 30
0.0
 10
0.6572362636962198
 20
2.015224601055463
 30
0.0
 10
0.656882935971797
 20
2.011991505692867
 30
0.0
  0
SPLINE
  5
15D
330
1F
100
AcDbEntity
  8
0
  6
Continuous
 62
     7
370
    25
100
AcDbSpline
210
0.0
220
0.0
230
1.0
 70
     8
 71
     3
 72
    11
 73
     7
 74
     0
 42
0.00000001
 43
0.00000001
 40
0.0
 40
0.0
 40
0.0
 40
0.0
 40
0.27804801388695
 40
0.5472940828817552
 40
0.7654382338632676
 40
1.0
 40
1.0
 40
1.0
 40
1.0
 10
0.7038011877541899
 20
2.020121958853997
 30
0.0
 10
0.7034941092981605
 20
2.024080731788455
 30
0.0
 10
0.7028896733246175
 20
2.031872957930309
 30
0.0
 10
0.6970055565966865
 20
2.03968438456679
 30
0.0
 10
0.6894420112376568
 20
2.043621600615448
 30
0.0
 10
0.6839698768824203
 20
2.043265550023313
 30
0.0
 10
0.6811345848078822
 20
2.043081068547442
 30
0.0
  0
SPLINE
  5
15E
330
1F
100
AcDbEntity
  8
0
  6
Continuous
 62
     7
370
    25
100
AcDbSpline
210
0.0
220
0.0
230
1.0
 70
     8
 71
     3
 72
    11
 73
     7
 74
     0
 42
0.00000001
 43
0.00000001
 40
0.0
 40
0.0
 40
0.0
 40
0.0
 40
0.2944353921671858
 40
0.5671062159703172
 40
0.7796530356186341
 40
1.0
 40
1.0
 40
1.0
 40
1.0
 10
0.679600787492168
 20
1.989056348041574
 30
0.0
 10
0.683197231430368
 20
1.990168460940834
 30
0.0
 10
0.6901242713413306
 20
1.992310479715783
 30
0.0
 10
0.6980274537233364
 20
2.000877269241882
 30
0.0
 10
0.7027549221444758
 20
2.010551860464453
 30
0.0
 10
0.703448268173472
 20
2.016893834867402
 30
0.0
 10
0.7038011877541899
 20
2.020121958853997
 30
0.0
  0
SPLINE
  5
15F
330
1F
100
AcDbEntity
  8
0
  6
Continuous
 62
     7
370
    25
100
AcDbSpline
210
0.0
220
0.0
230
1.0
 70
     8
 71
     3
 72
    11
 73
     7
 74
     0
 42
0.00000001
 43
0.00000001
 40
0.0
 40
0.0
 40
0.0
 40
0.0
 40
0.2775048169410042
 40
0.5467167690509198
 40
0.7650852150229065
 40
1.0
 40
1.0
 40
1.0
 40
1.0
 10
0.656882935971797
 20
2.011991505692867
 30
0.0
 10
0.6571918987526932
 20
2.008038055645545
 30
0.0
 10
0.657800591369962
 20
2.000249299182498
 30
0.0
 10
0.6636986104087825
 20
1.992448386113606
 30
0.0
 10
0.6712760150673953
 20
1.988513505909729
 30
0.0
 10
0.6767591458731975
 20
1.988871050148049
 30
0.0
 10
0.679600787492168
 20
1.989056348041574
 30
0.0
  0
SPLINE
  5
163
330
1F
100
AcDbEntity
  8
0
  6
Continuous
 62
     7
370
    25
100
AcDbSpline
210
0.0
220
0.0
230
1.0
 70
     8
 71
     3
 72
    10
 73
     6
 74
     0
 42
0.00000001
 43
0.00000001
 40
0.0
 40
0.0
 40
0.0
 40
0.0
 40
0.2995611677317707
 40
0.6174955900841422
 40
1.0
 40
1.0
 40
1.0
 40
1.0
 10
0.7450278687984897
 20
2.005436242418953
 30
0.0
 10
0.7434507381102978
 20
2.006162546762201
 30
0.0
 10
0.7401997451584444
 20
2.007659702526448
 30
0.0
 10
0.7374271734252137
 20
2.013753802927715
 30
0.0
 10
0.7372638492692185
 20
2.018668223488836
 30
0.0
 10
0.7371746591686188
 20
2.021351951817723
 30
0.0
  0
SPLINE
  5
165
330
1F
100
AcDbEntity
  8
0
  6
Continuous
 62
     7
370
    25
100
AcDbSpline
210
0.0
220
0.0
230
1.0
 70
     8
 71
     3
 72
    12
 73
     8
 74
     0
 42
0.00000001
 43
0.00000001
 40
0.0
 40
0.0
 40
0.0
 40
0.0
 40
0.2479958013994321
 40
0.5206175998575887
 40
0.6692313133377269
 40
0.8258210920275212
 40
1.0
 40
1.0
 40
1.0
 40
1.0
 10
0.7527108872684398
 20
1.955971430918356
 30
0.0
 10
0.7568599840819653
 20
1.957254384519433
 30
0.0
 10
0.7655701832564875
 20
1.959947689086497
 30
0.0
 10
0.7756774700068405
 20
1.96884774570015
 30
0.0
 10
0.7821915065678721
 20
1.978719513617055
 30
0.0
 10
0.7858786600190467
 20
1.988128660515589
 30
0.0
 10
0.7864684902731269
 20
1.99479286973075
 30
0.0
 10
0.7867790879617457
 20
1.998302164081766
 30
0.0
  0
SPLINE
  5
166
330
1F
100
AcDbEntity
  8
0
  6
Continuous
 62
     7
370
    25
100
AcDbSpline
210
0.0
220
0.0
230
1.0
 70
     8
 71
     3
 72
    10
 73
     6
 74
     0
 42
0.00000001
 43
0.00000001
 40
0.0
 40
0.0
 40
0.0
 40
0.0
 40
0.0487225794305579
 40
0.4767432812488493
 40
1.0
 40
1.0
 40
1.0
 40
1.0
 10
0.7350789445700252
 20
1.957242108498673
 30
0.0
 10
0.7353044120476365
 20
1.957058453209038
 30
0.0
 10
0.7375105781896524
 20
1.955261413183185
 30
0.0
 10
0.7438601191592437
 20
1.955154373028944
 30
0.0
 10
0.7495700824842391
 20
1.955681487797446
 30
0.0
 10
0.7527108872684398
 20
1.955971430918356
 30
0.0
  0
SPLINE
  5
167
330
1F
100
AcDbEntity
  8
0
  6
Continuous
 62
     7
370
    25
100
AcDbSpline
210
0.0
220
0.0
230
1.0
 70
     8
 71
     3
 72
     9
 73
     5
 74
     0
 42
0.00000001
 43
0.00000001
 40
0.0
 40
0.0
 40
0.0
 40
0.0
 40
0.213371154023325
 40
1.0
 40
1.0
 40
1.0
 40
1.0
 10
0.7433366239442086
 20
1.973563698675365
 30
0.0
 10
0.7430318150718109
 20
1.973640764036992
 30
0.0
 10
0.7416032767401263
 20
1.974001943888027
 30
0.0
 10
0.7404895674725714
 20
1.975056086957682
 30
0.0
 10
0.7396134916366816
 20
1.97588530630406
 30
0.0
  0
SPLINE
  5
169
330
1F
100
AcDbEntity
  8
0
  6
Continuous
 62
     7
370
    25
100
AcDbSpline
210
0.0
220
0.0
230
1.0
 70
     8
 71
     3
 72
    10
 73
     6
 74
     0
 42
0.00000001
 43
0.00000001
 40
0.0
 40
0.0
 40
0.0
 40
0.0
 40
0.3065668130913913
 40
0.5696808635809745
 40
1.0
 40
1.0
 40
1.0
 40
1.0
 10
0.7498595498804511
 20
1.9871230512113
 30
0.0
 10
0.7523794488294299
 20
1.98767896606738
 30
0.0
 10
0.757062076394088
 20
1.988712000439547
 30
0.0
 10
0.7650747753064591
 20
1.993343660686851
 30
0.0
 10
0.7693454703542654
 20
1.998842499401654
 30
0.0
 10
0.771995706656156
 20
2.002254876501186
 30
0.0
  0
SPLINE
  5
171
330
1F
100
AcDbEntity
  8
0
  6
Continuous
 62
     7
370
    25
100
AcDbSpline
210
0.0
220
0.0
230
1.0
 70
     8
 71
     3
 72
     9
 73
     5
 74
     0
 42
0.00000001
 43
0.00000001
 40
0.0
 40
0.0
 40
0.0
 40
0.0
 40
0.5505980433224257
 40
1.0
 40
1.0
 40
1.0
 40
1.0
 10
0.8338975964489834
 20
2.00168598515324
 30
0.0
 10
0.8411610455196884
 20
2.004314913519767
 30
0.0
 10
0.8543529722960272
 20
2.009089591523818
 30
0.0
 10
0.8638437387370026
 20
2.021995042069427
 30
0.0
 10
0.8681089077459468
 20
2.027794776796429
 30
0.0
  0
SPLINE
  5
172
330
1F
100
AcDbEntity
  8
0
  6
Continuous
 62
     7
370
    25
100
AcDbSpline
210
0.0
220
0.0
230
1.0
 70
     8
 71
     3
 72
     9
 73
     5
 74
     0
 42
0.00000001
 43
0.00000001
 40
0.0
 40
0.0
 40
0.0
 40
0.0
 40
0.2112410919983524
 40
1.0
 40
1.0
 40
1.0
 40
1.0
 10
0.8154106836425878
 20
2.003796400031478
 30
0.0
 10
0.8165573022669473
 20
2.003143508001487
 30
0.0
 10
0.821985311625886
 20
2.000052764511123
 30
0.0
 10
0.8286448367132583
 20
2.000965811336389
 30
0.0
 10
0.8338975964489834
 20
2.00168598515324
 30
0.0
  0
SPLINE
  5
173
330
1F
100
AcDbEntity
  8
0
  6
Continuous
 62
     7
370
    25
100
AcDbSpline
210
0.0
220
0.0
230
1.0
 70
     8
 71
     3
 72
    11
 73
     7
 74
     0
 42
0.00000001
 43
0.00000001
 40
0.0
 40
0.0
 40
0.0
 40
0.0
 40
0.3151496600420503
 40
0.5892705197803332
 40
0.8425911570169037
 40
1.0
 40
1.0
 40
1.0
 40
1.0
 10
0.8725928950636798
 20
2.049140210342564
 30
0.0
 10
0.8723769324285321
 20
2.054626076787958
 30
0.0
 10
0.8719731229678152
 20
2.06488361402056
 30
0.0
 10
0.8661839381612265
 20
2.076917155579236
 30
0.0
 10
0.8592531960554565
 20
2.084430375381645
 30
0.0
 10
0.853797345966488
 20
2.086374157518757
 30
0.0
 10
0.8517064343291386
 20
2.08711909673532
 30
0.0
  0
SPLINE
  5
176
330
1F
100
AcDbEntity
  8
0
  6
Continuous
 62
     7
370
    25
100
AcDbSpline
210
0.0
220
0.0
230
1.0
 70
     8
 71
     3
 72
    10
 73
     6
 74
     0
 42
0.00000001
 43
0.00000001
 40
0.0
 40
0.0
 40
0.0
 40
0.0
 40
0.3462059034714596
 40
0.6707591797212389
 40
1.0
 40
1.0
 40
1.0
 40
1.0
 10
0.8238216027018519
 20
2.018714272246422
 30
0.0
 10
0.8217361931659753
 20
2.019693394933681
 30
0.0
 10
0.8176958010881943
 20
2.02159040340167
 30
0.0
 10
0.8135599017698624
 20
2.027681983928141
 30
0.0
 10
0.8128074511768315
 20
2.032836734992696
 30
0.0
 10
0.8124285284368066
 20
2.035432589678198
 30
0.0
  0
SPLINE
  5
177
330
1F
100
AcDbEntity
  8
0
  6
Continuous
 62
     7
370
    25
100
AcDbSpline
210
0.0
220
0.0
230
1.0
 70
     8
 71
     3
 72
     9
 73
     5
 74
     0
 42
0.00000001
 43
0.00000001
 40
0.0
 40
0.0
 40
0.0
 40
0.0
 40
0.3734334587130267
 40
1.0
 40
1.0
 40
1.0
 40
1.0
 10
0.8434502805704229
 20
2.072120307568364
 30
0.0
 10
0.8423404608678484
 20
2.072592088141787
 30
0.0
 10
0.839368526573586
 20
2.07385544728226
 30
0.0
 10
0.8359784001697821
 20
2.073444796676284
 30
0.0
 10
0.8338542603944252
 20
2.07318749674642
 30
0.0
  0
SPLINE
  5
178
330
1F
100
AcDbEntity
  8
0
  6
Continuous
 62
     7
370
    25
100
AcDbSpline
210
0.0
220
0.0
230
1.0
 70
     8
 71
     3
 72
    11
 73
     7
 74
     0
 42
0.00000001
 43
0.00000001
 40
0.0
 40
0.0
 40
0.0
 40
0.0
 40
0.2797231536921683
 40
0.547413683473837
 40
0.7642441735167511
 40
1.0
 40
1.0
 40
1.0
 40
1.0
 10
0.8338542603944252
 20
2.07318749674642
 30
0.0
 10
0.8311927760284997
 20
2.072435037233378
 30
0.0
 10
0.825984294209856
 20
2.070962486147553
 30
0.0
 10
0.8195570807217039
 20
2.065137930019307
 30
0.0
 10
0.8150428154890687
 20
2.057980102478238
 30
0.0
 10
0.8135999254230729
 20
2.052876887232584
 30
0.0
 10
0.8128483124652522
 20
2.050218581658531
 30
0.0
  0
SPLINE
  5
17B
330
1F
100
AcDbEntity
  8
0
  6
Continuous
 62
     7
370
    25
100
AcDbSpline
210
0.0
220
0.0
230
1.0
 70
     8
 71
     3
 72
    11
 73
     7
 74
     0
 42
0.00000001
 43
0.00000001
 40
0.0
 40
0.0
 40
0.0
 40
0.0
 40
0.2797231536921683
 40
0.5474136834738371
 40
0.7642441735167512
 40
1.0
 40
1.0
 40
1.0
 40
1.0
 10
0.8384657342542468
 20
2.071347181617764
 30
0.0
 10
0.8358042498883216
 20
2.070594722104721
 30
0.0
 10
0.8305957680696784
 20
2.069122171018896
 30
0.0
 10
0.8241685545815252
 20
2.063297614890651
 30
0.0
 10
0.8196542893488904
 20
2.056139787349583
 30
0.0
 10
0.8182113992828943
 20
2.051036572103927
 30
0.0
 10
0.817459786325074
 20
2.048378266529875
 30
0.0
  0
SPLINE
  5
17C
330
1F
100
AcDbEntity
  8
0
  6
Continuous
 62
     7
370
    25
100
AcDbSpline
210
0.0
220
0.0
230
1.0
 70
     8
 71
     3
 72
    11
 73
     7
 74
     0
 42
0.00000001
 43
0.00000001
 40
0.0
 40
0.0
 40
0.0
 40
0.0
 40
0.300612807014081
 40
0.5718862445461386
 40
0.7817669420178197
 40
0.9999999999999999
 40
0.9999999999999999
 40
0.9999999999999999
 40
0.9999999999999999
 10
0.8592707710572317
 20
2.055623682547551
 30
0.0
 10
0.8582791728146975
 20
2.058669479412518
 30
0.0
 10
0.8563927548651294
 20
2.064463807831382
 30
0.0
 10
0.8508340256085908
 20
2.069678615598741
 30
0.0
 10
0.8446864096822069
 20
2.071904736842368
 30
0.0
 10
0.8405660881093875
 20
2.071535435012272
 30
0.0
 10
0.8384657342542468
 20
2.071347181617764
 30
0.0
  0
SPLINE
  5
184
330
1F
100
AcDbEntity
  8
0
  6
Continuous
 62
     7
370
    25
100
AcDbSpline
210
0.0
220
0.0
230
1.0
 70
     8
 71
     3
 72
    11
 73
     7
 74
     0
 42
0.00000001
 43
0.00000001
 40
0.0
 40
0.0
 40
0.0
 40
0.0
 40
0.2782824273697385
 40
0.54714474374686
 40
0.7649968584362248
 40
1.0
 40
1.0
 40
1.0
 40
1.0
 10
0.8947618336818645
 20
2.055852922059867
 30
0.0
 10
0.8952910653565302
 20
2.059954647784289
 30
0.0
 10
0.8963316137366587
 20
2.068019252120326
 30
0.0
 10
0.902672850653825
 20
2.077965688959431
 30
0.0
 10
0.910521494374879
 20
2.08457707389015
 30
0.0
 10
0.9160223253670146
 20
2.086118773571856
 30
0.0
 10
0.9188769075906127
 20
2.086918817876402
 30
0.0
  0
SPLINE
  5
185
330
1F
100
AcDbEntity
  8
0
  6
Continuous
 62
     7
370
    25
100
AcDbSpline
210
0.0
220
0.0
230
1.0
 70
     8
 71
     3
 72
    10
 73
     6
 74
     0
 42
0.00000001
 43
0.00000001
 40
0.0
 40
0.0
 40
0.0
 40
0.0
 40
0.3794147249827201
 40
0.6841809943194017
 40
1.0
 40
1.0
 40
1.0
 40
1.0
 10
0.9069008073162582
 20
2.033925665810915
 30
0.0
 10
0.904218770381073
 20
2.035486962674276
 30
0.0
 10
0.8993823774413952
 20
2.038302376969151
 30
0.0
 10
0.895290645185813
 20
2.046602932155879
 30
0.0
 10
0.8949401847710382
 20
2.052733198374008
 30
0.0
 10
0.8947618336818645
 20
2.055852922059867
 30
0.0
  0
SPLINE
  5
187
330
1F
100
AcDbEntity
  8
0
  6
Continuous
 62
     7
370
    25
100
AcDbSpline
210
0.0
220
0.0
230
1.0
 70
     8
 71
     3
 72
    10
 73
     6
 74
     0
 42
0.00000001
 43
0.00000001
 40
0.0
 40
0.0
 40
0.0
 40
0.0
 40
0.2962085828492422
 40
0.5796975449369411
 40
0.9999999999999999
 40
0.9999999999999999
 40
0.9999999999999999
 40
0.9999999999999999
 10
0.9170177324593612
 20
2.016089854583703
 30
0.0
 10
0.9207672933501969
 20
2.017115840617565
 30
0.0
 10
0.9281054036172963
 20
2.019123755375633
 30
0.0
 10
0.9401777079582937
 20
2.027334623016896
 30
0.0
 10
0.9463504898186084
 20
2.036417230678014
 30
0.0
 10
0.950036859540141
 20
2.041841341011438
 30
0.0
  0
SPLINE
  5
188
330
1F
100
AcDbEntity
  8
0
  6
Continuous
 62
     7
370
    25
100
AcDbSpline
210
0.0
220
0.0
230
1.0
 70
     8
 71
     3
 72
     9
 73
     5
 74
     0
 42
0.00000001
 43
0.00000001
 40
0.0
 40
0.0
 40
0.0
 40
0.0
 40
0.2114792673425225
 40
1.0
 40
1.0
 40
1.0
 40
1.0
 10
0.898513655037754
 20
2.018201452113014
 30
0.0
 10
0.8996627405421962
 20
2.017547431301731
 30
0.0
 10
0.9050963015663173
 20
2.014454831164132
 30
0.0
 10
0.9117618272576693
 20
2.015369007550079
 30
0.0
 10
0.9170177324593612
 20
2.016089854583703
 30
0.0
  0
SPLINE
  5
18E
330
1F
100
AcDbEntity
  8
0
  6
Continuous
 62
     7
370
    25
100
AcDbSpline
210
0.0
220
0.0
230
1.0
 70
     8
 71
     3
 72
    11
 73
     7
 74
     0
 42
0.00000001
 43
0.00000001
 40
0.0
 40
0.0
 40
0.0
 40
0.0
 40
0.2572943322466025
 40
0.5007434440587817
 40
0.7229154403348094
 40
1.0
 40
1.0
 40
1.0
 40
1.0
 10
0.9872239295814972
 20
2.049864186893604
 30
0.0
 10
0.9860868508534193
 20
2.050548854709001
 30
0.0
 10
0.9838738805423674
 20
2.051881347799402
 30
0.0
 10
0.9819524648900002
 20
2.055580185932589
 30
0.0
 10
0.9812069405260628
 20
2.060039351996685
 30
0.0
 10
0.9812316796537895
 20
2.063188013749774
 30
0.0
 10
0.9812454097295017
 20
2.064935503181824
 30
0.0
  0
SPLINE
  5
19C
330
1F
100
AcDbEntity
  8
0
  6
Continuous
 62
     7
370
    25
100
AcDbSpline
210
0.0
220
0.0
230
1.0
 70
     8
 71
     3
 72
     9
 73
     5
 74
     0
 42
0.00000001
 43
0.00000001
 40
0.0
 40
0.0
 40
0.0
 40
0.0
 40
0.5353287742144457
 40
1.0
 40
1.0
 40
1.0
 40
1.0
 10
1.062000989125118
 20
2.11617052573797
 30
0.0
 10
1.060717802977728
 20
2.117906075832237
 30
0.0
 10
1.058320797232478
 20
2.121148102373427
 30
0.0
 10
1.05481813978134
 20
2.122599109913102
 30
0.0
 10
1.053190555650013
 20
2.123273351365187
 30
0.0
  0
SPLINE
  5
1A0
330
1F
100
AcDbEntity
  8
0
  6
Continuous
 62
     7
370
    25
100
AcDbSpline
210
0.0
220
0.0
230
1.0
 70
     8
 71
     3
 72
    10
 73
     6
 74
     0
 42
0.00000001
 43
0.00000001
 40
0.0
 40
0.0
 40
0.0
 40
0.0
 40
0.3026245345869779
 40
0.5881187255956078
 40
1.0
 40
1.0
 40
1.0
 40
1.0
 10
1.036088835970741
 20
2.036723658981049
 30
0.0
 10
1.038785129731024
 20
2.037406420566626
 30
0.0
 10
1.044025091032555
 20
2.038733295382452
 30
0.0
 10
1.052737705825562
 20
2.043737579500733
 30
0.0
 10
1.057437637776207
 20
2.049692668526568
 30
0.0
 10
1.060213493907449
 20
2.053209840808646
 30
0.0
  0
SPLINE
  5
1A1
330
1F
100
AcDbEntity
  8
0
  6
Continuous
 62
     7
370
    25
100
AcDbSpline
210
0.0
220
0.0
230
1.0
 70
     8
 71
     3
 72
     9
 73
     5
 74
     0
 42
0.00000001
 43
0.00000001
 40
0.0
 40
0.0
 40
0.0
 40
0.0
 40
0.1629563210626785
 40
1.0
 40
1.0
 40
1.0
 40
1.0
 10
1.019648408903125
 20
2.038588889757176
 30
0.0
 10
1.020419418718727
 20
2.038114812994548
 30
0.0
 10
1.025150808152252
 20
2.035205587015856
 30
0.0
 10
1.031104954993669
 20
2.036031953847848
 30
0.0
 10
1.036088835970741
 20
2.036723658981049
 30
0.0
  0
SPLINE
  5
1A2
330
1F
100
AcDbEntity
  8
0
  6
Continuous
 62
     7
370
    25
100
AcDbSpline
210
0.0
220
0.0
230
1.0
 70
     8
 71
     3
 72
    10
 73
     6
 74
     0
 42
0.00000001
 43
0.00000001
 40
0.0
 40
0.0
 40
0.0
 40
0.0
 40
0.3954185658457485
 40
0.780180711251188
 40
1.0
 40
1.0
 40
1.0
 40
1.0
 10
1.016278581240943
 20
2.076910531557003
 30
0.0
 10
1.016631286966647
 20
2.072990768552555
 30
0.0
 10
1.017327193096787
 20
2.065256879067104
 30
0.0
 10
1.022665956142629
 20
2.057767117184226
 30
0.0
 10
1.027192249058167
 20
2.05583962982294
 30
0.0
 10
1.028837960343951
 20
2.05513881620728
 30
0.0
  0
SPLINE
  5
1A3
330
1F
100
AcDbEntity
  8
0
  6
Continuous
 62
     7
370
    25
100
AcDbSpline
210
0.0
220
0.0
230
1.0
 70
     8
 71
     3
 72
     9
 73
     5
 74
     0
 42
0.00000001
 43
0.00000001
 40
0.0
 40
0.0
 40
0.0
 40
0.0
 40
0.2047261835619414
 40
1.0
 40
1.0
 40
1.0
 40
1.0
 10
1.049491625701623
 20
2.106710550549193
 30
0.0
 10
1.048927111575907
 20
2.107038294279218
 30
0.0
 10
1.046169701087939
 20
2.108639182472036
 30
0.0
 10
1.042777190245594
 20
2.108239664404626
 30
0.0
 10
1.040079215200695
 20
2.107921938146421
 30
0.0
  0
SPLINE
  5
1A4
330
1F
100
AcDbEntity
  8
0
  6
Continuous
 62
     7
370
    25
100
AcDbSpline
210
0.0
220
0.0
230
1.0
 70
     8
 71
     3
 72
    11
 73
     7
 74
     0
 42
0.00000001
 43
0.00000001
 40
0.0
 40
0.0
 40
0.0
 40
0.0
 40
0.2839316370593334
 40
0.5591632118546076
 40
0.7760831793717208
 40
1.0
 40
1.0
 40
1.0
 40
1.0
 10
1.040079215200695
 20
2.107921938146421
 30
0.0
 10
1.036661692696008
 20
2.106809703140691
 30
0.0
 10
1.029931365353491
 20
2.104619313564585
 30
0.0
 10
1.022235224817922
 20
2.096148958654493
 30
0.0
 10
1.017383287518566
 20
2.086533054767805
 30
0.0
 10
1.0166506925227
 20
2.080151799863556
 30
0.0
 10
1.016278581240943
 20
2.076910531557003
 30
0.0
  0
SPLINE
  5
1A7
330
1F
100
AcDbEntity
  8
0
  6
Continuous
 62
     7
370
    25
100
AcDbSpline
210
0.0
220
0.0
230
1.0
 70
     8
 71
     3
 72
    11
 73
     7
 74
     0
 42
0.00000001
 43
0.00000001
 40
0.0
 40
0.0
 40
0.0
 40
0.0
 40
0.2845563626564949
 40
0.5602421815874875
 40
0.7776248862295844
 40
1.0
 40
1.0
 40
1.0
 40
1.0
 10
1.066642655759124
 20
2.082998674171782
 30
0.0
 10
1.066304622528442
 20
2.08695672146554
 30
0.0
 10
1.065639093658034
 20
2.094749430895687
 30
0.0
 10
1.059746407012308
 20
2.102432040446363
 30
0.0
 10
1.052516686962911
 20
2.106466061533045
 30
0.0
 10
1.047319024081061
 20
2.106210735397497
 30
0.0
 10
1.044690689060516
 20
2.106081623017765
 30
0.0
  0
SPLINE
  5
1A8
330
1F
100
AcDbEntity
  8
0
  6
Continuous
 62
     7
370
    25
100
AcDbSpline
210
0.0
220
0.0
230
1.0
 70
     8
 71
     3
 72
    11
 73
     7
 74
     0
 42
0.00000001
 43
0.00000001
 40
0.0
 40
0.0
 40
0.0
 40
0.0
 40
0.2811003164139187
 40
0.5564778096029042
 40
0.7746364893897297
 40
1.0
 40
1.0
 40
1.0
 40
1.0
 10
1.043156891744802
 20
2.052056902511897
 30
0.0
 10
1.046512733228479
 20
2.053165633713025
 30
0.0
 10
1.05315609579041
 20
2.055360523843758
 30
0.0
 10
1.060731690800435
 20
2.063812850565575
 30
0.0
 10
1.065540466897316
 20
2.073394491252866
 30
0.0
 10
1.066271302102022
 20
2.079762796388941
 30
0.0
 10
1.066642655759124
 20
2.082998674171782
 30
0.0
  0
SPLINE
  5
1A9
330
1F
100
AcDbEntity
  8
0
  6
Continuous
 62
     7
370
    25
100
AcDbSpline
210
0.0
220
0.0
230
1.0
 70
     8
 71
     3
 72
    11
 73
     7
 74
     0
 42
0.00000001
 43
0.00000001
 40
0.0
 40
0.0
 40
0.0
 40
0.0
 40
0.2822079854868131
 40
0.5568105442063529
 40
0.7749350209177028
 40
1.0
 40
1.0
 40
1.0
 40
1.0
 10
1.020890055100764
 20
2.075070216428347
 30
0.0
 10
1.02123075295373
 20
2.071116476942764
 30
0.0
 10
1.021902966947223
 20
2.063315550151767
 30
0.0
 10
1.027862039197721
 20
2.055642055718772
 30
0.0
 10
1.035199755561566
 20
2.051639067742713
 30
0.0
 10
1.040476965364714
 20
2.05191617770907
 30
0.0
 10
1.043156891744802
 20
2.052056902511897
 30
0.0
  0
SPLINE
  5
1AA
330
1F
100
AcDbEntity
  8
0
  6
Continuous
 62
     7
370
    25
100
AcDbSpline
210
0.0
220
0.0
230
1.0
 70
     8
 71
     3
 72
    11
 73
     7
 74
     0
 42
0.00000001
 43
0.00000001
 40
0.0
 40
0.0
 40
0.0
 40
0.0
 40
0.2839316370593334
 40
0.5591632118546076
 40
0.7760831793717208
 40
1.0
 40
1.0
 40
1.0
 40
1.0
 10
1.044690689060516
 20
2.106081623017765
 30
0.0
 10
1.041273166555829
 20
2.104969388012034
 30
0.0
 10
1.034542839213312
 20
2.102778998435928
 30
0.0
 10
1.026846698677744
 20
2.094308643525837
 30
0.0
 10
1.021994761378388
 20
2.084692739639148
 30
0.0
 10
1.021262166382521
 20
2.078311484734899
 30
0.0
 10
1.020890055100764
 20
2.075070216428347
 30
0.0
  0
SPLINE
  5
1B4
330
1F
100
AcDbEntity
  8
0
  6
Continuous
 62
     7
370
    25
100
AcDbSpline
210
0.0
220
0.0
230
1.0
 70
     8
 71
     3
 72
     9
 73
     5
 74
     0
 42
0.00000001
 43
0.00000001
 40
0.0
 40
0.0
 40
0.0
 40
0.0
 40
0.5603127187464393
 40
1.0
 40
1.0
 40
1.0
 40
1.0
 10
2.21331693083464
 20
0.6301428806871252
 30
0.0
 10
2.211148215951147
 20
0.6401759779279854
 30
0.0
 10
2.207277672215598
 20
0.6580822236817971
 30
0.0
 10
2.197518286973465
 20
0.6713549349647254
 30
0.0
 10
2.193227209409646
 20
0.6771907773035798
 30
0.0
  0
SPLINE
  5
1B6
330
1F
100
AcDbEntity
  8
0
  6
Continuous
 62
     7
370
    25
100
AcDbSpline
210
0.0
220
0.0
230
1.0
 70
     8
 71
     3
 72
     9
 73
     5
 74
     0
 42
0.00000001
 43
0.00000001
 40
0.0
 40
0.0
 40
0.0
 40
0.0
 40
0.823712286146566
 40
1.0
 40
1.0
 40
1.0
 40
1.0
 10
2.122852854902709
 20
0.6522312751906235
 30
0.0
 10
2.129326986344469
 20
0.6530310031223057
 30
0.0
 10
2.137186686327877
 20
0.6540018857291725
 30
0.0
 10
2.143354381946289
 20
0.6499933556767169
 30
0.0
 10
2.144441670906602
 20
0.6492867010778564
 30
0.0
  0
SPLINE
  5
1B7
330
1F
100
AcDbEntity
  8
0
  6
Continuous
 62
     7
370
    25
100
AcDbSpline
210
0.0
220
0.0
230
1.0
 70
     8
 71
     3
 72
     9
 73
     5
 74
     0
 42
0.00000001
 43
0.00000001
 40
0.0
 40
0.0
 40
0.0
 40
0.0
 40
0.0274358025780641
 40
1.0
 40
1.0
 40
1.0
 40
1.0
 10
2.098800041190231
 20
0.643322680071268
 30
0.0
 10
2.098987856987566
 20
0.6435046867540979
 30
0.0
 10
2.105833503175617
 20
0.6501385981300055
 30
0.0
 10
2.11446153756321
 20
0.651199489868461
 30
0.0
 10
2.122852854902709
 20
0.6522312751906235
 30
0.0
  0
LWPOLYLINE
  5
1BC
330
1F
100
AcDbEntity
  8
0
  6
Continuous
 62
     7
370
    25
100
AcDbPolyline
 90
       18
 70
   128
 43
0.0
 10
1.5118629241
 20
0.8629222608
 10
1.4814154645
 20
0.871929309
 10
1.4184526919
 20
0.883834527
 10
1.3535993488
 20
0.8873990752
 10
1.287565982
 20
0.8825838998
 10
1.2210760668
 20
0.8694417567
 10
1.1548580808
 20
0.8481166341
 10
1.089637522
 20
0.8188421745
 10
1.0261289605
 20
0.781939115
 10
0.9650282094
 20
0.7378117731
 10
0.9070047013
 20
0.6869436174
 10
0.852694154
 20
0.62989197
 10
0.8026916051
 20
0.5672819006
 10
0.757544893
 20
0.4997993783
 10
0.7177486545
 20
0.4281837558
 10
0.6837389056
 20
0.3532196687
 10
0.6558882642
 20
0.2757284392
 10
0.6345018678
 20
0.1965590776
  0
LWPOLYLINE
  5
1BE
330
1F
100
AcDbEntity
  8
0
  6
Continuous
 62
     7
370
    25
100
AcDbPolyline
 90
       19
 70
   128
 43
0.0
 10
-1.360046771
 20
0.9523560254
 10
-1.3764790217
 20
0.9462697664
 10
-1.4090102335
 20
0.9275366232
 10
-1.4388107619
 20
0.900907519
 10
-1.4653254795
 20
0.8668785035
 10
-1.4880604673
 20
0.8260834729
 10
-1.5065922155
 20
0.7792823614
 10
-1.5205755127
 20
0.7273469853
 10
-1.5297498766
 20
0.6712448023
 10
-1.533944406
 20
0.6120208898
 10
-1.5330809648
 20
0.5507784775
 10
-1.5271756373
 20
0.4886583954
 10
-1.5163384286
 20
0.4268178233
 10
-1.5007712154
 20
0.3664087339
 10
-1.4807639854
 20
0.3085564343
 10
-1.4566894355
 20
0.2543386034
 10
-1.4289960289
 20
0.2047652167
 10
-1.3981996414
 20
0.1607597328
 10
-1.3830392946
 20
0.1424936995
  0
LWPOLYLINE
  5
1C0
330
1F
100
AcDbEntity
  8
0
  6
Continuous
 62
     7
370
    25
100
AcDbPolyline
 90
        9
 70
   128
 43
0.0
 10
-1.5174168836
 20
0.6054252004
 10
-1.5131866033
 20
0.6635103062
 10
-1.5038514548
 20
0.7183413846
 10
-1.4896014749
 20
0.7688022329
 10
-1.4707267522
 20
0.8138656137
 10
-1.4476115214
 20
0.8526141667
 10
-1.4207263422
 20
0.8842590829
 10
-1.3906185191
 20
0.9081561632
 10
-1.3608866333
 20
0.922773678
  0
SPLINE
  5
1C2
330
1F
100
AcDbEntity
  8
0
  6
Continuous
 62
     7
370
    25
100
AcDbSpline
210
0.0
220
0.0
230
1.0
 70
     8
 71
     3
 72
    12
 73
     8
 74
     0
 42
0.00000001
 43
0.00000001
 40
0.0
 40
0.0
 40
0.0
 40
0.0
 40
0.1264445437096321
 40
0.3300611393852638
 40
0.5457548789916591
 40
0.761446330616928
 40
1.0
 40
1.0
 40
1.0
 40
1.0
 10
-1.361770993274889
 20
0.8916239955961398
 30
0.0
 10
-1.368549733825427
 20
0.8875972299172996
 30
0.0
 10
-1.38624443827108
 20
0.8770860696172753
 30
0.0
 10
-1.411613661172277
 20
0.8491057528297001
 30
0.0
 10
-1.436772773063518
 20
0.8087863655607188
 30
0.0
 10
-1.45802645210656
 20
0.7577724927847205
 30
0.0
 10
-1.46643411087168
 20
0.7169986336116612
 30
0.0
 10
-1.470849519549903
 20
0.6955856271294995
 30
0.0
  0
SPLINE
  5
1C3
330
1F
100
AcDbEntity
  8
0
  6
Continuous
 62
     7
370
    25
100
AcDbSpline
210
0.0
220
0.0
230
1.0
 70
     8
 71
     3
 72
    14
 73
    10
 74
     0
 42
0.00000001
 43
0.00000001
 40
0.0
 40
0.0
 40
0.0
 40
0.0
 40
0.2164631592043688
 40
0.3561610278948825
 40
0.4999113052368488
 40
0.639493114458665
 40
0.7831785198147367
 40
0.9218306984490415
 40
1.0
 40
1.0
 40
1.0
 40
1.0
 10
-1.470849519557941
 20
0.6955856270746497
 30
0.0
 10
-1.474476752914964
 20
0.6639116128603909
 30
0.0
 10
-1.480444877770946
 20
0.611796280618303
 30
0.0
 10
-1.475609773121849
 20
0.5328345638295942
 30
0.0
 10
-1.465414624671901
 20
0.4659053964436612
 30
0.0
 10
-1.448472731348096
 20
0.3995916688761704
 30
0.0
 10
-1.425587000710445
 20
0.3377322238174196
 30
0.0
 10
-1.402077914280897
 20
0.2880780438729532
 30
0.0
 10
-1.384994265938046
 20
0.2629137389234478
 30
0.0
 10
-1.378835204309273
 20
0.2538414083580565
 30
0.0
  0
SPLINE
  5
1C5
330
1F
100
AcDbEntity
  8
0
  6
Continuous
 62
     7
370
    25
100
AcDbSpline
210
0.0
220
0.0
230
1.0
 70
     8
 71
     3
 72
    12
 73
     8
 74
     0
 42
0.00000001
 43
0.00000001
 40
0.0
 40
0.0
 40
0.0
 40
0.0
 40
0.3316315389614834
 40
0.5367976798090934
 40
0.7419662252342422
 40
0.9472811694056551
 40
1.0
 40
1.0
 40
1.0
 40
1.0
 10
-1.42904572123451
 20
0.6322500001179951
 30
0.0
 10
-1.428019639250238
 20
0.6643583132811144
 30
0.0
 10
-1.426358764563301
 20
0.7163306560278881
 30
0.0
 10
-1.410996382971322
 20
0.7777455716892288
 30
0.0
 10
-1.392976106569671
 20
0.821384163835658
 30
0.0
 10
-1.376351062669644
 20
0.8499590351043431
 30
0.0
 10
-1.364918159813103
 20
0.860826855412566
 30
0.0
 10
-1.362582305642684
 20
0.8630472576768783
 30
0.0
  0
SPLINE
  5
1C6
330
1F
100
AcDbEntity
  8
0
  6
Continuous
 62
     7
370
    25
100
AcDbSpline
210
0.0
220
0.0
230
1.0
 70
     8
 71
     3
 72
    17
 73
    13
 74
     0
 42
0.00000001
 43
0.00000001
 40
0.0
 40
0.0
 40
0.0
 40
0.0
 40
0.0772595286511999
 40
0.1805911303199186
 40
0.2839092979651515
 40
0.3872060119957968
 40
0.490489810483795
 40
0.5937516761853089
 40
0.6970010708829187
 40
0.8002281369491144
 40
0.9034430884111292
 40
1.0
 40
1.0
 40
1.0
 40
1.0
 10
-1.361992712267811
 20
0.8838144196498366
 30
0.0
 10
-1.37129437083869
 20
0.8769629259125225
 30
0.0
 10
-1.393036634407871
 20
0.8609478269337614
 30
0.0
 10
-1.420852770450757
 20
0.8200525271436179
 30
0.0
 10
-1.444955276162244
 20
0.765709088987303
 30
0.0
 10
-1.460996940528335
 20
0.7013900099693188
 30
0.0
 10
-1.468619113032176
 20
0.6301605075741323
 30
0.0
 10
-1.467322206370586
 20
0.554459379159965
 30
0.0
 10
-1.457235515263959
 20
0.4771027202933264
 30
0.0
 10
-1.438421956870959
 20
0.4011887690603958
 30
0.0
 10
-1.412769506964283
 20
0.3301403187525374
 30
0.0
 10
-1.390296536244793
 20
0.2892345661489773
 30
0.0
 10
-1.379434542900173
 20
0.2694633477336385
 30
0.0
  0
SPLINE
  5
1C7
330
1F
100
AcDbEntity
  8
0
  6
Continuous
 62
     7
370
    25
100
AcDbSpline
210
0.0
220
0.0
230
1.0
 70
     8
 71
     3
 72
    12
 73
     8
 74
     0
 42
0.00000001
 43
0.00000001
 40
0.0
 40
0.0
 40
0.0
 40
0.0
 40
0.1655292539399646
 40
0.3952612110030163
 40
0.6249427614459405
 40
0.8545821366775473
 40
1.0
 40
1.0
 40
1.0
 40
1.0
 10
-1.470849519557941
 20
0.6955856270746499
 30
0.0
 10
-1.473754152140132
 20
0.6732215463079979
 30
0.0
 10
-1.480690017339961
 20
0.6198191812492991
 30
0.0
 10
-1.476773563582169
 20
0.5266897974823408
 30
0.0
 10
-1.457278059359472
 20
0.4242504421113566
 30
0.0
 10
-1.428609099122735
 20
0.3369651123148795
 30
0.0
 10
-1.402519272807429
 20
0.2921027326043872
 30
0.0
 10
-1.392403678686776
 20
0.274708610506621
 30
0.0
  0
SPLINE
  5
1C8
330
1F
100
AcDbEntity
  8
0
  6
Continuous
 62
     7
370
    25
100
AcDbSpline
210
0.0
220
0.0
230
1.0
 70
     8
 71
     3
 72
    11
 73
     7
 74
     0
 42
0.00000001
 43
0.00000001
 40
0.0
 40
0.0
 40
0.0
 40
0.0
 40
0.3528582455104292
 40
0.705719134777247
 40
0.9174580983753182
 40
0.9999999999999999
 40
0.9999999999999999
 40
0.9999999999999999
 40
0.9999999999999999
 10
-1.429045721234514
 20
0.6322500001179643
 30
0.0
 10
-1.429368019183019
 20
0.5989346805169048
 30
0.0
 10
-1.430012617494814
 20
0.5323037917029652
 30
0.0
 10
-1.411222559343944
 20
0.4425345206868496
 30
0.0
 10
-1.392159840869731
 20
0.3820377334754406
 30
0.0
 10
-1.380434437078578
 20
0.3570848456968032
 30
0.0
 10
-1.377145615953541
 20
0.3500858897615712
 30
0.0
  0
SPLINE
  5
1C9
330
1F
100
AcDbEntity
  8
0
  6
Continuous
 62
     7
370
    25
100
AcDbSpline
210
0.0
220
0.0
230
1.0
 70
     8
 71
     3
 72
    15
 73
    11
 74
     0
 42
0.00000001
 43
0.00000001
 40
0.0
 40
0.0
 40
0.0
 40
0.0
 40
0.1215009771763559
 40
0.250814761231718
 40
0.3801289378835078
 40
0.5094814218008368
 40
0.6388342389619532
 40
0.7682264829409127
 40
0.8976189216256479
 40
1.0
 40
1.0
 40
1.0
 40
1.0
 10
-1.376150669740055
 20
0.3851307360072138
 30
0.0
 10
-1.382412409141046
 20
0.4033569049703157
 30
0.0
 10
-1.395338532940653
 20
0.4409812296703067
 30
0.0
 10
-1.407833773596492
 20
0.501162914346615
 30
0.0
 10
-1.415091862407855
 20
0.5627024365914001
 30
0.0
 10
-1.415887438284068
 20
0.6229424806884379
 30
0.0
 10
-1.410672578817465
 20
0.6802479991358626
 30
0.0
 10
-1.399195199023261
 20
0.7325218177510853
 30
0.0
 10
-1.383857456995836
 20
0.7764000136015692
 30
0.0
 10
-1.370177430672557
 20
0.7985762895169611
 30
0.0
 10
-1.364134566651946
 20
0.8083721931704669
 30
0.0
  0
LWPOLYLINE
  5
1CA
330
1F
100
AcDbEntity
  8
0
  6
Continuous
 62
     7
370
    25
100
AcDbPolyline
 90
        3
 70
   128
 43
0.0
 10
1.0665243821
 20
1.1690981406
 10
1.0576629948
 20
1.1847398041
 10
1.0265546426
 20
1.2324575347
  0
SPLINE
  5
1CC
330
1F
100
AcDbEntity
  8
0
  6
Continuous
 62
     7
370
    25
100
AcDbSpline
210
0.0
220
0.0
230
1.0
 70
     8
 71
     3
 72
    26
 73
    22
 74
     0
 42
0.00000001
 43
0.00000001
 40
0.0
 40
0.0
 40
0.0
 40
0.0
 40
0.0369586589519286
 40
0.0884540563262335
 40
0.140302896481067
 40
0.1917870679995147
 40
0.2436985307177426
 40
0.2956448982166442
 40
0.3472073099353336
 40
0.3990228358228959
 40
0.4506104168958961
 40
0.5024624287393028
 40
0.5540725492178615
 40
0.605927155218143
 40
0.664730500393278
 40
0.7214812771114252
 40
0.7771033177387566
 40
0.8328262620962936
 40
0.8885480839017071
 40
0.9442668471566095
 40
1.0
 40
1.0
 40
1.0
 40
1.0
 10
2.263805307004687
 20
0.5289659777956771
 30
0.0
 10
2.240301594000946
 20
0.5445784690704717
 30
0.0
 10
2.18404958668075
 20
0.5819442237210866
 30
0.0
 10
2.083298087060268
 20
0.6147390592229817
 30
0.0
 10
1.967447675431854
 20
0.6296800663915634
 30
0.0
 10
1.848064624453827
 20
0.6192157266274924
 30
0.0
 10
1.729272382006904
 20
0.5845825511192235
 30
0.0
 10
1.614389480199404
 20
0.5263474509081343
 30
0.0
 10
1.506864700127103
 20
0.4464244692756485
 30
0.0
 10
1.40992659924463
 20
0.3472415809024921
 30
0.0
 10
1.3259492314577
 20
0.2312615135900363
 30
0.0
 10
1.257725538833408
 20
0.1021161477892598
 30
0.0
 10
1.206787738502287
 20
-0.0368407416101906
 30
0.0
 10
1.174166188389719
 20
-0.1878233375870834
 30
0.0
 10
1.161615148723591
 20
-0.3455937368956944
 30
0.0
 10
1.17984988355459
 20
-0.5013840057621741
 30
0.0
 10
1.18993434439048
 20
-0.6561505223619837
 30
0.0
 10
1.202633026015184
 20
-0.8093018402710236
 30
0.0
 10
1.214432268838433
 20
-0.9627571030438341
 30
0.0
 10
1.22651078833909
 20
-1.116154988126549
 30
0.0
 10
1.234533600706958
 20
-1.218406653539825
 30
0.0
 10
1.238545524804682
 20
-1.26953908711722
 30
0.0
  0
SPLINE
  5
1CD
330
1F
100
AcDbEntity
  8
0
  6
Continuous
 62
     7
370
    25
100
AcDbSpline
210
0.0
220
0.0
230
1.0
 70
     8
 71
     3
 72
    10
 73
     6
 74
     0
 42
0.00000001
 43
0.00000001
 40
0.0
 40
0.0
 40
0.0
 40
0.0
 40
0.1879412617811011
 40
0.6089481382858802
 40
1.0
 40
1.0
 40
1.0
 40
1.0
 10
2.546801416518095
 20
-1.046884501567316
 30
0.0
 10
2.546973940529667
 20
-1.047325367640198
 30
0.0
 10
2.547532935263773
 20
-1.048753816995976
 30
0.0
 10
2.541720828891773
 20
-1.050797564577531
 30
0.0
 10
2.533651412162796
 20
-1.051793660428048
 30
0.0
 10
2.529765535087286
 20
-1.052273336488975
 30
0.0
  0
LWPOLYLINE
  5
1CE
330
1F
100
AcDbEntity
  8
0
  6
Continuous
 62
     7
370
    25
100
AcDbPolyline
 90
        5
 70
   128
 43
0.0
 10
1.1908737809
 20
-1.826694329
 10
1.1861650265
 20
-1.8253193356
 10
1.1830158854
 20
-1.8236172977
 10
1.181552892
 20
-1.821656604
 10
1.181461071
 20
-1.8211608415
  0
SPLINE
  5
1CF
330
1F
100
AcDbEntity
  8
0
  6
Continuous
 62
     7
370
    25
100
AcDbSpline
210
0.0
220
0.0
230
1.0
 70
     8
 71
     3
 72
    10
 73
     6
 74
     0
 42
0.00000001
 43
0.00000001
 40
0.0
 40
0.0
 40
0.0
 40
0.0
 40
0.3422124508371372
 40
0.807158203244002
 40
1.0
 40
1.0
 40
1.0
 40
1.0
 10
0.865004847977728
 20
-1.0310742324341
 30
0.0
 10
0.8642206530231895
 20
-1.033743224056633
 30
0.0
 10
0.8623710143295952
 20
-1.040038431835446
 30
0.0
 10
0.8632249947561661
 20
-1.046560482982928
 30
0.0
 10
0.8656186796299571
 20
-1.049306875226065
 30
0.0
 10
0.8663204297505195
 20
-1.050112027612176
 30
0.0
  0
SPLINE
  5
1D0
330
1F
100
AcDbEntity
  8
0
  6
Continuous
 62
     7
370
    25
100
AcDbSpline
210
0.0
220
0.0
230
1.0
 70
     8
 71
     3
 72
    10
 73
     6
 74
     0
 42
0.00000001
 43
0.00000001
 40
0.0
 40
0.0
 40
0.0
 40
0.0
 40
0.0529839509063677
 40
0.3731409975950523
 40
1.0
 40
1.0
 40
1.0
 40
1.0
 10
1.339431390453987
 20
-3.540180734495079
 30
0.0
 10
1.339404402824829
 20
-3.540293569500006
 30
0.0
 10
1.339214341670563
 20
-3.541088213266313
 30
0.0
 10
1.340879171890858
 20
-3.543037198672947
 30
0.0
 10
1.34486016068001
 20
-3.544430294401532
 30
0.0
 10
1.34749529940162
 20
-3.545352427241319
 30
0.0
  0
SPLINE
  5
1D1
330
1F
100
AcDbEntity
  8
0
  6
Continuous
 62
     7
370
    25
100
AcDbSpline
210
0.0
220
0.0
230
1.0
 70
     8
 71
     3
 72
    13
 73
     9
 74
     0
 42
0.00000001
 43
0.00000001
 40
0.0
 40
0.0
 40
0.0
 40
0.0
 40
0.1139141697573825
 40
0.2621949474005363
 40
0.4151053920133781
 40
0.5596696374922959
 40
0.7203871370800481
 40
1.0
 40
1.0
 40
1.0
 40
1.0
 10
1.453729639195368
 20
-3.602299492901606
 30
0.0
 10
1.455114431034361
 20
-3.602422077241747
 30
0.0
 10
1.458301790641675
 20
-3.602704228221596
 30
0.0
 10
1.463371514525845
 20
-3.599806674177188
 30
0.0
 10
1.468493126499555
 20
-3.595638159697972
 30
0.0
 10
1.473224993755427
 20
-3.589661343714571
 30
0.0
 10
1.478452915216403
 20
-3.580459426875486
 30
0.0
 10
1.480596250600258
 20
-3.571957318835187
 30
0.0
 10
1.481957283574373
 20
-3.566558420706827
 30
0.0
  0
SPLINE
  5
1D2
330
1F
100
AcDbEntity
  8
0
  6
Continuous
 62
     7
370
    25
100
AcDbSpline
210
0.0
220
0.0
230
1.0
 70
     8
 71
     3
 72
    11
 73
     7
 74
     0
 42
0.00000001
 43
0.00000001
 40
0.0
 40
0.0
 40
0.0
 40
0.0
 40
0.2817048191481034
 40
0.5634096388792085
 40
0.845114458610322
 40
1.0
 40
1.0
 40
1.0
 40
1.0
 10
1.420820589793051
 20
-3.568735298809153
 30
0.0
 10
1.421426292145634
 20
-3.573032457880074
 30
0.0
 10
1.422637696852053
 20
-3.581626776030812
 30
0.0
 10
1.428683329168462
 20
-3.591974435037397
 30
0.0
 10
1.435675910907016
 20
-3.598765452754726
 30
0.0
 10
1.441055343715119
 20
-3.600251375518124
 30
0.0
 10
1.442963760476115
 20
-3.600778524012839
 30
0.0
  0
SPLINE
  5
1D3
330
1F
100
AcDbEntity
  8
0
  6
Continuous
 62
     7
370
    25
100
AcDbSpline
210
0.0
220
0.0
230
1.0
 70
     8
 71
     3
 72
    11
 73
     7
 74
     0
 42
0.00000001
 43
0.00000001
 40
0.0
 40
0.0
 40
0.0
 40
0.0
 40
0.4034140640814073
 40
0.6489219689421084
 40
0.8427488685969422
 40
1.0
 40
1.0
 40
1.0
 40
1.0
 10
2.44496170518793
 20
-3.398680628556488
 30
0.0
 10
2.449073941030414
 20
-3.398190266455159
 30
0.0
 10
2.455688782745799
 20
-3.397401482006075
 30
0.0
 10
2.46046677191775
 20
-3.395780729988343
 30
0.0
 10
2.462596857939995
 20
-3.394511680490539
 30
0.0
 10
2.462599744020228
 20
-3.393700134323457
 30
0.0
 10
2.462601036722538
 20
-3.393336635210239
 30
0.0
  0
SPLINE
  5
1D4
330
1F
100
AcDbEntity
  8
0
  6
Continuous
 62
     7
370
    25
100
AcDbSpline
210
0.0
220
0.0
230
1.0
 70
     8
 71
     3
 72
    12
 73
     8
 74
     0
 42
0.00000001
 43
0.00000001
 40
0.0
 40
0.0
 40
0.0
 40
0.0
 40
0.1401376771171541
 40
0.3183377818422265
 40
0.4868559758039329
 40
0.6741216284065821
 40
1.0
 40
1.0
 40
1.0
 40
1.0
 10
2.437921925403215
 20
-3.431102131445702
 30
0.0
 10
2.438997595069522
 20
-3.430551948839434
 30
0.0
 10
2.441441094224148
 20
-3.429302149969558
 30
0.0
 10
2.444136733611753
 20
-3.425492751830986
 30
0.0
 10
2.44608213005442
 20
-3.42007723603682
 30
0.0
 10
2.447203930455792
 20
-3.411567609541576
 30
0.0
 10
2.445832590988757
 20
-3.403685963674066
 30
0.0
 10
2.444961705133428
 20
-3.398680628330244
 30
0.0
  0
SPLINE
  5
1D5
330
1F
100
AcDbEntity
  8
0
  6
Continuous
 62
     7
370
    25
100
AcDbSpline
210
0.0
220
0.0
230
1.0
 70
     8
 71
     3
 72
    11
 73
     7
 74
     0
 42
0.00000001
 43
0.00000001
 40
0.0
 40
0.0
 40
0.0
 40
0.0
 40
0.2818006633926485
 40
0.5636013267853126
 40
0.8454019901779719
 40
1.0
 40
1.0
 40
1.0
 40
1.0
 10
1.347494909778835
 20
-3.545352528961386
 30
0.0
 10
1.348111354135564
 20
-3.549632085202469
 30
0.0
 10
1.349344242849023
 20
-3.558191197684635
 30
0.0
 10
1.35539276613792
 20
-3.568486864015342
 30
0.0
 10
1.362369516044545
 20
-3.575240549310413
 30
0.0
 10
1.367729047742905
 20
-3.576719392522965
 30
0.0
 10
1.369627708268247
 20
-3.577243285539907
 30
0.0
  0
LWPOLYLINE
  5
1D6
330
1F
100
AcDbEntity
  8
0
  6
Continuous
 62
     7
370
    25
100
AcDbPolyline
 90
       44
 70
   128
 43
0.0
 10
1.394058718
 20
1.0383880006
 10
1.3642448054
 20
1.0760736028
 10
1.3131206598
 20
1.1299861018
 10
1.257166965
 20
1.1770020658
 10
1.1968610981
 20
1.2167203711
 10
1.1327175675
 20
1.2488021553
 10
1.0652836232
 20
1.2729737077
 10
0.9951345878
 20
1.2890288052
 10
0.9228689481
 20
1.2968304715
 10
0.8491032493
 20
1.2963121454
 10
0.774466834
 20
1.2874782492
 10
0.699596474
 20
1.2704041504
 10
0.6251309368
 20
1.2452355194
 10
0.551705536
 20
1.2121870859
 10
0.4799467113
 20
1.1715408076
 10
0.4104666836
 20
1.1236434642
 10
0.3438582322
 20
1.0689036989
 10
0.2806896367
 20
1.0077885321
 10
0.2214998295
 20
0.9408193768
 10
0.166793797
 20
0.8685675904
 10
0.1170382718
 20
0.7916495995
 10
0.0726577505
 20
0.7107216413
 10
0.0340308721
 20
0.6264741646
 10
0.0014871875
 20
0.5396259393
 10
-0.024695652
 20
0.4509179236
 10
-0.0442942638
 20
0.3611069432
 10
-0.0571414393
 20
0.2709592337
 10
-0.063127571
 20
0.1812439035
 10
-0.0622015873
 20
0.0927263722
 10
-0.0543713885
 20
0.0061618402
 10
-0.0397037789
 20
-0.0777111546
 10
-0.0183238975
 20
-0.1581770371
 10
0.0095858501
 20
-0.234549301
 10
0.0437873479
 20
-0.3061763649
 10
0.0839888006
 20
-0.3724471321
 10
0.1298472237
 20
-0.4327962037
 10
0.1809713692
 20
-0.4867087027
 10
0.2369250641
 20
-0.5337246667
 10
0.297230931
 20
-0.5734429721
 10
0.3613744616
 20
-0.6055247562
 10
0.4288084059
 20
-0.6296963086
 10
0.4989574413
 20
-0.6457514062
 10
0.5712230809
 20
-0.6535530725
 10
0.6161066742
 20
-0.6542273656
  0
LWPOLYLINE
  5
1D9
330
1F
100
AcDbEntity
  8
0
  6
Continuous
 62
     7
370
    25
100
AcDbPolyline
 90
        8
 70
   128
 43
0.0
 10
-1.1078426564
 20
-2.1216053441
 10
-1.1089808562
 20
-2.1348795379
 10
-1.1115877999
 20
-2.1471228738
 10
-1.1155790375
 20
-2.157938738
 10
-1.1208252759
 20
-2.1669767587
 10
-1.127156567
 20
-2.173944156
 10
-1.1343678135
 20
-2.1786152263
 10
-1.140910519
 20
-2.1806471196
  0
LWPOLYLINE
  5
1DD
330
1F
100
AcDbEntity
  8
0
  6
Continuous
 62
     7
370
    25
100
AcDbPolyline
 90
       27
 70
   128
 43
0.0
 10
0.622025102
 20
-0.4899046569
 10
0.6177628218
 20
-0.4834509782
 10
0.580456289
 20
-0.4188170809
 10
0.549334498
 20
-0.3488801007
 10
0.5246971686
 20
-0.2743135691
 10
0.5067815718
 20
-0.1958356023
 10
0.4957602445
 20
-0.1142019862
 10
0.4917393283
 20
-0.0301988971
 10
0.4947575466
 20
0.0553646694
 10
0.5047858325
 20
0.1416646893
 10
0.5217276079
 20
0.2278700462
 10
0.5454197145
 20
0.3131505354
 10
0.5756339842
 20
0.3966848593
 10
0.6120794371
 20
0.4776685366
 10
0.6544050835
 20
0.5553216502
 10
0.7022033044
 20
0.6288963581
 10
0.7550137768
 20
0.6976840958
 10
0.8123279069
 20
0.7610223998
 10
0.8735937284
 20
0.8183012874
 10
0.9382212178
 20
0.8689691318
 10
1.0055879772
 20
0.9125379738
 10
1.0750452278
 20
0.9485882218
 10
1.1459240583
 20
0.976772692
 10
1.2175418668
 20
0.9968199528
 10
1.2892089347
 20
1.0085369379
 10
1.360235069
 20
1.0118108065
 10
1.3801714355
 20
1.0111958688
  0
LINE
  5
1DE
330
1F
100
AcDbEntity
  8
0
  6
Continuous
 62
     7
370
    25
100
AcDbLine
 10
2.2963017455
 20
0.5056182608
 30
0.0
 11
2.2646757955
 21
0.5314296915
 31
0.0
  0
LINE
  5
1DF
330
1F
100
AcDbEntity
  8
0
  6
Continuous
 62
     7
370
    25
100
AcDbLine
 10
1.3674810178
 20
-3.5771055613
 30
0.0
 11
1.4430056236
 21
-3.6013462969
 31
0.0
  0
LINE
  5
1E0
330
1F
100
AcDbEntity
  8
0
  6
Continuous
 62
     7
370
    25
100
AcDbLine
 10
-1.1568213671
 20
-2.1817577185
 30
0.0
 11
-1.1410050047
 21
-2.1798882477
 31
0.0
  0
LINE
  5
1E1
330
1F
100
AcDbEntity
  8
0
  6
Continuous
 62
     7
370
    25
100
AcDbLine
 10
-1.1646755672
 20
-2.1805595116
 30
0.0
 11
-1.1568213671
 21
-2.1817577185
 31
0.0
  0
LINE
  5
1E2
330
1F
100
AcDbEntity
  8
0
  6
Continuous
 62
     7
370
    25
100
AcDbLine
 10
-1.4011239371
 20
-2.1497324003
 30
0.0
 11
-1.1646799752
 21
-2.1811129955
 31
0.0
  0
LINE
  5
1E3
330
1F
100
AcDbEntity
  8
0
  6
Continuous
 62
     7
370
    25
100
AcDbLine
 10
-1.1408760107
 20
-2.1806411636
 30
0.0
 11
1.1754635434
 21
-1.77924321
 31
0.0
  0
LINE
  5
1E4
330
1F
100
AcDbEntity
  8
0
  6
Continuous
 62
     7
370
    25
100
AcDbLine
 10
0.5759367284
 20
2.0423122864
 30
0.0
 11
0.5701723861
 21
2.0446126803
 31
0.0
  0
LINE
  5
1E5
330
1F
100
AcDbEntity
  8
0
  6
Continuous
 62
     7
370
    25
100
AcDbLine
 10
0.6373169547
 20
2.033080257
 30
0.0
 11
0.6327054809
 21
2.0349205721
 31
0.0
  0
LINE
  5
1E6
330
1F
100
AcDbEntity
  8
0
  6
Continuous
 62
     7
370
    25
100
AcDbLine
 10
0.6637977888
 20
1.9920628971
 30
0.0
 11
0.6695621311
 21
1.9897625031
 31
0.0
  0
LINE
  5
1E7
330
1F
100
AcDbEntity
  8
0
  6
Continuous
 62
     7
370
    25
100
AcDbLine
 10
0.692289371
 20
2.0419180301
 30
0.0
 11
0.6865250286
 21
2.044218424
 31
0.0
  0
LINE
  5
1E8
330
1F
100
AcDbEntity
  8
0
  6
Continuous
 62
     7
370
    25
100
AcDbLine
 10
0.7442889419
 20
2.0053580997
 30
0.0
 11
0.7500532842
 21
2.0030577058
 31
0.0
  0
LINE
  5
1E9
330
1F
100
AcDbEntity
  8
0
  6
Continuous
 62
     7
370
    25
100
AcDbLine
 10
0.7427230806
 20
1.9736827082
 30
0.0
 11
0.7484874229
 21
1.9713823143
 31
0.0
  0
LINE
  5
1EA
330
1F
100
AcDbEntity
  8
0
  6
Continuous
 62
     7
370
    25
100
AcDbLine
 10
0.8231070873
 20
2.018674963
 30
0.0
 11
0.8288714296
 21
2.016374569
 31
0.0
  0
LINE
  5
1EB
330
1F
100
AcDbEntity
  8
0
  6
Continuous
 62
     7
370
    25
100
AcDbLine
 10
0.8487275991
 20
2.0702922988
 30
0.0
 11
0.8429632568
 21
2.0725926927
 31
0.0
  0
LINE
  5
1EC
330
1F
100
AcDbEntity
  8
0
  6
Continuous
 62
     7
370
    25
100
AcDbLine
 10
0.9062831764
 20
2.0340868731
 30
0.0
 11
0.9120475187
 21
2.0317864792
 31
0.0
  0
LINE
  5
1ED
330
1F
100
AcDbEntity
  8
0
  6
Continuous
 62
     7
370
    25
100
AcDbLine
 10
1.0281234662
 20
2.0550726623
 30
0.0
 11
1.0338878085
 21
2.0527722684
 31
0.0
  0
LINE
  5
1EE
330
1F
100
AcDbEntity
  8
0
  6
Continuous
 62
     7
370
    25
100
AcDbLine
 10
1.0548123758
 20
2.1049218748
 30
0.0
 11
1.0490480335
 21
2.1072222687
 31
0.0
  0
LINE
  5
1EF
330
1F
100
AcDbEntity
  8
0
  6
Continuous
 62
     7
370
    25
100
AcDbLine
 10
2.5652116913
 20
0.0236411904
 30
0.0
 11
2.6435466451
 21
2.7828219105
 31
0.0
  0
LINE
  5
1F0
330
1F
100
AcDbEntity
  8
0
  6
Continuous
 62
     7
370
    25
100
AcDbLine
 10
2.6134564364
 20
2.8469942036
 30
0.0
 11
2.4493659457
 21
2.9757976475
 31
0.0
  0
LINE
  5
1F1
330
1F
100
AcDbEntity
  8
0
  6
Continuous
 62
     7
370
    25
100
AcDbLine
 10
2.1500018695
 20
0.647944054
 30
0.0
 11
2.1442375272
 21
0.650244448
 31
0.0
  0
LINE
  5
1F2
330
1F
100
AcDbEntity
  8
0
  6
Continuous
 62
     7
370
    25
100
AcDbLine
 10
1.5582832935
 20
0.9728503916
 30
0.0
 11
0.8466946385
 21
1.2568262758
 31
0.0
  0
LINE
  5
1F3
330
1F
100
AcDbEntity
  8
0
  6
Continuous
 62
     7
370
    25
100
AcDbLine
 10
0.1755027283
 20
-0.4252284152
 30
0.0
 11
0.6182156519
 21
-0.6019032302
 31
0.0
  0
LINE
  5
1F4
330
1F
100
AcDbEntity
  8
0
  6
Continuous
 62
     7
370
    25
100
AcDbLine
 10
-1.4895028313
 20
0.8261501614
 30
0.0
 11
-1.5010253618
 21
0.7951752052
 31
0.0
  0
LINE
  5
1F5
330
1F
100
AcDbEntity
  8
0
  6
Continuous
 62
     7
370
    25
100
AcDbLine
 10
-1.3883026254
 20
0.148606542
 30
0.0
 11
-1.3830425629
 21
0.1423785814
 31
0.0
  0
LINE
  5
1F6
330
1F
100
AcDbEntity
  8
0
  6
Continuous
 62
     7
370
    25
100
AcDbLine
 10
1.2980289365
 20
-1.2670142105
 30
0.0
 11
1.4819572835
 21
-3.566558421
 31
0.0
  0
LINE
  5
1F7
330
1F
100
AcDbEntity
  8
0
  6
Continuous
 62
     7
370
    25
100
AcDbLine
 10
2.4449617052
 20
-3.3986806286
 30
0.0
 11
2.5297655351
 21
-1.0522733365
 31
0.0
  0
LINE
  5
1F8
330
1F
100
AcDbEntity
  8
0
  6
Continuous
 62
     7
370
    25
100
AcDbLine
 10
2.2546918961
 20
-0.4329783912
 30
0.0
 11
2.2482687939
 21
-0.1319307121
 31
0.0
  0
LINE
  5
1F9
330
1F
100
AcDbEntity
  8
0
  6
Continuous
 62
     7
370
    25
100
AcDbLine
 10
2.2482687939
 20
-0.1319307121
 30
0.0
 11
2.2216454243
 21
-0.1365722285
 31
0.0
  0
LINE
  5
1FA
330
1F
100
AcDbEntity
  8
0
  6
Continuous
 62
     7
370
    25
100
AcDbLine
 10
2.2216454243
 20
-0.1365722285
 30
0.0
 11
2.2280685265
 21
-0.4376199076
 31
0.0
  0
LINE
  5
1FB
330
1F
100
AcDbEntity
  8
0
  6
Continuous
 62
     7
370
    25
100
AcDbLine
 10
2.2280685265
 20
-0.4376199076
 30
0.0
 11
2.2546918961
 21
-0.4329783912
 31
0.0
  0
LINE
  5
1FC
330
1F
100
AcDbEntity
  8
0
  6
Continuous
 62
     7
370
    25
100
AcDbLine
 10
1.5649356406
 20
-0.2510629671
 30
0.0
 11
1.538312271
 21
-0.2557044836
 31
0.0
  0
LINE
  5
1FD
330
1F
100
AcDbEntity
  8
0
  6
Continuous
 62
     7
370
    25
100
AcDbLine
 10
1.538312271
 20
-0.2557044836
 30
0.0
 11
1.5447353732
 21
-0.5567521626
 31
0.0
  0
LINE
  5
1FE
330
1F
100
AcDbEntity
  8
0
  6
Continuous
 62
     7
370
    25
100
AcDbLine
 10
1.5447353732
 20
-0.5567521626
 30
0.0
 11
1.5713587428
 21
-0.5521106462
 31
0.0
  0
LINE
  5
1FF
330
1F
100
AcDbEntity
  8
0
  6
Continuous
 62
     7
370
    25
100
AcDbLine
 10
1.5713587428
 20
-0.5521106462
 30
0.0
 11
1.5649356406
 21
-0.2510629671
 31
0.0
  0
LINE
  5
200
330
1F
100
AcDbEntity
  8
0
  6
Continuous
 62
     7
370
    25
100
AcDbLine
 10
1.2385226914
 20
-1.2695320818
 30
0.0
 11
0.8667462471
 21
-1.0315221241
 31
0.0
  0
LINE
  5
201
330
1F
100
AcDbEntity
  8
0
  6
Continuous
 62
     7
370
    25
100
AcDbLine
 10
0.6377581987
 20
-0.0329027834
 30
0.0
 11
0.6105884362
 21
-0.8239771099
 31
0.0
  0
LINE
  5
202
330
1F
100
AcDbEntity
  8
0
  6
Continuous
 62
     7
370
    25
100
AcDbLine
 10
1.1908737809
 20
-1.826694329
 30
0.0
 11
1.3474952994
 21
-3.545352427
 31
0.0
  0
LINE
  5
203
330
1F
100
AcDbEntity
  8
0
  6
Continuous
 62
     7
370
    25
100
AcDbLine
 10
1.2385226909
 20
-1.2695320819
 30
0.0
 11
1.4208209739
 21
-3.5687352002
 31
0.0
  0
LINE
  5
204
330
1F
100
AcDbEntity
  8
0
  6
Continuous
 62
     7
370
    25
100
AcDbLine
 10
1.3474949226
 20
-3.545352533
 30
0.0
 11
1.420820577
 21
-3.5687352947
 31
0.0
  0
LINE
  5
205
330
1F
100
AcDbEntity
  8
0
  6
Continuous
 62
     7
370
    25
100
AcDbLine
 10
1.5446920967
 20
-0.5547238157
 30
0.0
 11
1.5667454682
 21
-0.5508790325
 31
0.0
  0
LINE
  5
206
330
1F
100
AcDbEntity
  8
0
  6
Continuous
 62
     7
370
    25
100
AcDbLine
 10
1.5667454682
 20
-0.5508790325
 30
0.0
 11
1.5603656425
 21
-0.2518597003
 31
0.0
  0
LINE
  5
207
330
1F
100
AcDbEntity
  8
0
  6
Continuous
 62
     7
370
    25
100
AcDbLine
 10
1.5667454682
 20
-0.5508790325
 30
0.0
 11
1.5713587428
 21
-0.5521106462
 31
0.0
  0
LINE
  5
208
330
1F
100
AcDbEntity
  8
0
  6
Continuous
 62
     7
370
    25
100
AcDbLine
 10
2.2500786215
 20
-0.4317467775
 30
0.0
 11
2.2436987958
 21
-0.1327274453
 31
0.0
  0
LINE
  5
209
330
1F
100
AcDbEntity
  8
0
  6
Continuous
 62
     7
370
    25
100
AcDbLine
 10
2.22802525
 20
-0.4355915607
 30
0.0
 11
2.2500786215
 21
-0.4317467775
 31
0.0
  0
LINE
  5
20A
330
1F
100
AcDbEntity
  8
0
  6
Continuous
 62
     7
370
    25
100
AcDbLine
 10
2.2500786215
 20
-0.4317467775
 30
0.0
 11
2.2546918961
 21
-0.4329783912
 31
0.0
  0
LINE
  5
20B
330
1F
100
AcDbEntity
  8
0
  6
Continuous
 62
     7
370
    25
100
AcDbLine
 10
1.4475351889
 20
-3.6023456411
 30
0.0
 11
1.4537296392
 21
-3.6022994929
 31
0.0
  0
LINE
  5
20C
330
1F
100
AcDbEntity
  8
0
  6
Continuous
 62
     7
370
    25
100
AcDbLine
 10
1.4429637605
 20
-3.600778524
 30
0.0
 11
1.4475351903
 21
-3.6023456344
 31
0.0
  0
LINE
  5
20D
330
1F
100
AcDbEntity
  8
0
  6
Continuous
 62
     7
370
    25
100
AcDbLine
 10
-1.0902634513
 20
2.1482432876
 30
0.0
 11
-1.3228270122
 21
2.2633421944
 31
0.0
  0
LINE
  5
20E
330
1F
100
AcDbEntity
  8
0
  6
Continuous
 62
     7
370
    25
100
AcDbLine
 10
-1.257699261
 20
2.3493582369
 30
0.0
 11
-1.0251356982
 21
2.2342593296
 31
0.0
  0
LINE
  5
20F
330
1F
100
AcDbEntity
  8
0
  6
Continuous
 62
     7
370
    25
100
AcDbLine
 10
-1.0902634513
 20
2.1482432876
 30
0.0
 11
-1.2113383212
 21
-2.1163593658
 31
0.0
  0
LINE
  5
210
330
1F
100
AcDbEntity
  8
0
  6
Continuous
 62
     7
370
    25
100
AcDbLine
 10
-0.9867677846
 20
2.1429973096
 30
0.0
 11
-1.1078426564
 21
-2.1216053441
 31
0.0
  0
LINE
  5
211
330
1F
100
AcDbEntity
  8
0
  6
Continuous
 62
     7
370
    25
100
AcDbLine
 10
-1.446284346
 20
-2.0851775749
 30
0.0
 11
-1.2113383212
 21
-2.1163593658
 31
0.0
  0
LINE
  5
212
330
1F
100
AcDbEntity
  8
0
  6
Continuous
 62
     7
370
    25
100
AcDbLine
 10
-1.3228270122
 20
2.2633421944
 30
0.0
 11
-1.446284346
 21
-2.0851775749
 31
0.0
  0
LINE
  5
213
330
1F
100
AcDbEntity
  8
0
  6
Continuous
 62
     7
370
    25
100
AcDbLine
 10
2.5729481331
 20
2.8577704585
 30
0.0
 11
-1.0251356982
 21
2.2342593296
 31
0.0
  0
LINE
  5
214
330
1F
100
AcDbEntity
  8
0
  6
Continuous
 62
     7
370
    25
100
AcDbLine
 10
2.6113160486
 20
2.7665084374
 30
0.0
 11
-0.9867677846
 21
2.1429973096
 31
0.0
  0
LINE
  5
215
330
1F
100
AcDbEntity
  8
0
  6
Continuous
 62
     7
370
    25
100
AcDbLine
 10
2.4107766273
 20
2.9850675877
 30
0.0
 11
-1.257699261
 21
2.3493582369
 31
0.0
  0
LINE
  5
216
330
1F
100
AcDbEntity
  8
0
  6
Continuous
 62
     7
370
    25
100
AcDbLine
 10
2.5729481331
 20
2.8577704585
 30
0.0
 11
2.4107766273
 21
2.9850675877
 31
0.0
  0
LINE
  5
217
330
1F
100
AcDbEntity
  8
0
  6
Continuous
 62
     7
370
    25
100
AcDbLine
 10
2.1739901361
 20
0.6119967527
 30
0.0
 11
2.2179284047
 21
0.6283025656
 31
0.0
  0
LINE
  5
218
330
1F
100
AcDbEntity
  8
0
  6
Continuous
 62
     7
370
    25
100
AcDbLine
 10
-0.6828887651
 20
-0.0652904249
 30
0.0
 11
-0.6795561824
 21
0.0520926524
 31
0.0
  0
LINE
  5
219
330
1F
100
AcDbEntity
  8
0
  6
Continuous
 62
     7
370
    25
100
AcDbLine
 10
-0.6795561824
 20
0.0520926524
 30
0.0
 11
-0.5868839455
 21
0.0681518032
 31
0.0
  0
LINE
  5
21A
330
1F
100
AcDbEntity
  8
0
  6
Continuous
 62
     7
370
    25
100
AcDbLine
 10
-0.5868839455
 20
0.0681518032
 30
0.0
 11
-0.5902165282
 21
-0.049231274
 31
0.0
  0
LINE
  5
21B
330
1F
100
AcDbEntity
  8
0
  6
Continuous
 62
     7
370
    25
100
AcDbLine
 10
-0.5902165282
 20
-0.049231274
 30
0.0
 11
-0.5467764171
 21
-0.0417035471
 31
0.0
  0
LINE
  5
21C
330
1F
100
AcDbEntity
  8
0
  6
Continuous
 62
     7
370
    25
100
AcDbLine
 10
-0.5467764171
 20
-0.0417035471
 30
0.0
 11
-0.5391310804
 21
0.2275870418
 31
0.0
  0
LINE
  5
21D
330
1F
100
AcDbEntity
  8
0
  6
Continuous
 62
     7
370
    25
100
AcDbLine
 10
-0.5391310804
 20
0.2275870418
 30
0.0
 11
-0.5825711914
 21
0.2200593149
 31
0.0
  0
LINE
  5
21E
330
1F
100
AcDbEntity
  8
0
  6
Continuous
 62
     7
370
    25
100
AcDbLine
 10
-0.5825711914
 20
0.2200593149
 30
0.0
 11
-0.5856097227
 21
0.113033568
 31
0.0
  0
LINE
  5
21F
330
1F
100
AcDbEntity
  8
0
  6
Continuous
 62
     7
370
    25
100
AcDbLine
 10
-0.5856097227
 20
0.113033568
 30
0.0
 11
-0.6782819596
 21
0.0969744172
 31
0.0
  0
LINE
  5
220
330
1F
100
AcDbEntity
  8
0
  6
Continuous
 62
     7
370
    25
100
AcDbLine
 10
-0.6782819596
 20
0.0969744172
 30
0.0
 11
-0.6752434283
 21
0.204000164
 31
0.0
  0
LINE
  5
221
330
1F
100
AcDbEntity
  8
0
  6
Continuous
 62
     7
370
    25
100
AcDbLine
 10
-0.6752434283
 20
0.204000164
 30
0.0
 11
-0.7186835394
 21
0.1964724371
 31
0.0
  0
LINE
  5
222
330
1F
100
AcDbEntity
  8
0
  6
Continuous
 62
     7
370
    25
100
AcDbLine
 10
-0.7186835394
 20
0.1964724371
 30
0.0
 11
-0.7263288762
 21
-0.0728181518
 31
0.0
  0
LINE
  5
223
330
1F
100
AcDbEntity
  8
0
  6
Continuous
 62
     7
370
    25
100
AcDbLine
 10
-0.7263288762
 20
-0.0728181518
 30
0.0
 11
-0.6828887651
 21
-0.0652904249
 31
0.0
  0
LINE
  5
224
330
1F
100
AcDbEntity
  8
0
  6
Continuous
 62
     7
370
    25
100
AcDbLine
 10
0.999699734
 20
2.1149614207
 30
0.0
 11
0.9872682394
 21
2.1128071698
 31
0.0
  0
LINE
  5
225
330
1F
100
AcDbEntity
  8
0
  6
Continuous
 62
     7
370
    25
100
AcDbLine
 10
0.9872682394
 20
2.1128071698
 30
0.0
 11
0.9880338481
 21
2.1397740929
 31
0.0
  0
LINE
  5
226
330
1F
100
AcDbEntity
  8
0
  6
Continuous
 62
     7
370
    25
100
AcDbLine
 10
0.9880338481
 20
2.1397740929
 30
0.0
 11
0.9723543842
 21
2.1320910456
 31
0.0
  0
LINE
  5
227
330
1F
100
AcDbEntity
  8
0
  6
Continuous
 62
     7
370
    25
100
AcDbLine
 10
0.9723543842
 20
2.1320910456
 30
0.0
 11
0.9717304593
 21
2.1101146314
 31
0.0
  0
LINE
  5
228
330
1F
100
AcDbEntity
  8
0
  6
Continuous
 62
     7
370
    25
100
AcDbLine
 10
0.9717304593
 20
2.1101146314
 30
0.0
 11
0.9244374205
 21
2.1019192315
 31
0.0
  0
LINE
  5
229
330
1F
100
AcDbEntity
  8
0
  6
Continuous
 62
     7
370
    25
100
AcDbLine
 10
0.9244374205
 20
2.1019192315
 30
0.0
 11
0.9384219971
 21
2.0875307049
 31
0.0
  0
LINE
  5
22A
330
1F
100
AcDbEntity
  8
0
  6
Continuous
 62
     7
370
    25
100
AcDbLine
 10
0.9384219971
 20
2.0875307049
 30
0.0
 11
0.9712507983
 21
2.0932196004
 31
0.0
  0
LINE
  5
22B
330
1F
100
AcDbEntity
  8
0
  6
Continuous
 62
     7
370
    25
100
AcDbLine
 10
0.9712507983
 20
2.0932196004
 30
0.0
 11
0.9702253643
 21
2.0571008866
 31
0.0
  0
LINE
  5
22C
330
1F
100
AcDbEntity
  8
0
  6
Continuous
 62
     7
370
    25
100
AcDbLine
 10
0.9927601541
 20
2.0287196817
 30
0.0
 11
1.0000589952
 21
2.0440120049
 31
0.0
  0
LINE
  5
22D
330
1F
100
AcDbEntity
  8
0
  6
Continuous
 62
     7
370
    25
100
AcDbLine
 10
1.0000589952
 20
2.0440120049
 30
0.0
 11
0.9918354034
 21
2.0480238718
 31
0.0
  0
LINE
  5
22E
330
1F
100
AcDbEntity
  8
0
  6
Continuous
 62
     7
370
    25
100
AcDbLine
 10
0.9858568836
 20
2.0630951881
 30
0.0
 11
0.9867885784
 21
2.0959121388
 31
0.0
  0
LINE
  5
22F
330
1F
100
AcDbEntity
  8
0
  6
Continuous
 62
     7
370
    25
100
AcDbLine
 10
0.9867885784
 20
2.0959121388
 30
0.0
 11
0.9992200729
 21
2.0980663896
 31
0.0
  0
LINE
  5
230
330
1F
100
AcDbEntity
  8
0
  6
Continuous
 62
     7
370
    25
100
AcDbLine
 10
0.9992200729
 20
2.0980663896
 30
0.0
 11
0.999699734
 21
2.1149614207
 31
0.0
  0
LINE
  5
231
330
1F
100
AcDbEntity
  8
0
  6
Continuous
 62
     7
370
    25
100
AcDbLine
 10
0.8170400023
 20
2.0335922745
 30
0.0
 11
0.8771107372
 21
2.0440019185
 31
0.0
  0
LINE
  5
232
330
1F
100
AcDbEntity
  8
0
  6
Continuous
 62
     7
370
    25
100
AcDbLine
 10
0.8771107372
 20
2.0440019185
 30
0.0
 11
0.8772043689
 21
2.0472998952
 31
0.0
  0
LINE
  5
233
330
1F
100
AcDbEntity
  8
0
  6
Continuous
 62
     7
370
    25
100
AcDbLine
 10
0.8727203816
 20
2.0259544617
 30
0.0
 11
0.8598007317
 21
2.032098967
 31
0.0
  0
LINE
  5
234
330
1F
100
AcDbEntity
  8
0
  6
Continuous
 62
     7
370
    25
100
AcDbLine
 10
0.9546483334
 20
2.0400010259
 30
0.0
 11
0.9412798378
 21
2.0469230408
 31
0.0
  0
LINE
  5
235
330
1F
100
AcDbEntity
  8
0
  6
Continuous
 62
     7
370
    25
100
AcDbLine
 10
0.9234883815
 20
2.0850785027
 30
0.0
 11
0.9241191007
 21
2.1019507293
 31
0.0
  0
LINE
  5
236
330
1F
100
AcDbEntity
  8
0
  6
Continuous
 62
     7
370
    25
100
AcDbLine
 10
0.5096433428
 20
1.9787147281
 30
0.0
 11
0.5208393106
 21
1.9806548748
 31
0.0
  0
LINE
  5
237
330
1F
100
AcDbEntity
  8
0
  6
Continuous
 62
     7
370
    25
100
AcDbLine
 10
0.5208393106
 20
1.9806548748
 30
0.0
 11
0.5198732161
 21
1.9466262679
 31
0.0
  0
LINE
  5
238
330
1F
100
AcDbEntity
  8
0
  6
Continuous
 62
     7
370
    25
100
AcDbLine
 10
0.5198732161
 20
1.9466262679
 30
0.0
 11
0.5372118796
 21
1.949630881
 31
0.0
  0
LINE
  5
239
330
1F
100
AcDbEntity
  8
0
  6
Continuous
 62
     7
370
    25
100
AcDbLine
 10
0.5372118796
 20
1.949630881
 30
0.0
 11
0.5381779741
 21
1.9836594879
 31
0.0
  0
LINE
  5
23A
330
1F
100
AcDbEntity
  8
0
  6
Continuous
 62
     7
370
    25
100
AcDbLine
 10
0.5381779741
 20
1.9836594879
 30
0.0
 11
0.5655469543
 21
1.9884022522
 31
0.0
  0
LINE
  5
23B
330
1F
100
AcDbEntity
  8
0
  6
Continuous
 62
     7
370
    25
100
AcDbLine
 10
0.5676453369
 20
2.06231328
 30
0.0
 11
0.5229376933
 21
2.0545659026
 31
0.0
  0
LINE
  5
23C
330
1F
100
AcDbEntity
  8
0
  6
Continuous
 62
     7
370
    25
100
AcDbLine
 10
0.5229376933
 20
2.0545659026
 30
0.0
 11
0.5213760537
 21
1.9995604979
 31
0.0
  0
LINE
  5
23D
330
1F
100
AcDbEntity
  8
0
  6
Continuous
 62
     7
370
    25
100
AcDbLine
 10
0.5213760537
 20
1.9995604979
 30
0.0
 11
0.5101800858
 21
1.9976203511
 31
0.0
  0
LINE
  5
23E
330
1F
100
AcDbEntity
  8
0
  6
Continuous
 62
     7
370
    25
100
AcDbLine
 10
0.5101800858
 20
1.9976203511
 30
0.0
 11
0.5096433428
 21
1.9787147281
 31
0.0
  0
LINE
  5
23F
330
1F
100
AcDbEntity
  8
0
  6
Continuous
 62
     7
370
    25
100
AcDbLine
 10
0.6217597785
 20
2.0382590955
 30
0.0
 11
0.6214294577
 21
2.0382018543
 31
0.0
  0
LINE
  5
240
330
1F
100
AcDbEntity
  8
0
  6
Continuous
 62
     7
370
    25
100
AcDbLine
 10
0.6214294577
 20
2.0382018543
 30
0.0
 11
0.6216883156
 21
2.0473195671
 31
0.0
  0
LINE
  5
241
330
1F
100
AcDbEntity
  8
0
  6
Continuous
 62
     7
370
    25
100
AcDbLine
 10
0.6216883156
 20
2.0473195671
 30
0.0
 11
0.607087503
 21
2.0447893957
 31
0.0
  0
LINE
  5
242
330
1F
100
AcDbEntity
  8
0
  6
Continuous
 62
     7
370
    25
100
AcDbLine
 10
0.607087503
 20
2.0447893957
 30
0.0
 11
0.6047244576
 21
1.961556188
 31
0.0
  0
LINE
  5
243
330
1F
100
AcDbEntity
  8
0
  6
Continuous
 62
     7
370
    25
100
AcDbLine
 10
0.6047244576
 20
1.961556188
 30
0.0
 11
0.6202812946
 21
1.9642520288
 31
0.0
  0
LINE
  5
244
330
1F
100
AcDbEntity
  8
0
  6
Continuous
 62
     7
370
    25
100
AcDbLine
 10
0.6202812946
 20
1.9642520288
 30
0.0
 11
0.6218445467
 21
2.0193142299
 31
0.0
  0
LINE
  5
245
330
1F
100
AcDbEntity
  8
0
  6
Continuous
 62
     7
370
    25
100
AcDbLine
 10
0.6387211963
 20
2.0323176379
 30
0.0
 11
0.6447090923
 21
2.0509734983
 31
0.0
  0
LINE
  5
246
330
1F
100
AcDbEntity
  8
0
  6
Continuous
 62
     7
370
    25
100
AcDbLine
 10
0.7766071805
 20
2.0004145614
 30
0.0
 11
0.7769343251
 21
2.0004712522
 31
0.0
  0
LINE
  5
247
330
1F
100
AcDbEntity
  8
0
  6
Continuous
 62
     7
370
    25
100
AcDbLine
 10
0.7769343251
 20
2.0004712522
 30
0.0
 11
0.7768082287
 21
1.996029775
 31
0.0
  0
LINE
  5
248
330
1F
100
AcDbEntity
  8
0
  6
Continuous
 62
     7
370
    25
100
AcDbLine
 10
0.7405709631
 20
1.9767098817
 30
0.0
 11
0.727151931
 21
1.9651533977
 31
0.0
  0
LINE
  5
249
330
1F
100
AcDbEntity
  8
0
  6
Continuous
 62
     7
370
    25
100
AcDbLine
 10
0.7913905618
 20
1.996461849
 30
0.0
 11
0.7936806154
 21
2.0771240736
 31
0.0
  0
LINE
  5
24A
330
1F
100
AcDbEntity
  8
0
  6
Continuous
 62
     7
370
    25
100
AcDbLine
 10
0.7936806154
 20
2.0771240736
 30
0.0
 11
0.7781142498
 21
2.0744265816
 31
0.0
  0
LINE
  5
24B
330
1F
100
AcDbEntity
  8
0
  6
Continuous
 62
     7
370
    25
100
AcDbLine
 10
0.7781142498
 20
2.0744265816
 30
0.0
 11
0.7767774984
 21
2.0273423793
 31
0.0
  0
LINE
  5
24C
330
1F
100
AcDbEntity
  8
0
  6
Continuous
 62
     7
370
    25
100
AcDbLine
 10
0.741786133
 20
2.0195116367
 30
0.0
 11
0.7431733016
 21
2.0683716727
 31
0.0
  0
LINE
  5
24D
330
1F
100
AcDbEntity
  8
0
  6
Continuous
 62
     7
370
    25
100
AcDbLine
 10
0.7431733016
 20
2.0683716727
 30
0.0
 11
0.7276005837
 21
2.0656730799
 31
0.0
  0
LINE
  5
24E
330
1F
100
AcDbEntity
  8
0
  6
Continuous
 62
     7
370
    25
100
AcDbLine
 10
0.7276005837
 20
2.0656730799
 30
0.0
 11
0.72623384
 21
2.0175324648
 31
0.0
  0
LINE
  5
24F
330
1F
100
AcDbEntity
  8
0
  6
Continuous
 62
     7
370
    25
100
AcDbLine
 10
1.0648249678
 20
2.0513695257
 30
0.0
 11
1.06514576
 21
2.0514251157
 31
0.0
  0
LINE
  5
250
330
1F
100
AcDbEntity
  8
0
  6
Continuous
 62
     7
370
    25
100
AcDbLine
 10
1.06514576
 20
2.0514251157
 30
0.0
 11
1.0648580924
 21
2.0412926408
 31
0.0
  0
LINE
  5
251
330
1F
100
AcDbEntity
  8
0
  6
Continuous
 62
     7
370
    25
100
AcDbLine
 10
1.0648580924
 20
2.0412926408
 30
0.0
 11
1.0803926964
 21
2.0439846288
 31
0.0
  0
LINE
  5
252
330
1F
100
AcDbEntity
  8
0
  6
Continuous
 62
     7
370
    25
100
AcDbLine
 10
1.0803926964
 20
2.0439846288
 30
0.0
 11
1.0827557418
 21
2.1272178364
 31
0.0
  0
LINE
  5
253
330
1F
100
AcDbEntity
  8
0
  6
Continuous
 62
     7
370
    25
100
AcDbLine
 10
1.0827557418
 20
2.1272178364
 30
0.0
 11
1.0672211379
 21
2.1245258484
 31
0.0
  0
LINE
  5
254
330
1F
100
AcDbEntity
  8
0
  6
Continuous
 62
     7
370
    25
100
AcDbLine
 10
1.0672211379
 20
2.1245258484
 30
0.0
 11
1.0669332553
 21
2.1143858006
 31
0.0
  0
LINE
  5
255
330
1F
100
AcDbEntity
  8
0
  6
Continuous
 62
     7
370
    25
100
AcDbLine
 10
1.0669332553
 20
2.1143858006
 30
0.0
 11
1.066612463
 21
2.1143302106
 31
0.0
  0
LINE
  5
256
330
1F
100
AcDbEntity
  8
0
  6
Continuous
 62
     7
370
    25
100
AcDbLine
 10
-0.6828934335
 20
0.0988147323
 30
0.0
 11
-0.679930208
 21
0.2031879931
 31
0.0
  0
LINE
  5
257
330
1F
100
AcDbEntity
  8
0
  6
Continuous
 62
     7
370
    25
100
AcDbLine
 10
-0.551387891
 20
-0.039863232
 30
0.0
 11
-0.54381786
 21
0.2267748708
 31
0.0
  0
LINE
  5
258
330
1F
100
AcDbEntity
  8
0
  6
Continuous
 62
     7
370
    25
100
AcDbLine
 10
-0.5901412224
 20
-0.0465787879
 30
0.0
 11
-0.551387891
 21
-0.039863232
 31
0.0
  0
LINE
  5
259
330
1F
100
AcDbEntity
  8
0
  6
Continuous
 62
     7
370
    25
100
AcDbLine
 10
-0.6841676563
 20
0.0539329675
 30
0.0
 11
-0.5914954194
 21
0.0699921183
 31
0.0
  0
LINE
  5
25A
330
1F
100
AcDbEntity
  8
0
  6
Continuous
 62
     7
370
    25
100
AcDbLine
 10
-0.687500239
 20
-0.0634501097
 30
0.0
 11
-0.6841676563
 21
0.0539329675
 31
0.0
  0
LINE
  5
25B
330
1F
100
AcDbEntity
  8
0
  6
Continuous
 62
     7
370
    25
100
AcDbLine
 10
-0.7262535703
 20
-0.0701656657
 30
0.0
 11
-0.687500239
 21
-0.0634501097
 31
0.0
  0
LINE
  5
25C
330
1F
100
AcDbEntity
  8
0
  6
Continuous
 62
     7
370
    25
100
AcDbLine
 10
-0.6828934335
 20
0.0988147323
 30
0.0
 11
-0.6782819596
 21
0.0969744172
 31
0.0
  0
LINE
  5
25D
330
1F
100
AcDbEntity
  8
0
  6
Continuous
 62
     7
370
    25
100
AcDbLine
 10
-0.687500239
 20
-0.0634501097
 30
0.0
 11
-0.6828887651
 21
-0.0652904249
 31
0.0
  0
LINE
  5
25E
330
1F
100
AcDbEntity
  8
0
  6
Continuous
 62
     7
370
    25
100
AcDbLine
 10
-0.6841676563
 20
0.0539329675
 30
0.0
 11
-0.6795561824
 21
0.0520926524
 31
0.0
  0
LINE
  5
25F
330
1F
100
AcDbEntity
  8
0
  6
Continuous
 62
     7
370
    25
100
AcDbLine
 10
-0.5914954194
 20
0.0699921183
 30
0.0
 11
-0.5868839455
 21
0.0681518032
 31
0.0
  0
LINE
  5
260
330
1F
100
AcDbEntity
  8
0
  6
Continuous
 62
     7
370
    25
100
AcDbLine
 10
-0.551387891
 20
-0.039863232
 30
0.0
 11
-0.5467764171
 21
-0.0417035471
 31
0.0
  0
LINE
  5
261
330
1F
100
AcDbEntity
  8
0
  6
Continuous
 62
     7
370
    25
100
AcDbLine
 10
0.5335665002
 20
1.985499803
 30
0.0
 11
0.5609354804
 21
1.9902425673
 31
0.0
  0
LINE
  5
262
330
1F
100
AcDbEntity
  8
0
  6
Continuous
 62
     7
370
    25
100
AcDbLine
 10
0.5326004057
 20
1.9514711961
 30
0.0
 11
0.5335665002
 21
1.985499803
 31
0.0
  0
LINE
  5
263
330
1F
100
AcDbEntity
  8
0
  6
Continuous
 62
     7
370
    25
100
AcDbLine
 10
0.519948522
 20
1.949278754
 30
0.0
 11
0.5326004057
 21
1.9514711961
 31
0.0
  0
LINE
  5
264
330
1F
100
AcDbEntity
  8
0
  6
Continuous
 62
     7
370
    25
100
AcDbLine
 10
0.5097186486
 20
1.9813672142
 30
0.0
 11
0.5162278368
 21
1.9824951899
 31
0.0
  0
LINE
  5
265
330
1F
100
AcDbEntity
  8
0
  6
Continuous
 62
     7
370
    25
100
AcDbLine
 10
0.5611564575
 20
2.0450043456
 30
0.0
 11
0.5351278173
 21
2.0404938484
 31
0.0
  0
LINE
  5
266
330
1F
100
AcDbEntity
  8
0
  6
Continuous
 62
     7
370
    25
100
AcDbLine
 10
0.5351278173
 20
2.0404938484
 30
0.0
 11
0.5341032433
 21
2.004405426
 31
0.0
  0
LINE
  5
267
330
1F
100
AcDbEntity
  8
0
  6
Continuous
 62
     7
370
    25
100
AcDbLine
 10
0.5162278368
 20
1.9824951899
 30
0.0
 11
0.5208393106
 21
1.9806548748
 31
0.0
  0
LINE
  5
268
330
1F
100
AcDbEntity
  8
0
  6
Continuous
 62
     7
370
    25
100
AcDbLine
 10
0.5341032433
 20
2.004405426
 30
0.0
 11
0.5387147172
 21
2.0025651109
 31
0.0
  0
LINE
  5
269
330
1F
100
AcDbEntity
  8
0
  6
Continuous
 62
     7
370
    25
100
AcDbLine
 10
0.5351278173
 20
2.0404938484
 30
0.0
 11
0.5397392912
 21
2.0386535333
 31
0.0
  0
LINE
  5
26A
330
1F
100
AcDbEntity
  8
0
  6
Continuous
 62
     7
370
    25
100
AcDbLine
 10
0.5397392912
 20
2.0386535333
 30
0.0
 11
0.5387147172
 21
2.0025651109
 31
0.0
  0
LINE
  5
26B
330
1F
100
AcDbEntity
  8
0
  6
Continuous
 62
     7
370
    25
100
AcDbLine
 10
0.5611564575
 20
2.0450043456
 30
0.0
 11
0.5657679314
 21
2.0431640304
 31
0.0
  0
LINE
  5
26C
330
1F
100
AcDbEntity
  8
0
  6
Continuous
 62
     7
370
    25
100
AcDbLine
 10
0.5657679314
 20
2.0431640304
 30
0.0
 11
0.5397392912
 21
2.0386535333
 31
0.0
  0
LINE
  5
26D
330
1F
100
AcDbEntity
  8
0
  6
Continuous
 62
     7
370
    25
100
AcDbLine
 10
0.5387147172
 20
2.0025651109
 30
0.0
 11
0.5647433574
 21
2.007075608
 31
0.0
  0
LINE
  5
26E
330
1F
100
AcDbEntity
  8
0
  6
Continuous
 62
     7
370
    25
100
AcDbLine
 10
0.5326004057
 20
1.9514711961
 30
0.0
 11
0.5372118796
 21
1.949630881
 31
0.0
  0
LINE
  5
26F
330
1F
100
AcDbEntity
  8
0
  6
Continuous
 62
     7
370
    25
100
AcDbLine
 10
0.5957598614
 20
2.0330472083
 30
0.0
 11
0.6003713353
 21
2.0312068932
 31
0.0
  0
LINE
  5
270
330
1F
100
AcDbEntity
  8
0
  6
Continuous
 62
     7
370
    25
100
AcDbLine
 10
0.5335665002
 20
1.985499803
 30
0.0
 11
0.5381779741
 21
1.9836594879
 31
0.0
  0
LINE
  5
271
330
1F
100
AcDbEntity
  8
0
  6
Continuous
 62
     7
370
    25
100
AcDbLine
 10
0.5609354804
 20
1.9902425673
 30
0.0
 11
0.5655469543
 21
1.9884022522
 31
0.0
  0
LINE
  5
272
330
1F
100
AcDbEntity
  8
0
  6
Continuous
 62
     7
370
    25
100
AcDbLine
 10
0.6341672596
 20
2.0343372156
 30
0.0
 11
0.6399080581
 21
2.0522232202
 31
0.0
  0
LINE
  5
273
330
1F
100
AcDbEntity
  8
0
  6
Continuous
 62
     7
370
    25
100
AcDbLine
 10
0.6156698208
 20
1.9660923439
 30
0.0
 11
0.6172330729
 21
2.021154545
 31
0.0
  0
LINE
  5
274
330
1F
100
AcDbEntity
  8
0
  6
Continuous
 62
     7
370
    25
100
AcDbLine
 10
0.6047997634
 20
1.9642086742
 30
0.0
 11
0.6156698208
 21
1.9660923439
 31
0.0
  0
LINE
  5
275
330
1F
100
AcDbEntity
  8
0
  6
Continuous
 62
     7
370
    25
100
AcDbLine
 10
0.6168179839
 20
2.0400421694
 30
0.0
 11
0.6170015359
 21
2.0465073962
 31
0.0
  0
LINE
  5
276
330
1F
100
AcDbEntity
  8
0
  6
Continuous
 62
     7
370
    25
100
AcDbLine
 10
0.6168179839
 20
2.0400421694
 30
0.0
 11
0.6214294577
 21
2.0382018543
 31
0.0
  0
LINE
  5
277
330
1F
100
AcDbEntity
  8
0
  6
Continuous
 62
     7
370
    25
100
AcDbLine
 10
0.6172330729
 20
2.021154545
 30
0.0
 11
0.6218445467
 21
2.0193142299
 31
0.0
  0
LINE
  5
278
330
1F
100
AcDbEntity
  8
0
  6
Continuous
 62
     7
370
    25
100
AcDbLine
 10
0.6283059075
 20
2.0355673692
 30
0.0
 11
0.6329173813
 21
2.0337270541
 31
0.0
  0
LINE
  5
279
330
1F
100
AcDbEntity
  8
0
  6
Continuous
 62
     7
370
    25
100
AcDbLine
 10
0.6156698208
 20
1.9660923439
 30
0.0
 11
0.6202812946
 21
1.9642520288
 31
0.0
  0
LINE
  5
27A
330
1F
100
AcDbEntity
  8
0
  6
Continuous
 62
     7
370
    25
100
AcDbLine
 10
0.6400976185
 20
2.0528138135
 30
0.0
 11
0.6447090923
 21
2.0509734983
 31
0.0
  0
LINE
  5
27B
330
1F
100
AcDbEntity
  8
0
  6
Continuous
 62
     7
370
    25
100
AcDbLine
 10
0.6745114801
 20
1.9740660014
 30
0.0
 11
0.6791229539
 21
1.9722256862
 31
0.0
  0
LINE
  5
27C
330
1F
100
AcDbEntity
  8
0
  6
Continuous
 62
     7
370
    25
100
AcDbLine
 10
0.6522714621
 20
2.0138318208
 30
0.0
 11
0.656882936
 21
2.0119915057
 31
0.0
  0
LINE
  5
27D
330
1F
100
AcDbEntity
  8
0
  6
Continuous
 62
     7
370
    25
100
AcDbLine
 10
0.6765231109
 20
2.0449213837
 30
0.0
 11
0.6811345848
 21
2.0430810685
 31
0.0
  0
LINE
  5
27E
330
1F
100
AcDbEntity
  8
0
  6
Continuous
 62
     7
370
    25
100
AcDbLine
 10
0.7156581092
 20
2.0248160785
 30
0.0
 11
0.7202695831
 21
2.0229757633
 31
0.0
  0
LINE
  5
27F
330
1F
100
AcDbEntity
  8
0
  6
Continuous
 62
     7
370
    25
100
AcDbLine
 10
0.7408077332
 20
1.9873229246
 30
0.0
 11
0.7498595499
 21
1.9871230512
 31
0.0
  0
LINE
  5
280
330
1F
100
AcDbEntity
  8
0
  6
Continuous
 62
     7
370
    25
100
AcDbLine
 10
0.7371746592
 20
2.0213519518
 30
0.0
 11
0.7384865219
 21
2.0675595017
 31
0.0
  0
LINE
  5
281
330
1F
100
AcDbEntity
  8
0
  6
Continuous
 62
     7
370
    25
100
AcDbLine
 10
0.786779088
 20
1.9983021641
 30
0.0
 11
0.7889938357
 21
2.0763119026
 31
0.0
  0
LINE
  5
282
330
1F
100
AcDbEntity
  8
0
  6
Continuous
 62
     7
370
    25
100
AcDbLine
 10
0.7719957067
 20
2.0022548765
 30
0.0
 11
0.7723228512
 21
2.0023115673
 31
0.0
  0
LINE
  5
283
330
1F
100
AcDbEntity
  8
0
  6
Continuous
 62
     7
370
    25
100
AcDbLine
 10
0.7371746592
 20
2.0213519518
 30
0.0
 11
0.741786133
 21
2.0195116367
 31
0.0
  0
LINE
  5
284
330
1F
100
AcDbEntity
  8
0
  6
Continuous
 62
     7
370
    25
100
AcDbLine
 10
0.7498595499
 20
1.9871230512
 30
0.0
 11
0.7544710237
 21
1.9852827361
 31
0.0
  0
LINE
  5
285
330
1F
100
AcDbEntity
  8
0
  6
Continuous
 62
     7
370
    25
100
AcDbLine
 10
0.7527108873
 20
1.9559714309
 30
0.0
 11
0.7573223611
 21
1.9541311158
 31
0.0
  0
LINE
  5
286
330
1F
100
AcDbEntity
  8
0
  6
Continuous
 62
     7
370
    25
100
AcDbLine
 10
0.7719957067
 20
2.0022548765
 30
0.0
 11
0.7766071805
 21
2.0004145614
 31
0.0
  0
LINE
  5
287
330
1F
100
AcDbEntity
  8
0
  6
Continuous
 62
     7
370
    25
100
AcDbLine
 10
0.786779088
 20
1.9983021641
 30
0.0
 11
0.7913905618
 21
1.996461849
 31
0.0
  0
LINE
  5
288
330
1F
100
AcDbEntity
  8
0
  6
Continuous
 62
     7
370
    25
100
AcDbLine
 10
0.7723228512
 20
2.0023115673
 30
0.0
 11
0.7769343251
 21
2.0004712522
 31
0.0
  0
LINE
  5
289
330
1F
100
AcDbEntity
  8
0
  6
Continuous
 62
     7
370
    25
100
AcDbLine
 10
0.8681089077
 20
2.0277947768
 30
0.0
 11
0.8596072801
 21
2.0318380982
 31
0.0
  0
LINE
  5
28A
330
1F
100
AcDbEntity
  8
0
  6
Continuous
 62
     7
370
    25
100
AcDbLine
 10
0.8724992633
 20
2.0458422336
 30
0.0
 11
0.8725928951
 21
2.0491402103
 31
0.0
  0
LINE
  5
28B
330
1F
100
AcDbEntity
  8
0
  6
Continuous
 62
     7
370
    25
100
AcDbLine
 10
0.8124285284
 20
2.0354325897
 30
0.0
 11
0.8724992633
 21
2.0458422336
 31
0.0
  0
LINE
  5
28C
330
1F
100
AcDbEntity
  8
0
  6
Continuous
 62
     7
370
    25
100
AcDbLine
 10
0.8338975964
 20
2.0016859852
 30
0.0
 11
0.8385090703
 21
1.99984567
 31
0.0
  0
LINE
  5
28D
330
1F
100
AcDbEntity
  8
0
  6
Continuous
 62
     7
370
    25
100
AcDbLine
 10
0.8174597863
 20
2.0483782665
 30
0.0
 11
0.8592707711
 21
2.0556236825
 31
0.0
  0
LINE
  5
28E
330
1F
100
AcDbEntity
  8
0
  6
Continuous
 62
     7
370
    25
100
AcDbLine
 10
0.8128483125
 20
2.0502185817
 30
0.0
 11
0.8174597863
 21
2.0483782665
 31
0.0
  0
LINE
  5
28F
330
1F
100
AcDbEntity
  8
0
  6
Continuous
 62
     7
370
    25
100
AcDbLine
 10
0.8338542604
 20
2.0731874967
 30
0.0
 11
0.8384657343
 21
2.0713471816
 31
0.0
  0
LINE
  5
290
330
1F
100
AcDbEntity
  8
0
  6
Continuous
 62
     7
370
    25
100
AcDbLine
 10
0.8124285284
 20
2.0354325897
 30
0.0
 11
0.8170400023
 21
2.0335922745
 31
0.0
  0
LINE
  5
291
330
1F
100
AcDbEntity
  8
0
  6
Continuous
 62
     7
370
    25
100
AcDbLine
 10
0.8724992633
 20
2.0458422336
 30
0.0
 11
0.8771107372
 21
2.0440019185
 31
0.0
  0
LINE
  5
292
330
1F
100
AcDbEntity
  8
0
  6
Continuous
 62
     7
370
    25
100
AcDbLine
 10
0.8725928951
 20
2.0491402103
 30
0.0
 11
0.8772043689
 21
2.0472998952
 31
0.0
  0
LINE
  5
293
330
1F
100
AcDbEntity
  8
0
  6
Continuous
 62
     7
370
    25
100
AcDbLine
 10
0.8681089077
 20
2.0277947768
 30
0.0
 11
0.8727203816
 21
2.0259544617
 31
0.0
  0
LINE
  5
294
330
1F
100
AcDbEntity
  8
0
  6
Continuous
 62
     7
370
    25
100
AcDbLine
 10
0.9188769076
 20
2.0869188179
 30
0.0
 11
0.9195076269
 21
2.1037910444
 31
0.0
  0
LINE
  5
295
330
1F
100
AcDbEntity
  8
0
  6
Continuous
 62
     7
370
    25
100
AcDbLine
 10
0.9500368595
 20
2.041841341
 30
0.0
 11
0.9410141815
 21
2.0465131541
 31
0.0
  0
LINE
  5
296
330
1F
100
AcDbEntity
  8
0
  6
Continuous
 62
     7
370
    25
100
AcDbLine
 10
0.9170177325
 20
2.0160898546
 30
0.0
 11
0.9216292063
 21
2.0142495395
 31
0.0
  0
LINE
  5
297
330
1F
100
AcDbEntity
  8
0
  6
Continuous
 62
     7
370
    25
100
AcDbLine
 10
0.8947618337
 20
2.0558529221
 30
0.0
 11
0.8993733075
 21
2.0540126069
 31
0.0
  0
LINE
  5
298
330
1F
100
AcDbEntity
  8
0
  6
Continuous
 62
     7
370
    25
100
AcDbLine
 10
0.9188769076
 20
2.0869188179
 30
0.0
 11
0.9234883815
 21
2.0850785027
 31
0.0
  0
LINE
  5
299
330
1F
100
AcDbEntity
  8
0
  6
Continuous
 62
     7
370
    25
100
AcDbLine
 10
0.9821771045
 20
2.0977524539
 30
0.0
 11
0.9946085991
 21
2.0999067047
 31
0.0
  0
LINE
  5
29A
330
1F
100
AcDbEntity
  8
0
  6
Continuous
 62
     7
370
    25
100
AcDbLine
 10
0.9812454097
 20
2.0649355032
 30
0.0
 11
0.9821771045
 21
2.0977524539
 31
0.0
  0
LINE
  5
29B
330
1F
100
AcDbEntity
  8
0
  6
Continuous
 62
     7
370
    25
100
AcDbLine
 10
0.9954475213
 20
2.04585232
 30
0.0
 11
0.9872239296
 21
2.0498641869
 31
0.0
  0
LINE
  5
29C
330
1F
100
AcDbEntity
  8
0
  6
Continuous
 62
     7
370
    25
100
AcDbLine
 10
0.9881486802
 20
2.0305599969
 30
0.0
 11
0.9954475213
 21
2.04585232
 31
0.0
  0
LINE
  5
29D
330
1F
100
AcDbEntity
  8
0
  6
Continuous
 62
     7
370
    25
100
AcDbLine
 10
0.9362264466
 20
2.0897896748
 30
0.0
 11
0.9666393244
 21
2.0950599155
 31
0.0
  0
LINE
  5
29E
330
1F
100
AcDbEntity
  8
0
  6
Continuous
 62
     7
370
    25
100
AcDbLine
 10
0.9826567656
 20
2.1146474849
 30
0.0
 11
0.9833043312
 21
2.1374565965
 31
0.0
  0
LINE
  5
29F
330
1F
100
AcDbEntity
  8
0
  6
Continuous
 62
     7
370
    25
100
AcDbLine
 10
0.9946085991
 20
2.0999067047
 30
0.0
 11
0.9950129543
 21
2.1141492497
 31
0.0
  0
LINE
  5
2A0
330
1F
100
AcDbEntity
  8
0
  6
Continuous
 62
     7
370
    25
100
AcDbLine
 10
0.9666393244
 20
2.0950599155
 30
0.0
 11
0.9712507983
 21
2.0932196004
 31
0.0
  0
LINE
  5
2A1
330
1F
100
AcDbEntity
  8
0
  6
Continuous
 62
     7
370
    25
100
AcDbLine
 10
0.9500368595
 20
2.041841341
 30
0.0
 11
0.9546483334
 21
2.0400010259
 31
0.0
  0
LINE
  5
2A2
330
1F
100
AcDbEntity
  8
0
  6
Continuous
 62
     7
370
    25
100
AcDbLine
 10
0.9826567656
 20
2.1146474849
 30
0.0
 11
0.9872682394
 21
2.1128071698
 31
0.0
  0
LINE
  5
2A3
330
1F
100
AcDbEntity
  8
0
  6
Continuous
 62
     7
370
    25
100
AcDbLine
 10
0.9881486802
 20
2.0305599969
 30
0.0
 11
0.9927601541
 21
2.0287196817
 31
0.0
  0
LINE
  5
2A4
330
1F
100
AcDbEntity
  8
0
  6
Continuous
 62
     7
370
    25
100
AcDbLine
 10
0.9821771045
 20
2.0977524539
 30
0.0
 11
0.9867885784
 21
2.0959121388
 31
0.0
  0
LINE
  5
2A5
330
1F
100
AcDbEntity
  8
0
  6
Continuous
 62
     7
370
    25
100
AcDbLine
 10
0.9946085991
 20
2.0999067047
 30
0.0
 11
0.9992200729
 21
2.0980663896
 31
0.0
  0
LINE
  5
2A6
330
1F
100
AcDbEntity
  8
0
  6
Continuous
 62
     7
370
    25
100
AcDbLine
 10
0.9812454097
 20
2.0649355032
 30
0.0
 11
0.9858568836
 21
2.0630951881
 31
0.0
  0
LINE
  5
2A7
330
1F
100
AcDbEntity
  8
0
  6
Continuous
 62
     7
370
    25
100
AcDbLine
 10
0.9872239296
 20
2.0498641869
 30
0.0
 11
0.9918354034
 21
2.0480238718
 31
0.0
  0
LINE
  5
2A8
330
1F
100
AcDbEntity
  8
0
  6
Continuous
 62
     7
370
    25
100
AcDbLine
 10
1.0757812225
 20
2.0458249439
 30
0.0
 11
1.0780689621
 21
2.1264056654
 31
0.0
  0
LINE
  5
2A9
330
1F
100
AcDbEntity
  8
0
  6
Continuous
 62
     7
370
    25
100
AcDbLine
 10
1.0649333982
 20
2.0439451269
 30
0.0
 11
1.0757812225
 21
2.0458249439
 31
0.0
  0
LINE
  5
2AA
330
1F
100
AcDbEntity
  8
0
  6
Continuous
 62
     7
370
    25
100
AcDbLine
 10
1.0602134939
 20
2.0532098408
 30
0.0
 11
1.0605342862
 21
2.0532654308
 31
0.0
  0
LINE
  5
2AB
330
1F
100
AcDbEntity
  8
0
  6
Continuous
 62
     7
370
    25
100
AcDbLine
 10
0.9954475213
 20
2.04585232
 30
0.0
 11
1.0000589952
 21
2.0440120049
 31
0.0
  0
LINE
  5
2AC
330
1F
100
AcDbEntity
  8
0
  6
Continuous
 62
     7
370
    25
100
AcDbLine
 10
1.036088836
 20
2.036723659
 30
0.0
 11
1.0407003098
 21
2.0348833439
 31
0.0
  0
LINE
  5
2AD
330
1F
100
AcDbEntity
  8
0
  6
Continuous
 62
     7
370
    25
100
AcDbLine
 10
1.0162785812
 20
2.0769105316
 30
0.0
 11
1.0208900551
 21
2.0750702164
 31
0.0
  0
LINE
  5
2AE
330
1F
100
AcDbEntity
  8
0
  6
Continuous
 62
     7
370
    25
100
AcDbLine
 10
1.0400792152
 20
2.1079219381
 30
0.0
 11
1.0446906891
 21
2.106081623
 31
0.0
  0
LINE
  5
2AF
330
1F
100
AcDbEntity
  8
0
  6
Continuous
 62
     7
370
    25
100
AcDbLine
 10
1.0620009891
 20
2.1161705257
 30
0.0
 11
1.066612463
 21
2.1143302106
 31
0.0
  0
LINE
  5
2B0
330
1F
100
AcDbEntity
  8
0
  6
Continuous
 62
     7
370
    25
100
AcDbLine
 10
1.0602134939
 20
2.0532098408
 30
0.0
 11
1.0648249678
 21
2.0513695257
 31
0.0
  0
LINE
  5
2B1
330
1F
100
AcDbEntity
  8
0
  6
Continuous
 62
     7
370
    25
100
AcDbLine
 10
1.0757812225
 20
2.0458249439
 30
0.0
 11
1.0803926964
 21
2.0439846288
 31
0.0
  0
LINE
  5
2B2
330
1F
100
AcDbEntity
  8
0
  6
Continuous
 62
     7
370
    25
100
AcDbLine
 10
1.0605342862
 20
2.0532654308
 30
0.0
 11
1.06514576
 21
2.0514251157
 31
0.0
  0
LINE
  5
2B3
330
1F
100
AcDbEntity
  8
0
  6
Continuous
 62
     7
370
    25
100
AcDbLine
 10
2.1932272094
 20
0.6771907773
 30
0.0
 11
2.1683557603
 21
0.6917373007
 31
0.0
  0
LINE
  5
2B4
330
1F
100
AcDbEntity
  8
0
  6
Continuous
 62
     7
370
    25
100
AcDbLine
 10
2.1730987256
 20
0.6152176106
 30
0.0
 11
2.2133169308
 21
0.6301428807
 31
0.0
  0
LINE
  5
2B5
330
1F
100
AcDbEntity
  8
0
  6
Continuous
 62
     7
370
    25
100
AcDbLine
 10
2.1228528549
 20
0.6522312752
 30
0.0
 11
2.1274643288
 21
0.6503909601
 31
0.0
  0
LINE
  5
2B6
330
1F
100
AcDbEntity
  8
0
  6
Continuous
 62
     7
370
    25
100
AcDbLine
 10
2.1932272094
 20
0.6771907773
 30
0.0
 11
2.1978386833
 21
0.6753504622
 31
0.0
  0
LINE
  5
2B7
330
1F
100
AcDbEntity
  8
0
  6
Continuous
 62
     7
370
    25
100
AcDbLine
 10
2.2133169308
 20
0.6301428807
 30
0.0
 11
2.2179284047
 21
0.6283025656
 31
0.0
  0
LINE
  5
2B8
330
1F
100
AcDbEntity
  8
0
  6
Continuous
 62
     7
370
    25
100
AcDbLine
 10
2.5369184788
 20
0.1460136252
 30
0.0
 11
2.6113160486
 21
2.7665084374
 31
0.0
  0
LINE
  5
2B9
330
1F
100
AcDbEntity
  8
0
  6
Continuous
 62
     7
370
    25
100
AcDbLine
 10
-1.1078426564
 20
-2.1216053441
 30
0.0
 11
1.1680230356
 21
-1.7272210968
 31
0.0
  0
ARC
  5
2BA
330
1F
100
AcDbEntity
  8
0
  6
Continuous
 62
     7
370
    25
100
AcDbCircle
 10
1.3828171349
 20
-3.5361312183
 30
0.0
 40
0.0437007874015753
100
AcDbArc
 50
185.2239663211
 51
252.2052012494
  0
ARC
  5
2BB
330
1F
100
AcDbEntity
  8
0
  6
Continuous
 62
     7
370
    25
100
AcDbCircle
 10
2.4191564275
 20
-3.39179135
 30
0.0
 40
0.0437007874015783
100
AcDbArc
 50
295.990435585
 51
357.212017868
  0
ARC
  5
2BC
330
1F
100
AcDbEntity
  8
0
  6
Continuous
 62
     7
370
    25
100
AcDbCircle
 10
-0.9882092615
 20
2.1386361469
 30
0.0
 40
0.1025053891558166
100
AcDbArc
 50
111.1148732601
 51
174.6221590725
  0
ARC
  5
2BD
330
1F
100
AcDbEntity
  8
0
  6
Continuous
 62
     7
370
    25
100
AcDbCircle
 10
-1.0940045663
 20
2.1516095995
 30
0.0
 40
0.1075820565100253
100
AcDbArc
 50
355.4083752316
 51
50.1968457116
  0
ARC
  5
2BE
330
1F
100
AcDbEntity
  8
0
  6
Continuous
 62
     7
370
    25
100
AcDbCircle
 10
-1.0255072041
 20
2.3862384044
 30
0.0
 40
0.2463066641775743
100
AcDbArc
 50
267.3488429031
 51
279.0491251885
  0
ARC
  5
2BF
330
1F
100
AcDbEntity
  8
0
  6
Continuous
 62
     7
370
    25
100
AcDbCircle
 10
-1.0317571853
 20
2.3552387351
 30
0.0
 40
0.2151048545663727
100
AcDbArc
 50
254.2173107826
 51
268.6299927644
  0
ARC
  5
2C0
330
1F
100
AcDbEntity
  8
0
  6
Continuous
 62
     7
370
    25
100
AcDbCircle
 10
-1.2343892734
 20
2.2640448624
 30
0.0
 40
0.0884405302336907
100
AcDbArc
 50
105.281809249
 51
180.455224906
  0
ARC
  5
2C1
330
1F
100
AcDbEntity
  8
0
  6
Continuous
 62
     7
370
    25
100
AcDbCircle
 10
-1.1473339334
 20
-1.8771780086
 30
0.0
 40
0.2475970179311592
100
AcDbArc
 50
255.0187901187
 51
279.1777707761
  0
ARC
  5
2C2
330
1F
100
AcDbEntity
  8
0
  6
Continuous
 62
     7
370
    25
100
AcDbCircle
 10
2.5040792694
 20
2.775120728
 30
0.0
 40
0.1075820540341222
100
AcDbArc
 50
355.4083747897
 51
50.1968476084
  0
ARC
  5
2C3
330
1F
100
AcDbEntity
  8
0
  6
Continuous
 62
     7
370
    25
100
AcDbCircle
 10
0.5698810464
 20
0.0173006119
 30
0.0
 40
0.6076074152175258
100
AcDbArc
 50
262.6729331997
 51
271.7509328627
  0
ARC
  5
2C4
330
1F
100
AcDbEntity
  8
0
  6
Continuous
 62
     7
370
    25
100
AcDbCircle
 10
-1.3898731563
 20
-2.0937879555
 30
0.0
 40
0.057064533411005
100
AcDbArc
 50
171.3215813093
 51
258.6291316928
  0
ARC
  5
2C5
330
1F
100
AcDbEntity
  8
0
  6
Continuous
 62
     7
370
    25
100
AcDbCircle
 10
2.6058230882
 20
2.8264684922
 30
0.0
 40
0.0602111350422511
100
AcDbArc
 50
275.2342750662
 51
305.6110487916
  0
ARC
  5
2C6
330
1F
100
AcDbEntity
  8
0
  6
Continuous
 62
     7
370
    25
100
AcDbCircle
 10
2.4198511648
 20
2.9378878417
 30
0.0
 40
0.0480445175248017
100
AcDbArc
 50
52.0973629431
 51
100.8872947107
  0
ARC
  5
2C7
330
1F
100
AcDbEntity
  8
0
  6
Continuous
 62
     7
370
    25
100
AcDbCircle
 10
1.5013673712
 20
-0.0085495386
 30
0.0
 40
0.890800395933088
100
AcDbArc
 50
166.6880886345
 51
191.7085867475
  0
ARC
  5
2C8
330
1F
100
AcDbEntity
  8
0
  6
Continuous
 62
     7
370
    25
100
AcDbCircle
 10
1.3549761565
 20
0.4633018325
 30
0.0
 40
0.5484730413800148
100
AcDbArc
 50
48.0869073691
 51
87.3670695903
  0
ARC
  5
2C9
330
1F
100
AcDbEntity
  8
0
  6
Continuous
 62
     7
370
    25
100
AcDbCircle
 10
-1.2242065304
 20
0.7460397703
 30
0.0
 40
0.2771277720750835
100
AcDbArc
 50
119.1110488193
 51
163.1974832947
  0
ARC
  5
2CA
330
1F
100
AcDbEntity
  8
0
  6
Continuous
 62
     7
370
    25
100
AcDbCircle
 10
-0.8456902771
 20
0.5772528497
 30
0.0
 40
0.6723171239899024
100
AcDbArc
 50
177.5984107938
 51
217.0604486247
  0
ARC
  5
2CB
330
1F
100
AcDbEntity
  8
0
  6
Continuous
 62
     7
370
    25
100
AcDbCircle
 10
-1.0811793033
 20
0.6176103882
 30
0.0
 40
0.3481743284219806
100
AcDbArc
 50
144.1732672981
 51
177.5901861196
  0
ARC
  5
2CC
330
1F
100
AcDbEntity
  8
0
  6
Continuous
 62
     7
370
    25
100
AcDbCircle
 10
0.6419292111
 20
0.9145371291
 30
0.0
 40
0.5003286329274615
100
AcDbArc
 50
30.1590261414
 51
39.9290211445
  0
ARC
  5
2CD
330
1F
100
AcDbEntity
  8
0
  6
Continuous
 62
     7
370
    25
100
AcDbCircle
 10
-1.1497662803
 20
-2.1211828086
 30
0.0
 40
0.0617606818693009
100
AcDbArc
 50
175.5206998342
 51
256.0032422254
  0
ARC
  5
2CE
330
1F
100
AcDbEntity
  8
0
  6
Continuous
 62
     7
370
    25
100
AcDbCircle
 10
2.6357897255
 20
2.7833961215
 30
0.0
 40
0.0077780043567755
100
AcDbArc
 50
310.9049781585
 51
355.7888394901
  0
ARC
  5
2CF
330
1F
100
AcDbEntity
  8
0
  6
Continuous
 62
     7
370
    25
100
AcDbCircle
 10
2.5801519851
 20
2.8033285278
 30
0.0
 40
0.054916475699414
100
AcDbArc
 50
52.6269096556
 51
97.5376892413
  0
ENDSEC
  0
SECTION
  2
OBJECTS
  0
DICTIONARY
  5
C
330
0
100
AcDbDictionary
281
     1
  3
ACAD_GROUP
350
D
  3
ACAD_LAYOUT
350
1A
  3
ACAD_MLINESTYLE
350
17
  3
ACAD_PLOTSETTINGS
350
19
  3
ACAD_PLOTSTYLENAME
350
E
  3
ACAD_SCALELIST
350
47
  3
DWGPROPS
350
2D0
  0
DICTIONARY
  5
D
102
{ACAD_REACTORS
330
C
102
}
330
C
100
AcDbDictionary
281
     1
  0
DICTIONARY
  5
1A
102
{ACAD_REACTORS
330
C
102
}
330
C
100
AcDbDictionary
281
     1
  3
Layout1
350
1E
  3
Layout2
350
26
  3
Model
350
22
  0
DICTIONARY
  5
17
102
{ACAD_REACTORS
330
C
102
}
330
C
100
AcDbDictionary
281
     1
  3
Standard
350
18
  0
DICTIONARY
  5
19
102
{ACAD_REACTORS
330
C
102
}
330
C
100
AcDbDictionary
281
     1
  0
ACDBDICTIONARYWDFLT
  5
E
102
{ACAD_REACTORS
330
C
102
}
330
C
100
AcDbDictionary
281
     1
  3
Normal
350
F
100
AcDbDictionaryWithDefault
340
F
  0
DICTIONARY
  5
47
102
{ACAD_REACTORS
330
C
102
}
330
C
100
AcDbDictionary
281
     1
  3
A0
350
48
  3
A1
350
49
  3
A2
350
4A
  3
A3
350
4B
  3
A4
350
4C
  3
A5
350
4D
  3
A6
350
4E
  3
A7
350
4F
  3
A8
350
50
  3
A9
350
51
  3
B1
350
52
  3
B2
350
53
  3
B3
350
54
  3
B4
350
55
  3
B5
350
56
  3
B6
350
57
  3
B7
350
58
  0
XRECORD
  5
2D0
102
{ACAD_REACTORS
330
C
102
}
330
C
100
AcDbXrecord
280
     1
  1
DWGPROPS COOKIE
  2

  3

  4

  6

  7

  8
Alan Ramirez
  9

300
=
301
=
302
=
303
=
304
=
305
=
306
=
307
=
308
=
309
=
 40
0.0
 41
2460425.680595879
 42
2460425.680635023
  1

 90
        0
  0
LAYOUT
  5
1E
102
{ACAD_REACTORS
330
1A
102
}
330
1A
100
AcDbPlotSettings
  1

  2
none_device
  4

  6

 40
0.0
 41
0.0
 42
0.0
 43
0.0
 44
0.0
 45
0.0
 46
0.0
 47
0.0
 48
0.0
 49
0.0
140
0.0
141
0.0
142
1.0
143
1.0
 70
   688
 72
     0
 73
     0
 74
     5
  7

 75
    16
147
1.0
148
0.0
149
0.0
100
AcDbLayout
  1
Layout1
 70
     1
 71
     1
 10
0.0
 20
0.0
 11
12.0
 21
9.0
 12
0.0
 22
0.0
 32
0.0
 14
1.0000000000E+20
 24
1.0000000000E+20
 34
1.0000000000E+20
 15
-1.0000000000E+20
 25
-1.0000000000E+20
 35
-1.0000000000E+20
146
0.0
 13
0.0
 23
0.0
 33
0.0
 16
1.0
 26
0.0
 36
0.0
 17
0.0
 27
1.0
 37
0.0
 76
     0
330
1B
  0
LAYOUT
  5
26
102
{ACAD_REACTORS
330
1A
102
}
330
1A
100
AcDbPlotSettings
  1

  2
none_device
  4

  6

 40
0.0
 41
0.0
 42
0.0
 43
0.0
 44
0.0
 45
0.0
 46
0.0
 47
0.0
 48
0.0
 49
0.0
140
0.0
141
0.0
142
1.0
143
1.0
 70
   688
 72
     0
 73
     0
 74
     5
  7

 75
    16
147
1.0
148
0.0
149
0.0
100
AcDbLayout
  1
Layout2
 70
     1
 71
     2
 10
0.0
 20
0.0
 11
0.0
 21
0.0
 12
0.0
 22
0.0
 32
0.0
 14
0.0
 24
0.0
 34
0.0
 15
0.0
 25
0.0
 35
0.0
146
0.0
 13
0.0
 23
0.0
 33
0.0
 16
1.0
 26
0.0
 36
0.0
 17
0.0
 27
1.0
 37
0.0
 76
     0
330
23
  0
LAYOUT
  5
22
102
{ACAD_REACTORS
330
1A
102
}
330
1A
100
AcDbPlotSettings
  1

  2
none_device
  4
ANSI_A_(11.00_x_8.50_Inches)
  6

 40
6.35
 41
19.05
 42
6.35000508
 43
19.05000254
 44
279.4
 45
215.9
 46
115.391072854
 47
99.1158091727
 48
0.0
 49
0.0
140
0.0
141
0.0
142
1.2744102279
143
1.0
 70
  1696
 72
     0
 73
     0
 74
     0
  7

 75
     0
147
0.5913241897
148
-39.4088153714
149
0.0
100
AcDbLayout
  1
Model
 70
     1
 71
     0
 10
0.0
 20
0.0
 11
12.0
 21
9.0
 12
0.0
 22
0.0
 32
0.0
 14
-1.533944406
 24
-3.6171219914
 34
0.0
 15
2.6435467308
 25
2.9859323592
 35
0.0
146
0.0
 13
0.0
 23
0.0
 33
0.0
 16
1.0
 26
0.0
 36
0.0
 17
0.0
 27
1.0
 37
0.0
 76
     0
330
1F
331
29
  0
MLINESTYLE
  5
18
102
{ACAD_REACTORS
330
17
102
}
330
17
100
AcDbMlineStyle
  2
Standard
 70
     0
  3

 62
   256
 51
90.0
 52
90.0
 71
     2
 49
0.5
 62
   256
  6
BYLAYER
 49
-0.5
 62
   256
  6
BYLAYER
  0
ACDBPLACEHOLDER
  5
F
102
{ACAD_REACTORS
330
E
102
}
330
E
  0
SCALE
  5
48
102
{ACAD_REACTORS
330
47
102
}
330
47
100
AcDbScale
 70
     0
300
1:1
140
1.0
141
1.0
290
     1
  0
SCALE
  5
49
102
{ACAD_REACTORS
330
47
102
}
330
47
100
AcDbScale
 70
     0
300
1/128" = 1'-0"
140
0.0078125
141
12.0
290
     0
  0
SCALE
  5
4A
102
{ACAD_REACTORS
330
47
102
}
330
47
100
AcDbScale
 70
     0
300
1/64" = 1'-0"
140
0.015625
141
12.0
290
     0
  0
SCALE
  5
4B
102
{ACAD_REACTORS
330
47
102
}
330
47
100
AcDbScale
 70
     0
300
1/32" = 1'-0"
140
0.03125
141
12.0
290
     0
  0
SCALE
  5
4C
102
{ACAD_REACTORS
330
47
102
}
330
47
100
AcDbScale
 70
     0
300
1/16" = 1'-0"
140
0.0625
141
12.0
290
     0
  0
SCALE
  5
4D
102
{ACAD_REACTORS
330
47
102
}
330
47
100
AcDbScale
 70
     0
300
3/32" = 1'-0"
140
0.09375
141
12.0
290
     0
  0
SCALE
  5
4E
102
{ACAD_REACTORS
330
47
102
}
330
47
100
AcDbScale
 70
     0
300
1/8" = 1'-0"
140
0.125
141
12.0
290
     0
  0
SCALE
  5
4F
102
{ACAD_REACTORS
330
47
102
}
330
47
100
AcDbScale
 70
     0
300
3/16" = 1'-0"
140
0.1875
141
12.0
290
     0
  0
SCALE
  5
50
102
{ACAD_REACTORS
330
47
102
}
330
47
100
AcDbScale
 70
     0
300
1/4" = 1'-0"
140
0.25
141
12.0
290
     0
  0
SCALE
  5
51
102
{ACAD_REACTORS
330
47
102
}
330
47
100
AcDbScale
 70
     0
300
3/8" = 1'-0"
140
0.375
141
12.0
290
     0
  0
SCALE
  5
52
102
{ACAD_REACTORS
330
47
102
}
330
47
100
AcDbScale
 70
     0
300
1/2" = 1'-0"
140
0.5
141
12.0
290
     0
  0
SCALE
  5
53
102
{ACAD_REACTORS
330
47
102
}
330
47
100
AcDbScale
 70
     0
300
3/4" = 1'-0"
140
0.75
141
12.0
290
     0
  0
SCALE
  5
54
102
{ACAD_REACTORS
330
47
102
}
330
47
100
AcDbScale
 70
     0
300
1" = 1'-0"
140
1.0
141
12.0
290
     0
  0
SCALE
  5
55
102
{ACAD_REACTORS
330
47
102
}
330
47
100
AcDbScale
 70
     0
300
1-1/2" = 1'-0"
140
1.5
141
12.0
290
     0
  0
SCALE
  5
56
102
{ACAD_REACTORS
330
47
102
}
330
47
100
AcDbScale
 70
     0
300
3" = 1'-0"
140
3.0
141
12.0
290
     0
  0
SCALE
  5
57
102
{ACAD_REACTORS
330
47
102
}
330
47
100
AcDbScale
 70
     0
300
6" = 1'-0"
140
6.0
141
12.0
290
     0
  0
SCALE
  5
58
102
{ACAD_REACTORS
330
47
102
}
330
47
100
AcDbScale
 70
     0
300
1'-0" = 1'-0"
140
12.0
141
12.0
290
     0
  0
ENDSEC
  0
EOF
