  0
SECTION
  2
HEADER
  9
$ACADVER
  1
AC1015
  9
$ACADMAINTVER
 70
     6
  9
$DWGCODEPAGE
  3
ANSI_1252
  9
$INSBASE
 10
0.0
 20
0.0
 30
0.0
  9
$EXTMIN
 10
-0.5598272054
 20
-1.7164911382
 30
0.0
  9
$EXTMAX
 10
2.7774882179
 20
1.9425987839
 30
0.0
  9
$LIMMIN
 10
0.0
 20
0.0
  9
$LIMMAX
 10
12.0
 20
9.0
  9
$ORTHOMODE
 70
     0
  9
$REGENMODE
 70
     1
  9
$FILLMODE
 70
     1
  9
$QTEXTMODE
 70
     0
  9
$MIRRTEXT
 70
     1
  9
$LTSCALE
 40
1.0
  9
$ATTMODE
 70
     1
  9
$TEXTSIZE
 40
0.25
  9
$TRACEWID
 40
0.05
  9
$TEXTSTYLE
  7
Standard
  9
$CLAYER
  8
0
  9
$CELTYPE
  6
ByLayer
  9
$CECOLOR
 62
   256
  9
$CELTSCALE
 40
1.0
  9
$DISPSILH
 70
     0
  9
$DIMSCALE
 40
1.0
  9
$DIMASZ
 40
0.236
  9
$DIMEXO
 40
0.0
  9
$DIMDLI
 40
0.38
  9
$DIMRND
 40
0.0
  9
$DIMDLE
 40
0.0
  9
$DIMEXE
 40
0.039
  9
$DIMTP
 40
0.0
  9
$DIMTM
 40
0.0
  9
$DIMTXT
 40
0.25
  9
$DIMCEN
 40
0.09
  9
$DIMTSZ
 40
0.0
  9
$DIMTOL
 70
     0
  9
$DIMLIM
 70
     0
  9
$DIMTIH
 70
     1
  9
$DIMTOH
 70
     1
  9
$DIMSE1
 70
     0
  9
$DIMSE2
 70
     0
  9
$DIMTAD
 70
     1
  9
$DIMZIN
 70
     1
  9
$DIMBLK
  1

  9
$DIMASO
 70
     1
  9
$DIMSHO
 70
     1
  9
$DIMPOST
  1

  9
$DIMAPOST
  1

  9
$DIMALT
 70
     0
  9
$DIMALTD
 70
     2
  9
$DIMALTF
 40
25.4
  9
$DIMLFAC
 40
1.0
  9
$DIMTOFL
 70
     0
  9
$DIMTVP
 40
0.0
  9
$DIMTIX
 70
     0
  9
$DIMSOXD
 70
     0
  9
$DIMSAH
 70
     0
  9
$DIMBLK1
  1

  9
$DIMBLK2
  1

  9
$DIMSTYLE
  2
Standard
  9
$DIMCLRD
 70
     0
  9
$DIMCLRE
 70
     0
  9
$DIMCLRT
 70
     0
  9
$DIMTFAC
 40
1.0
  9
$DIMGAP
 40
0.06
  9
$DIMJUST
 70
     0
  9
$DIMSD1
 70
     0
  9
$DIMSD2
 70
     0
  9
$DIMTOLJ
 70
     1
  9
$DIMTZIN
 70
     1
  9
$DIMALTZ
 70
     0
  9
$DIMALTTZ
 70
     0
  9
$DIMUPT
 70
     0
  9
$DIMDEC
 70
     2
  9
$DIMTDEC
 70
     2
  9
$DIMALTU
 70
     2
  9
$DIMALTTD
 70
     2
  9
$DIMTXSTY
  7
Standard
  9
$DIMAUNIT
 70
     0
  9
$DIMADEC
 70
     2
  9
$DIMALTRND
 40
0.0
  9
$DIMAZIN
 70
     0
  9
$DIMDSEP
 70
    46
  9
$DIMATFIT
 70
     3
  9
$DIMFRAC
 70
     0
  9
$DIMLDRBLK
  1

  9
$DIMLUNIT
 70
     2
  9
$DIMLWD
 70
    -2
  9
$DIMLWE
 70
    -2
  9
$DIMTMOVE
 70
     0
  9
$LUNITS
 70
     2
  9
$LUPREC
 70
     2
  9
$SKETCHINC
 40
0.1
  9
$FILLETRAD
 40
0.0
  9
$AUNITS
 70
     0
  9
$AUPREC
 70
     2
  9
$MENU
  1
.
  9
$ELEVATION
 40
0.0
  9
$PELEVATION
 40
0.0
  9
$THICKNESS
 40
0.0
  9
$LIMCHECK
 70
     0
  9
$CHAMFERA
 40
0.0
  9
$CHAMFERB
 40
0.0
  9
$CHAMFERC
 40
0.0
  9
$CHAMFERD
 40
0.0
  9
$SKPOLY
 70
     0
  9
$TDCREATE
 40
2460719.521187338
  9
$TDUCREATE
 40
2460719.771187338
  9
$TDUPDATE
 40
2460719.521218947
  9
$TDUUPDATE
 40
2460719.771218947
  9
$TDINDWG
 40
0.0000000116
  9
$TDUSRTIMER
 40
0.0000000116
  9
$USRTIMER
 70
     1
  9
$ANGBASE
 50
0.0
  9
$ANGDIR
 70
     0
  9
$PDMODE
 70
     0
  9
$PDSIZE
 40
-1.0
  9
$PLINEWID
 40
0.0
  9
$SPLFRAME
 70
     0
  9
$SPLINETYPE
 70
     6
  9
$SPLINESEGS
 70
     8
  9
$HANDSEED
  5
99
  9
$SURFTAB1
 70
     6
  9
$SURFTAB2
 70
     6
  9
$SURFTYPE
 70
     6
  9
$SURFU
 70
     6
  9
$SURFV
 70
     6
  9
$UCSBASE
  2

  9
$UCSNAME
  2

  9
$UCSORG
 10
0.0
 20
0.0
 30
0.0
  9
$UCSXDIR
 10
1.0
 20
0.0
 30
0.0
  9
$UCSYDIR
 10
0.0
 20
1.0
 30
0.0
  9
$UCSORTHOREF
  2

  9
$UCSORTHOVIEW
 70
     0
  9
$UCSORGTOP
 10
0.0
 20
0.0
 30
0.0
  9
$UCSORGBOTTOM
 10
0.0
 20
0.0
 30
0.0
  9
$UCSORGLEFT
 10
0.0
 20
0.0
 30
0.0
  9
$UCSORGRIGHT
 10
0.0
 20
0.0
 30
0.0
  9
$UCSORGFRONT
 10
0.0
 20
0.0
 30
0.0
  9
$UCSORGBACK
 10
0.0
 20
0.0
 30
0.0
  9
$PUCSBASE
  2

  9
$PUCSNAME
  2

  9
$PUCSORG
 10
0.0
 20
0.0
 30
0.0
  9
$PUCSXDIR
 10
1.0
 20
0.0
 30
0.0
  9
$PUCSYDIR
 10
0.0
 20
1.0
 30
0.0
  9
$PUCSORTHOREF
  2

  9
$PUCSORTHOVIEW
 70
     0
  9
$PUCSORGTOP
 10
0.0
 20
0.0
 30
0.0
  9
$PUCSORGBOTTOM
 10
0.0
 20
0.0
 30
0.0
  9
$PUCSORGLEFT
 10
0.0
 20
0.0
 30
0.0
  9
$PUCSORGRIGHT
 10
0.0
 20
0.0
 30
0.0
  9
$PUCSORGFRONT
 10
0.0
 20
0.0
 30
0.0
  9
$PUCSORGBACK
 10
0.0
 20
0.0
 30
0.0
  9
$USERI1
 70
     0
  9
$USERI2
 70
     0
  9
$USERI3
 70
     0
  9
$USERI4
 70
     0
  9
$USERI5
 70
     0
  9
$USERR1
 40
0.0
  9
$USERR2
 40
0.0
  9
$USERR3
 40
0.0
  9
$USERR4
 40
0.0
  9
$USERR5
 40
0.0
  9
$WORLDVIEW
 70
     1
  9
$SHADEDGE
 70
     3
  9
$SHADEDIF
 70
    70
  9
$TILEMODE
 70
     1
  9
$MAXACTVP
 70
    64
  9
$PINSBASE
 10
0.0
 20
0.0
 30
0.0
  9
$PLIMCHECK
 70
     0
  9
$PEXTMIN
 10
1.0000000000E+20
 20
1.0000000000E+20
 30
1.0000000000E+20
  9
$PEXTMAX
 10
-1.0000000000E+20
 20
-1.0000000000E+20
 30
-1.0000000000E+20
  9
$PLIMMIN
 10
0.0
 20
0.0
  9
$PLIMMAX
 10
12.0
 20
9.0
  9
$UNITMODE
 70
     0
  9
$VISRETAIN
 70
     1
  9
$PLINEGEN
 70
     0
  9
$PSLTSCALE
 70
     1
  9
$TREEDEPTH
 70
  3020
  9
$CMLSTYLE
  2
Standard
  9
$CMLJUST
 70
     0
  9
$CMLSCALE
 40
1.0
  9
$PROXYGRAPHICS
 70
     1
  9
$MEASUREMENT
 70
     0
  9
$CELWEIGHT
370
    -1
  9
$ENDCAPS
280
     0
  9
$JOINSTYLE
280
     0
  9
$LWDISPLAY
290
     1
  9
$INSUNITS
 70
     1
  9
$HYPERLINKBASE
  1

  9
$STYLESHEET
  1

  9
$XEDIT
290
     1
  9
$CEPSNTYPE
380
     0
  9
$PSTYLEMODE
290
     1
  9
$FINGERPRINTGUID
  2
{08ff7406-fa8f-4c9a-9d71-ff2cb699f018}
  9
$VERSIONGUID
  2
{FAEB1C32-E019-11D5-929B-00C0DF256EC4}
  9
$EXTNAMES
290
     1
  9
$PSVPSCALE
 40
0.0
  9
$OLESTARTUP
290
     0
  0
ENDSEC
  0
SECTION
  2
CLASSES
  0
CLASS
  1
ACDBDICTIONARYWDFLT
  2
AcDbDictionaryWithDefault
  3
ObjectDBX Classes
 90
        0
280
     0
281
     0
  0
CLASS
  1
VISUALSTYLE
  2
AcDbVisualStyle
  3
ObjectDBX Classes
 90
     4095
280
     0
281
     0
  0
CLASS
  1
MATERIAL
  2
AcDbMaterial
  3
ObjectDBX Classes
 90
     1153
280
     0
281
     0
  0
CLASS
  1
SCALE
  2
AcDbScale
  3
ObjectDBX Classes
 90
     1153
280
     0
281
     0
  0
CLASS
  1
TABLESTYLE
  2
AcDbTableStyle
  3
ObjectDBX Classes
 90
     4095
280
     0
281
     0
  0
CLASS
  1
MLEADERSTYLE
  2
AcDbMLeaderStyle
  3
ACDB_MLEADERSTYLE_CLASS
 90
     4095
280
     0
281
     0
  0
CLASS
  1
SUN
  2
AcDbSun
  3
SCENEOE
 90
     1153
280
     0
281
     0
  0
CLASS
  1
ACDBPLACEHOLDER
  2
AcDbPlaceHolder
  3
ObjectDBX Classes
 90
        0
280
     0
281
     0
  0
CLASS
  1
LAYOUT
  2
AcDbLayout
  3
ObjectDBX Classes
 90
        0
280
     0
281
     0
  0
ENDSEC
  0
SECTION
  2
TABLES
  0
TABLE
  2
VPORT
  5
8
330
0
100
AcDbSymbolTable
 70
     1
  0
VPORT
  5
29
330
8
100
AcDbSymbolTableRecord
100
AcDbViewportTableRecord
  2
*Active
 70
     0
 10
0.0
 20
0.0
 11
1.0
 21
1.0
 12
1.1088305063
 22
0.1130538229
 13
0.0
 23
0.0
 14
0.5
 24
0.5
 15
0.5
 25
0.5
 16
0.0
 26
0.0
 36
1.0
 17
0.0
 27
0.0
 37
0.0
 40
3.7322717205
 41
0.9120616039
 42
50.0
 43
0.0
 44
0.0
 50
0.0
 51
0.0
 71
     0
 72
   100
 73
     1
 74
     3
 75
     0
 76
     0
 77
     0
 78
     0
281
     0
 65
     1
110
0.0
120
0.0
130
0.0
111
1.0
121
0.0
131
0.0
112
0.0
122
1.0
132
0.0
 79
     0
146
0.0
  0
ENDTAB
  0
TABLE
  2
LTYPE
  5
5
330
0
100
AcDbSymbolTable
 70
     6
  0
LTYPE
  5
14
330
5
100
AcDbSymbolTableRecord
100
AcDbLinetypeTableRecord
  2
ByBlock
 70
     0
  3

 72
    65
 73
     0
 40
0.0
  0
LTYPE
  5
15
330
5
100
AcDbSymbolTableRecord
100
AcDbLinetypeTableRecord
  2
ByLayer
 70
     0
  3

 72
    65
 73
     0
 40
0.0
  0
LTYPE
  5
16
330
5
100
AcDbSymbolTableRecord
100
AcDbLinetypeTableRecord
  2
Continuous
 70
     0
  3
Solid line
 72
    65
 73
     0
 40
0.0
  0
LTYPE
  5
5E
330
5
100
AcDbSymbolTableRecord
100
AcDbLinetypeTableRecord
  2
HIDDEN
 70
     0
  3
Hidden __ __ __ __ __ __ __ __ __ __ __ __ __ __
 72
    65
 73
     2
 40
0.075
 49
0.05
 74
     0
 49
-0.025
 74
     0
  0
LTYPE
  5
5F
330
5
100
AcDbSymbolTableRecord
100
AcDbLinetypeTableRecord
  2
PHANTOM
 70
     0
  3
Phantom ______  __  __  ______  __  __  ______
 72
    65
 73
     6
 40
0.5
 49
0.25
 74
     0
 49
-0.05
 74
     0
 49
0.05
 74
     0
 49
-0.05
 74
     0
 49
0.05
 74
     0
 49
-0.05
 74
     0
  0
LTYPE
  5
60
330
5
100
AcDbSymbolTableRecord
100
AcDbLinetypeTableRecord
  2
CENTER
 70
     0
  3
Center ____ _ ____ _ ____ _ ____ _ ____ _ ____
 72
    65
 73
     4
 40
0.4
 49
0.25
 74
     0
 49
-0.05
 74
     0
 49
0.05
 74
     0
 49
-0.05
 74
     0
  0
LTYPE
  5
61
330
5
100
AcDbSymbolTableRecord
100
AcDbLinetypeTableRecord
  2
CENTERX2
 70
     0
  3
Center (2x) ________  __  ________  __  _____
 72
    65
 73
     4
 40
0.8
 49
0.5
 74
     0
 49
-0.1
 74
     0
 49
0.1
 74
     0
 49
-0.1
 74
     0
  0
LTYPE
  5
62
330
5
100
AcDbSymbolTableRecord
100
AcDbLinetypeTableRecord
  2
DOT2
 70
     0
  3
Dot (.5x) ........................................
 72
    65
 73
     2
 40
0.025
 49
0.0
 74
     0
 49
-0.025
 74
     0
  0
ENDTAB
  0
TABLE
  2
LAYER
  5
2
330
0
100
AcDbSymbolTable
 70
     1
  0
LAYER
  5
10
330
2
100
AcDbSymbolTableRecord
100
AcDbLayerTableRecord
  2
0
 70
     0
 62
     7
  6
Continuous
370
    -3
390
F
  0
ENDTAB
  0
TABLE
  2
STYLE
  5
3
330
0
100
AcDbSymbolTable
 70
     1
  0
STYLE
  5
11
330
3
100
AcDbSymbolTableRecord
100
AcDbTextStyleTableRecord
  2
Standard
 70
     0
 40
0.0
 41
1.0
 50
0.0
 71
     0
 42
0.25
  3
txt
  4

  0
ENDTAB
  0
TABLE
  2
VIEW
  5
6
330
0
100
AcDbSymbolTable
 70
     0
  0
ENDTAB
  0
TABLE
  2
UCS
  5
7
330
0
100
AcDbSymbolTable
 70
     0
  0
ENDTAB
  0
TABLE
  2
APPID
  5
9
330
0
100
AcDbSymbolTable
 70
     1
  0
APPID
  5
12
330
9
100
AcDbSymbolTableRecord
100
AcDbRegAppTableRecord
  2
ACAD
 70
     0
  0
ENDTAB
  0
TABLE
  2
DIMSTYLE
  5
A
330
0
100
AcDbSymbolTable
 70
     1
100
AcDbDimStyleTable
  0
DIMSTYLE
105
27
330
A
100
AcDbSymbolTableRecord
100
AcDbDimStyleTableRecord
  2
Standard
 70
     0
178
     0
340
11
  0
ENDTAB
  0
TABLE
  2
BLOCK_RECORD
  5
1
330
0
100
AcDbSymbolTable
 70
     1
  0
BLOCK_RECORD
  5
1F
330
1
100
AcDbSymbolTableRecord
100
AcDbBlockTableRecord
  2
*Model_Space
340
22
  0
BLOCK_RECORD
  5
1B
330
1
100
AcDbSymbolTableRecord
100
AcDbBlockTableRecord
  2
*Paper_Space
340
1E
  0
BLOCK_RECORD
  5
23
330
1
100
AcDbSymbolTableRecord
100
AcDbBlockTableRecord
  2
*Paper_Space0
340
26
  0
ENDTAB
  0
ENDSEC
  0
SECTION
  2
BLOCKS
  0
BLOCK
  5
20
330
1F
100
AcDbEntity
  8
0
100
AcDbBlockBegin
  2
*Model_Space
 70
     0
 10
0.0
 20
0.0
 30
0.0
  3
*Model_Space
  1

  0
ENDBLK
  5
21
330
1F
100
AcDbEntity
  8
0
100
AcDbBlockEnd
  0
BLOCK
  5
1C
330
1B
100
AcDbEntity
 67
     1
  8
0
100
AcDbBlockBegin
  2
*Paper_Space
 70
     0
 10
0.0
 20
0.0
 30
0.0
  3
*Paper_Space
  1

  0
ENDBLK
  5
1D
330
1B
100
AcDbEntity
 67
     1
  8
0
100
AcDbBlockEnd
  0
BLOCK
  5
24
330
23
100
AcDbEntity
  8
0
100
AcDbBlockBegin
  2
*Paper_Space0
 70
     0
 10
0.0
 20
0.0
 30
0.0
  3
*Paper_Space0
  1

  0
ENDBLK
  5
25
330
23
100
AcDbEntity
  8
0
100
AcDbBlockEnd
  0
ENDSEC
  0
SECTION
  2
ENTITIES
  0
SPLINE
  5
63
330
1F
100
AcDbEntity
  8
0
  6
Continuous
 62
     7
370
    25
100
AcDbSpline
210
0.0
220
0.0
230
1.0
 70
     8
 71
     3
 72
    15
 73
    11
 74
     0
 42
0.00000001
 43
0.00000001
 40
0.0
 40
0.0
 40
0.0
 40
0.0
 40
0.1026345268025286
 40
0.2282228447573821
 40
0.3553332173097613
 40
0.4835908846567172
 40
0.612602720787286
 40
0.7420235536065374
 40
0.8715805935513699
 40
1.0
 40
1.0
 40
1.0
 40
1.0
 10
1.852803888850601
 20
-0.8052235112480983
 30
0.0
 10
1.845104519198917
 20
-0.7931968083455734
 30
0.0
 10
1.827983847437779
 20
-0.7664536797418132
 30
0.0
 10
1.79575936794361
 20
-0.7266831820225056
 30
0.0
 10
1.757249696350578
 20
-0.6855653841906794
 30
0.0
 10
1.713898491701879
 20
-0.6458987657139247
 30
0.0
 10
1.66613256442446
 20
-0.607826795338191
 30
0.0
 10
1.614087202953522
 20
-0.5716081110054657
 30
0.0
 10
1.558534634654322
 20
-0.5372932066795434
 30
0.0
 10
1.51852162216544
 20
-0.5162205066166552
 30
0.0
 10
1.498603341307323
 20
-0.5057306201476445
 30
0.0
  0
SPLINE
  5
64
330
1F
100
AcDbEntity
  8
0
  6
Continuous
 62
     7
370
    25
100
AcDbSpline
210
0.0
220
0.0
230
1.0
 70
     8
 71
     3
 72
    10
 73
     6
 74
     0
 42
0.00000001
 43
0.00000001
 40
0.0
 40
0.0
 40
0.0
 40
0.0
 40
0.3145240743730179
 40
0.8760716669225828
 40
1.0
 40
1.0
 40
1.0
 40
1.0
 10
-0.0924063649882894
 20
-0.4337253369225533
 30
0.0
 10
-0.1037675593422718
 20
-0.4381782863269258
 30
0.0
 10
-0.1354128968121165
 20
-0.4505814793581334
 30
0.0
 10
-0.1692008237025135
 20
-0.4665018097024445
 30
0.0
 10
-0.1917024114133141
 20
-0.4778296096678344
 30
0.0
 10
-0.195770510893313
 20
-0.4798775814705802
 30
0.0
  0
SPLINE
  5
65
330
1F
100
AcDbEntity
  8
0
  6
Continuous
 62
     7
370
    25
100
AcDbSpline
210
0.0
220
0.0
230
1.0
 70
     8
 71
     3
 72
    14
 73
    10
 74
     0
 42
0.00000001
 43
0.00000001
 40
0.0
 40
0.0
 40
0.0
 40
0.0
 40
0.0867704566697976
 40
0.2515060940027364
 40
0.4164480829122508
 40
0.5812278664629151
 40
0.7454640415990498
 40
0.9086566542533002
 40
1.0
 40
1.0
 40
1.0
 40
1.0
 10
-0.1957705108933133
 20
-0.47987758147058
 30
0.0
 10
-0.2059030542916036
 20
-0.4851526608481835
 30
0.0
 10
-0.235272456162048
 20
-0.50044259547264
 30
0.0
 10
-0.281075243216012
 20
-0.5275750922733788
 30
0.0
 10
-0.331669100653739
 20
-0.5619875899479364
 30
0.0
 10
-0.3780685023718912
 20
-0.5986393900109376
 30
0.0
 10
-0.4197373828693469
 20
-0.6374614397061752
 30
0.0
 10
-0.4520421081813948
 20
-0.6720290313313756
 30
0.0
 10
-0.4684524549931315
 20
-0.6944177989868844
 30
0.0
 10
-0.474341508909382
 20
-0.702452282435302
 30
0.0
  0
SPLINE
  5
6C
330
1F
100
AcDbEntity
  8
0
  6
Continuous
 62
     7
370
    25
100
AcDbSpline
210
0.0
220
0.0
230
1.0
 70
     8
 71
     3
 72
    23
 73
    19
 74
     0
 42
0.00000001
 43
0.00000001
 40
0.0
 40
0.0
 40
0.0
 40
0.0
 40
0.0018848146477328
 40
0.0658793082359328
 40
0.1311387074035553
 40
0.197326230842873
 40
0.2641979056359001
 40
0.3315767654044237
 40
0.3993357261925448
 40
0.4673868913397502
 40
0.5356751819241499
 40
0.6041750810820937
 40
0.6728844494743283
 40
0.7418242875759176
 40
0.8110540026568651
 40
0.8806739468376319
 40
0.9508422455004804
 40
1.0
 40
1.0
 40
1.0
 40
1.0
 10
0.4821327969911349
 20
0.7228731711608692
 30
0.0
 10
0.4816442238484189
 20
0.7228101192853916
 30
0.0
 10
0.4645672870241531
 20
0.7206062877604006
 30
0.0
 10
0.431545640848033
 20
0.7146275690582512
 30
0.0
 10
0.3832332905656431
 20
0.7047227849502086
 30
0.0
 10
0.3359466700213186
 20
0.6926949424243436
 30
0.0
 10
0.2899877867066216
 20
0.6788374377296218
 30
0.0
 10
0.2457888016800064
 20
0.6631272195840192
 30
0.0
 10
0.2036723841449879
 20
0.6456454970635022
 30
0.0
 10
0.1639302722100998
 20
0.6264567777051753
 30
0.0
 10
0.1268113802666267
 20
0.6056360779798343
 30
0.0
 10
0.0925357427130987
 20
0.5832564286790543
 30
0.0
 10
0.0612945043509428
 20
0.5593892964240655
 30
0.0
 10
0.0332782286030835
 20
0.5340958318447279
 30
0.0
 10
0.0086019737460152
 20
0.5074399179644561
 30
0.0
 10
-0.0123739490602587
 20
0.4794236882395369
 30
0.0
 10
-0.0283585819382218
 20
0.45323851711623
 30
0.0
 10
-0.0354537583290757
 20
0.4360476660148316
 30
0.0
 10
-0.0383766987088921
 20
0.4289656950983005
 30
0.0
  0
LWPOLYLINE
  5
6F
330
1F
100
AcDbEntity
  8
0
  6
Continuous
 62
     7
370
    25
100
AcDbPolyline
 90
       58
 70
   128
 43
0.0
 10
1.8534121108
 20
-0.8055730477
 10
1.8747010287
 20
-0.8435027599
 10
1.893532536
 20
-0.8869499869
 10
1.9067077166
 20
-0.9307786211
 10
1.9141651416
 20
-0.974784313
 10
1.9158700412
 20
-1.0187618879
 10
1.9118144662
 20
-1.062506302
 10
1.9020173257
 20
-1.1058135986
 10
1.8865242984
 20
-1.1484818591
 10
1.86540762
 20
-1.1903121445
 10
1.8387657462
 20
-1.2311094225
 10
1.8067228937
 20
-1.2706834775
 10
1.7694284611
 20
-1.308849797
 10
1.7270563322
 20
-1.3454304319
 10
1.6798040654
 20
-1.3802548264
 10
1.6278919727
 20
-1.4131606132
 10
1.5715620921
 20
-1.4439943703
 10
1.5110770596
 20
-1.4726123364
 10
1.4467188844
 20
-1.4988810814
 10
1.3787876339
 20
-1.5226781283
 10
1.3076000349
 20
-1.5438925242
 10
1.2334879971
 20
-1.5624253579
 10
1.1567970648
 20
-1.5781902207
 10
1.0778848065
 20
-1.5911136096
 10
0.9971191478
 20
-1.6011352697
 10
0.9148766553
 20
-1.6082084755
 10
0.8315407816
 20
-1.6123002484
 10
0.7475000769
 20
-1.6133915106
 10
0.6631463778
 20
-1.6114771743
 10
0.5788729801
 20
-1.6065661648
 10
0.4950728055
 20
-1.5986813797
 10
0.4121365689
 20
-1.5878595814
 10
0.3304509574
 20
-1.5741512261
 10
0.2503968269
 20
-1.5576202285
 10
0.1723474269
 20
-1.5383436638
 10
0.0966666597
 20
-1.5164114082
 10
0.0237073839
 20
-1.49192572
 10
-0.0461902307
 20
-1.4650007628
 10
-0.112700289
 20
-1.4357620731
 10
-0.1755126906
 20
-1.4043459753
 10
-0.234334575
 20
-1.3708989456
 10
-0.2888916874
 20
-1.3355769296
 10
-0.3389296574
 20
-1.2985446149
 10
-0.3842151849
 20
-1.2599746631
 10
-0.4245371277
 20
-1.2200469052
 10
-0.4597074865
 20
-1.1789475028
 10
-0.4895622808
 20
-1.1368680803
 10
-0.5139623137
 20
-1.0940048314
 10
-0.5327938211
 20
-1.0505576044
 10
-0.5459690016
 20
-1.0067289702
 10
-0.5534264267
 20
-0.9627232783
 10
-0.5551313263
 20
-0.9187457034
 10
-0.5510757513
 20
-0.8750012893
 10
-0.5412786108
 20
-0.8316939927
 10
-0.5257855835
 20
-0.7890257322
 10
-0.5046689051
 20
-0.7471954468
 10
-0.4780270313
 20
-0.7063981688
 10
-0.4749983115
 20
-0.7022952203
  0
LWPOLYLINE
  5
70
330
1F
100
AcDbEntity
  8
0
  6
Continuous
 62
     7
370
    25
100
AcDbPolyline
 90
       48
 70
   128
 43
0.0
 10
1.9109479317
 20
-1.1281164732
 10
1.9071185871
 20
-1.1656059295
 10
1.8973214466
 20
-1.2089132261
 10
1.8818284193
 20
-1.2515814867
 10
1.8607117409
 20
-1.293411772
 10
1.8340698671
 20
-1.3342090501
 10
1.8020270146
 20
-1.3737831051
 10
1.764732582
 20
-1.4119494245
 10
1.722360453
 20
-1.4485300594
 10
1.6751081863
 20
-1.483354454
 10
1.6231960936
 20
-1.5162602408
 10
1.566866213
 20
-1.5470939978
 10
1.5063811805
 20
-1.5757119639
 10
1.4420230053
 20
-1.6019807089
 10
1.3740917548
 20
-1.6257777558
 10
1.3029041558
 20
-1.6469921517
 10
1.228792118
 20
-1.6655249854
 10
1.1521011856
 20
-1.6812898483
 10
1.0731889274
 20
-1.6942132371
 10
0.9924232687
 20
-1.7042348973
 10
0.9101807762
 20
-1.7113081031
 10
0.8268449025
 20
-1.7153998759
 10
0.7428041978
 20
-1.7164911382
 10
0.6584504987
 20
-1.7145768018
 10
0.574177101
 20
-1.7096657924
 10
0.4903769264
 20
-1.7017810072
 10
0.4074406898
 20
-1.6909592089
 10
0.3257550782
 20
-1.6772508536
 10
0.2457009478
 20
-1.6607198561
 10
0.1676515478
 20
-1.6414432914
 10
0.0919707806
 20
-1.6195110357
 10
0.0190115048
 20
-1.5950253475
 10
-0.0508861098
 20
-1.5681003903
 10
-0.1173961681
 20
-1.5388617007
 10
-0.1802085697
 20
-1.5074456028
 10
-0.2390304541
 20
-1.4739985732
 10
-0.2935875665
 20
-1.4386765572
 10
-0.3436255365
 20
-1.4016442424
 10
-0.388911064
 20
-1.3630742906
 10
-0.4292330068
 20
-1.3231465327
 10
-0.4644033656
 20
-1.2820471303
 10
-0.4942581599
 20
-1.2399677078
 10
-0.5186581928
 20
-1.197104459
 10
-0.5374897002
 20
-1.1536572319
 10
-0.5506648808
 20
-1.1098285978
 10
-0.5581223058
 20
-1.0658229058
 10
-0.5598272054
 20
-1.0218453309
 10
-0.559600975
 20
-1.0155903732
  0
LWPOLYLINE
  5
72
330
1F
100
AcDbEntity
  8
0
  6
Continuous
 62
     7
370
    25
100
AcDbPolyline
 90
       19
 70
   128
 43
0.0
 10
2.1875344945
 20
-0.0767959031
 10
2.1623789576
 20
-0.0857460688
 10
2.1382239527
 20
-0.0892385733
 10
2.1158034174
 20
-0.0871672986
 10
2.0957985884
 20
-0.0795951794
 10
2.0788173023
 20
-0.0667522905
 10
2.0653755268
 20
-0.0490288568
 10
2.0558816835
 20
-0.0269633958
 10
2.050624238
 20
-0.0012263554
 10
2.0497629352
 20
0.0274002576
 10
2.0533239452
 20
0.0580466379
 10
2.0611990687
 20
0.0897816107
 10
2.0731490239
 20
0.1216409251
 10
2.0888107176
 20
0.1526565518
 10
2.107708277
 20
0.1818860968
 10
2.1292675095
 20
0.208441435
 10
2.1528333485
 20
0.231515696
 10
2.1776897582
 20
0.2504077801
 10
2.2030814889
 20
0.2645436607
  0
LWPOLYLINE
  5
74
330
1F
100
AcDbEntity
  8
0
  6
Continuous
 62
     7
370
    25
100
AcDbPolyline
 90
       19
 70
   128
 43
0.0
 10
2.6241696642
 20
0.1226249605
 10
2.6495613949
 20
0.1367608412
 10
2.6744178045
 20
0.1556529253
 10
2.6979836436
 20
0.1787271863
 10
2.719542876
 20
0.2052825245
 10
2.7384404355
 20
0.2345120694
 10
2.7541021291
 20
0.2655276962
 10
2.7660520843
 20
0.2973870105
 10
2.7739272078
 20
0.3291219834
 10
2.7774882179
 20
0.3597683637
 10
2.776626915
 20
0.3883949766
 10
2.7713694696
 20
0.4141320171
 10
2.7618756263
 20
0.4361974781
 10
2.7484338508
 20
0.4539209118
 10
2.7314525646
 20
0.4667638006
 10
2.7114477356
 20
0.4743359199
 10
2.6890272004
 20
0.4764071946
 10
2.6648721955
 20
0.4729146901
 10
2.6397166585
 20
0.4639645244
  0
LWPOLYLINE
  5
75
330
1F
100
AcDbEntity
  8
0
  6
Continuous
 62
     7
370
    25
100
AcDbPolyline
 90
       15
 70
   128
 43
0.0
 10
-0.2963164278
 20
1.7305859619
 10
-0.3217081586
 20
1.7164500812
 10
-0.3465645682
 20
1.6975579972
 10
-0.3701304073
 20
1.6744837362
 10
-0.3916896397
 20
1.6479283979
 10
-0.4105871991
 20
1.618698853
 10
-0.4262488928
 20
1.5876832263
 10
-0.438198848
 20
1.5558239119
 10
-0.4460739715
 20
1.524088939
 10
-0.4496349816
 20
1.4934425588
 10
-0.4487736787
 20
1.4648159458
 10
-0.4435162333
 20
1.4390789054
 10
-0.43402239
 20
1.4170134444
 10
-0.4205806145
 20
1.3992900107
 10
-0.4052789241
 20
1.3874030313
  0
LWPOLYLINE
  5
7A
330
1F
100
AcDbEntity
  8
0
  6
Continuous
 62
     7
370
    25
100
AcDbPolyline
 90
       23
 70
   128
 43
0.0
 10
0.4648111969
 20
0.3425715325
 10
0.4660379783
 20
0.325222667
 10
0.4728453141
 20
0.3044114575
 10
0.4853364942
 20
0.2841468824
 10
0.5032452906
 20
0.2648608462
 10
0.5261900084
 20
0.246964397
 10
0.5536816209
 20
0.2308389668
 10
0.585134192
 20
0.2168282409
 10
0.6198773649
 20
0.2052308338
 10
0.657170649
 20
0.196293924
 10
0.6962192028
 20
0.1902079862
 10
0.7361907741
 20
0.1871027316
 10
0.7762334384
 20
0.1870443434
 10
0.8154937557
 20
0.190034066
 10
0.8531349605
 20
0.1960081786
 10
0.8883547959
 20
0.2048393534
 10
0.9204026123
 20
0.2163393692
 10
0.9485953661
 20
0.2302631233
 10
0.9723321777
 20
0.2463138548
 10
0.9911071382
 20
0.2641494704
 10
1.0045200918
 20
0.2833898349
 10
1.0122851648
 20
0.3036248732
 10
1.0142415874
 20
0.3175466245
  0
LWPOLYLINE
  5
7B
330
1F
100
AcDbEntity
  8
0
  6
Continuous
 62
     7
370
    25
100
AcDbPolyline
 90
       32
 70
   128
 43
0.0
 10
0.4683222735
 20
0.4196584172
 10
0.461736041
 20
0.4135468625
 10
0.444902936
 20
0.3937193815
 10
0.4335581085
 20
0.3727060295
 10
0.4279128912
 20
0.3508982455
 10
0.4280724439
 20
0.3287022672
 10
0.4340337943
 20
0.3065315638
 10
0.4456858938
 20
0.2847991335
 10
0.4628116859
 20
0.2639098103
 10
0.4850921493
 20
0.2442527228
 10
0.5121122413
 20
0.2261940454
 10
0.5433686286
 20
0.210070177
 10
0.5782790639
 20
0.1961814748
 10
0.6161932319
 20
0.1847866591
 10
0.6564048632
 20
0.1760979937
 10
0.6981648914
 20
0.1702773319
 10
0.7406954061
 20
0.1674331018
 10
0.7832041442
 20
0.167618286
 10
0.8248992485
 20
0.1708294348
 10
0.865004018
 20
0.1770067305
 10
0.9027713767
 20
0.1860351019
 10
0.9374977903
 20
0.1977463675
 10
0.9685363713
 20
0.2119223686
 10
0.9953089296
 20
0.228299033
 10
1.0173167433
 20
0.2465712946
 10
1.0341498483
 20
0.2663987756
 10
1.0454946757
 20
0.2874121276
 10
1.051139893
 20
0.3092199116
 10
1.0509803403
 20
0.3314158898
 10
1.0450189899
 20
0.3535865932
 10
1.0333668904
 20
0.3753190236
 10
1.017752664
 20
0.3946335093
  0
LWPOLYLINE
  5
7E
330
1F
100
AcDbEntity
  8
0
  6
Continuous
 62
     7
370
    25
100
AcDbPolyline
 90
       29
 70
   128
 43
0.0
 10
0.1141612168
 20
-0.9415637059
 10
0.163182406
 20
-0.9680794272
 10
0.2161310862
 20
-0.9924393033
 10
0.2726152438
 20
-1.0144629823
 10
0.3322166898
 20
-1.0339874085
 10
0.3944941562
 20
-1.05086803
 10
0.4589865621
 20
-1.0649798685
 10
0.5252164286
 20
-1.0762184449
 10
0.5926934127
 20
-1.0845005527
 10
0.6609179385
 20
-1.0897648741
 10
0.7293848956
 20
-1.0919724339
 10
0.7975873784
 20
-1.091106888
 10
0.8650204397
 20
-1.0871746448
 10
0.9311848287
 20
-1.0802048171
 10
0.9955906874
 20
-1.0702490071
 10
1.0577611773
 20
-1.0573809242
 10
1.11723601
 20
-1.0416958391
 10
1.1735748544
 20
-1.0233098787
 10
1.2263605977
 20
-1.0023591662
 10
1.2752024325
 20
-0.9789988134
 10
1.319738751
 20
-0.9534017721
 10
1.3596398219
 20
-0.925757554
 10
1.3946102317
 20
-0.896270827
 10
1.4243910716
 20
-0.8651599007
 10
1.4487618547
 20
-0.8326551094
 10
1.4675421483
 20
-0.7989971072
 10
1.4805929097
 20
-0.7644350863
 10
1.4878175156
 20
-0.7292249316
 10
1.4891571478
 20
-0.7131250207
  0
LWPOLYLINE
  5
7F
330
1F
100
AcDbEntity
  8
0
  6
Continuous
 62
     7
370
    25
100
AcDbPolyline
 90
       11
 70
   128
 43
0.0
 10
-0.1018316302
 20
-0.6406602491
 10
-0.1019010794
 20
-0.6423271368
 10
-0.1002997579
 20
-0.6780197376
 10
-0.0928202156
 20
-0.7137039937
 10
-0.0795178286
 20
-0.7491157114
 10
-0.060491083
 20
-0.7839927147
 10
-0.0358808463
 20
-0.8180767865
 10
-0.0058693239
 20
-0.8511155802
 10
0.0293212893
 20
-0.8828644882
 10
0.0694304542
 20
-0.9130884527
 10
0.1141612168
 20
-0.9415637059
  0
LWPOLYLINE
  5
80
330
1F
100
AcDbEntity
  8
0
  6
Continuous
 62
     7
370
    25
100
AcDbPolyline
 90
       22
 70
   128
 43
0.0
 10
0.5184295518
 20
0.2290792997
 10
0.5495355408
 20
0.2130786524
 10
0.5843394856
 20
0.199354896
 10
0.622163967
 20
0.1881751479
 10
0.6622727745
 20
0.1797570091
 10
0.7038852358
 20
0.1742643291
 10
0.7461914116
 20
0.1718040167
 10
0.7883678605
 20
0.172423959
 10
0.8295936657
 20
0.1761120896
 10
0.8690664139
 20
0.1827966233
 10
0.9060178129
 20
0.1923474532
 10
0.9397286457
 20
0.2045786832
 10
0.9695427695
 20
0.2192522463
 10
0.9948798861
 20
0.2360825384
 10
1.0152468374
 20
0.254741977
 10
1.0302472038
 20
0.2748673773
 10
1.0395890204
 20
0.2960670212
 10
1.0430904592
 20
0.3179282819
 10
1.0406833687
 20
0.3400256547
 10
1.0324146003
 20
0.3619290395
 10
1.018445096
 20
0.3832121118
 10
1.0172967362
 20
0.3846234589
  0
LWPOLYLINE
  5
81
330
1F
100
AcDbEntity
  8
0
  6
Continuous
 62
     7
370
    25
100
AcDbPolyline
 90
       10
 70
   128
 43
0.0
 10
0.4678663457
 20
0.4096483668
 10
0.4556141677
 20
0.3954728245
 10
0.4434133557
 20
0.3747598466
 10
0.436976047
 20
0.3531768191
 10
0.4364275367
 20
0.3311438311
 10
0.4417785008
 20
0.3090897296
 10
0.452924789
 20
0.2874437727
 10
0.4696494513
 20
0.2666272742
 10
0.4916269614
 20
0.2470454036
 10
0.5184295518
 20
0.2290792997
  0
LWPOLYLINE
  5
82
330
1F
100
AcDbEntity
  8
0
  6
Continuous
 62
     7
370
    25
100
AcDbPolyline
 90
        3
 70
   128
 43
0.0
 10
-0.16838526
 20
-0.476609134
 10
-0.1093354075
 20
-0.4487155742
 10
-0.0927650635
 20
-0.4416006843
  0
LWPOLYLINE
  5
83
330
1F
100
AcDbEntity
  8
0
  6
Continuous
 62
     7
370
    25
100
AcDbPolyline
 90
       70
 70
   128
 43
0.0
 10
1.4982237145
 20
-0.5140654559
 10
1.5281259745
 20
-0.5305295181
 10
1.5833692783
 20
-0.5641336088
 10
1.6342218219
 20
-0.5995209262
 10
1.680435857
 20
-0.6365190668
 10
1.7217862334
 20
-0.6749477793
 10
1.7580714963
 20
-0.714619843
 10
1.7891148674
 20
-0.7553419795
 10
1.8147651066
 20
-0.7969157947
 10
1.8348972484
 20
-0.8391387452
 10
1.8494132113
 20
-0.8818051249
 10
1.8582422747
 20
-0.9247070676
 10
1.8613414244
 20
-0.9676355592
 10
1.8586955617
 20
-1.0103814566
 10
1.850317577
 20
-1.0527365059
 10
1.8362482868
 20
-1.0944943577
 10
1.8165562355
 20
-1.1354515719
 10
1.7913373607
 20
-1.1754086091
 10
1.7607145262
 20
-1.2141708025
 10
1.7248369234
 20
-1.2515493067
 10
1.6838793444
 20
-1.2873620174
 10
1.6380413303
 20
-1.3214344586
 10
1.5875461994
 20
-1.3536006328
 10
1.5326399589
 20
-1.3837038297
 10
1.4735901065
 20
-1.4115973895
 10
1.410684327
 20
-1.4371454176
 10
1.3442290912
 20
-1.4602234466
 10
1.2745481623
 20
-1.4807190426
 10
1.2019810187
 20
-1.4985323531
 10
1.1268812003
 20
-1.5135765936
 10
1.0496145858
 20
-1.5257784699
 10
0.9705576105
 20
-1.5350785357
 10
0.8900954319
 20
-1.5414314821
 10
0.8086200537
 20
-1.5448063581
 10
0.7265284158
 20
-1.5451867218
 10
0.6442204604
 20
-1.5425707199
 10
0.5620971835
 20
-1.5369710974
 10
0.4805586815
 20
-1.5284151351
 10
0.4000022018
 20
-1.5169445168
 10
0.3208202075
 20
-1.5026151262
 10
0.2433984652
 20
-1.4854967746
 10
0.168114166
 20
-1.4656728609
 10
0.0953340873
 20
-1.4432399652
 10
0.0254128064
 20
-1.4183073784
 10
-0.0413090272
 20
-1.3909965695
 10
-0.1045063516
 20
-1.361440594
 10
-0.1638712756
 20
-1.3297834456
 10
-0.2191145793
 20
-1.2961793549
 10
-0.269967123
 20
-1.2607920375
 10
-0.3161811581
 20
-1.2237938969
 10
-0.3575315345
 20
-1.1853651844
 10
-0.3938167973
 20
-1.1456931207
 10
-0.4248601684
 20
-1.1049709842
 10
-0.4505104076
 20
-1.0633971689
 10
-0.4706425495
 20
-1.0211742185
 10
-0.4851585123
 20
-0.9785078388
 10
-0.4939875758
 20
-0.9356058961
 10
-0.4970867255
 20
-0.8926774045
 10
-0.4944408628
 20
-0.8499315071
 10
-0.486062878
 20
-0.8075764577
 10
-0.4719935879
 20
-0.7658186059
 10
-0.4523015366
 20
-0.7248613918
 10
-0.4270826618
 20
-0.6849043546
 10
-0.3964598273
 20
-0.6461421612
 10
-0.3605822245
 20
-0.608763657
 10
-0.3196246454
 20
-0.5729509463
 10
-0.2737866314
 20
-0.5388785051
 10
-0.2232915005
 20
-0.5067123309
 10
-0.16838526
 20
-0.476609134
 10
-0.16838526
 20
-0.476609134
  0
LWPOLYLINE
  5
84
330
1F
100
AcDbEntity
  8
0
  6
Continuous
 62
     7
370
    25
100
AcDbPolyline
 90
       35
 70
   128
 43
0.0
 10
1.4115225402
 20
-0.8794776933
 10
1.4079404654
 20
-0.8954332631
 10
1.3961397981
 20
-0.9284744827
 10
1.3786307921
 20
-0.9606407192
 10
1.3555544196
 20
-0.9916729889
 10
1.327096478
 20
-1.0213214383
 10
1.2934860938
 20
-1.0493473555
 10
1.2549938783
 20
-1.0755250922
 10
1.2119297479
 20
-1.0996438808
 10
1.1646404298
 20
-1.1215095308
 10
1.1135066698
 20
-1.1409459931
 10
1.0589401669
 20
-1.1577967766
 10
1.0013802583
 20
-1.1719262086
 10
0.9412903828
 20
-1.1832205274
 10
0.8791543485
 20
-1.1915887977
 10
0.8154724384
 20
-1.1969636432
 10
0.7507573817
 20
-1.1993017886
 10
0.6855302261
 20
-1.1985844087
 10
0.6203161421
 20
-1.1948172794
 10
0.5556401953
 20
-1.1880307313
 10
0.4920231184
 20
-1.1782794058
 10
0.4299771187
 20
-1.1656418149
 10
0.370001754
 20
-1.1502197089
 10
0.3125799108
 20
-1.1321372576
 10
0.258173916
 20
-1.1115400502
 10
0.2072218146
 20
-1.0885939235
 10
0.160133843
 20
-1.063483626
 10
0.1172891258
 20
-1.0364113311
 10
0.0790326236
 20
-1.0075950091
 10
0.0456723552
 20
-0.977266672
 10
0.0174769179
 20
-0.9456705058
 10
-0.0053266753
 20
-0.9130609042
 10
-0.0225548232
 20
-0.8797004205
 10
-0.034068815
 20
-0.8458576537
 10
-0.0396408261
 20
-0.8133815503
  0
LWPOLYLINE
  5
85
330
1F
100
AcDbEntity
  8
0
  6
Continuous
 62
     7
370
    25
100
AcDbPolyline
 90
       34
 70
   128
 43
0.0
 10
1.5185879539
 20
0.204732864
 10
1.5039467701
 20
0.1739298713
 10
1.4823512368
 20
0.1408178166
 10
1.4552503329
 20
0.1089804801
 10
1.4228447042
 20
0.0786535742
 10
1.3853742706
 20
0.0500616288
 10
1.34311645
 20
0.0234163286
 10
1.2963841046
 20
-0.0010850539
 10
1.2455232242
 20
-0.023261119
 10
1.1909103651
 20
-0.0429476829
 10
1.1329498618
 20
-0.0599989932
 10
1.0720708336
 20
-0.074288808
 10
1.0087240074
 20
-0.0857113304
 10
0.943378381
 20
-0.0941819921
 10
0.8765177506
 20
-0.0996380793
 10
0.8086371289
 20
-0.1020391969
 10
0.7402390803
 20
-0.1013675681
 10
0.6718299999
 20
-0.0976281653
 10
0.6039163647
 20
-0.0908486737
 10
0.5370009835
 20
-0.0810792862
 10
0.4715792743
 20
-0.0683923321
 10
0.4081355966
 20
-0.0528817411
 10
0.3471396652
 20
-0.0346623482
 10
0.2890430726
 20
-0.0138690434
 10
0.2342759457
 20
0.009344227
 10
0.1832437611
 20
0.0348056
 10
0.1363243432
 20
0.0623265685
 10
0.093865067
 20
0.0917033769
 10
0.0561802862
 20
0.1227185296
 10
0.0235490056
 20
0.1551424012
 10
-0.0037871841
 20
0.1887349368
 10
-0.0256258954
 20
0.2232474289
 10
-0.0418054421
 20
0.2584243592
 10
-0.0472421039
 20
0.2745201728
  0
SPLINE
  5
86
330
1F
100
AcDbEntity
  8
0
  6
Continuous
 62
     7
370
    25
100
AcDbSpline
210
0.0
220
0.0
230
1.0
 70
     8
 71
     3
 72
    28
 73
    24
 74
     0
 42
0.00000001
 43
0.00000001
 40
0.0
 40
0.0
 40
0.0
 40
0.0
 40
0.0142190997945527
 40
0.0593773068659073
 40
0.1035829600232408
 40
0.1478003034301245
 40
0.204348027476646
 40
0.2593562261768108
 40
0.3127152146643831
 40
0.3660637129314791
 40
0.4210720475247862
 40
0.4776301282919551
 40
0.5218357805073481
 40
0.5660531229740333
 40
0.6111993906959005
 40
0.6563575974268644
 40
0.7015038654909591
 40
0.746662072562468
 40
0.7908677257198647
 40
0.8350850691266839
 40
0.891632793172543
 40
0.9466436307440468
 40
1.0
 40
1.0
 40
1.0
 40
1.0
 10
1.510419644129804
 20
0.2637343595234127
 30
0.0
 10
1.509824002161175
 20
0.2593904425092788
 30
0.0
 10
1.507336670581503
 20
0.2412507503153272
 30
0.0
 10
1.494688698479275
 20
0.2103689332995808
 30
0.0
 10
1.472776536945954
 20
0.1716050208174703
 30
0.0
 10
1.440149340919494
 20
0.1313674301798767
 30
0.0
 10
1.395689778864757
 20
0.0907531912468976
 30
0.0
 10
1.33805815196315
 20
0.051609055927219
 30
0.0
 10
1.272446073689644
 20
0.0174756834867034
 30
0.0
 10
1.198845328941825
 20
-0.0119737174227657
 30
0.0
 10
1.116634999437859
 20
-0.036695493931104
 30
0.0
 10
1.033244736140425
 20
-0.0544959683558956
 30
0.0
 10
0.9520385887424055
 20
-0.0661787227221587
 30
0.0
 10
0.8750205371605493
 20
-0.0728461793188852
 30
0.0
 10
0.7960408779088541
 20
-0.0753808144608834
 30
0.0
 10
0.7159099861842454
 20
-0.0735865832410762
 30
0.0
 10
0.636022067527844
 20
-0.067531575273383
 30
0.0
 10
0.5577949832652841
 20
-0.0572874672771174
 30
0.0
 10
0.4819960204145326
 20
-0.0431199703932508
 30
0.0
 10
0.4025953325524862
 20
-0.0235748590618233
 30
0.0
 10
0.3218906629765693
 20
0.0023425469686028
 30
0.0
 10
0.2425357413375081
 20
0.0347358653471502
 30
0.0
 10
0.1969997479525602
 20
0.0597293955871816
 30
0.0
 10
0.1745793557636907
 20
0.0720353695763449
 30
0.0
  0
SPLINE
  5
87
330
1F
100
AcDbEntity
  8
0
  6
Continuous
 62
     7
370
    25
100
AcDbSpline
210
0.0
220
0.0
230
1.0
 70
     8
 71
     3
 72
    25
 73
    21
 74
     0
 42
0.00000001
 43
0.00000001
 40
0.0
 40
0.0
 40
0.0
 40
0.0
 40
0.0613698343861376
 40
0.1246429332594833
 40
0.1897017410577957
 40
0.2405515399205641
 40
0.291414786087882
 40
0.3433465757578565
 40
0.3952920988780879
 40
0.4472238889397935
 40
0.4991694124536874
 40
0.5500192123979604
 40
0.6008824596487905
 40
0.6659293541015565
 40
0.7292053312569755
 40
0.7905842205178018
 40
0.8519510428706867
 40
0.9152271763422375
 40
0.9802859841398288
 40
1.0
 40
1.0
 40
1.0
 40
1.0
 10
0.1745793557636907
 20
0.0720353695763449
 30
0.0
 10
0.15378115699999
 20
0.0850799642786191
 30
0.0
 10
0.1115397443197729
 20
0.1115737060841183
 30
0.0
 10
0.0593119469836551
 20
0.1563572097267748
 30
0.0
 10
0.0196734116696402
 20
0.2010278186352939
 30
0.0
 10
-0.0079170540608406
 20
0.2442400957413614
 30
0.0
 10
-0.025642853168364
 20
0.2849269752998824
 30
0.0
 10
-0.0355476638789421
 20
0.3263797399122034
 30
0.0
 10
-0.0372142116474423
 20
0.3681570081556015
 30
0.0
 10
-0.0306820531155305
 20
0.4095360687480306
 30
0.0
 10
-0.0159963704755952
 20
0.4497782248282047
 30
0.0
 10
0.0063712477729714
 20
0.4885054444642002
 30
0.0
 10
0.038869812459721
 20
0.5287536490188577
 30
0.0
 10
0.0833733196050195
 20
0.5693630807067249
 30
0.0
 10
0.1409896302571023
 20
0.6085132456568968
 30
0.0
 10
0.2066165460230562
 20
0.6426281782320181
 30
0.0
 10
0.2801725113710751
 20
0.6721457880962222
 30
0.0
 10
0.3625536934362978
 20
0.696603009440042
 30
0.0
 10
0.4309497857463269
 20
0.7120917181488674
 30
0.0
 10
0.4723360504071425
 20
0.7177693898420523
 30
0.0
 10
0.4819604729840099
 20
0.7190897388050665
 30
0.0
  0
LINE
  5
88
330
1F
100
AcDbEntity
  8
0
  6
Continuous
 62
     7
370
    25
100
AcDbLine
 10
1.9109479317
 20
-1.1281164732
 30
0.0
 11
1.9156438108
 21
-1.0250168456
 31
0.0
  0
LINE
  5
89
330
1F
100
AcDbEntity
  8
0
  6
Continuous
 62
     7
370
    25
100
AcDbLine
 10
-0.5549050959
 20
-0.9124907457
 30
0.0
 11
-0.559600975
 21
-1.0155903732
 31
0.0
  0
LINE
  5
8A
330
1F
100
AcDbEntity
  8
0
  6
Continuous
 62
     7
370
    25
100
AcDbLine
 10
-0.4052789241
 20
1.3874030313
 30
0.0
 11
2.0941189926
 21
-0.0786392699
 31
0.0
  0
LINE
  5
8B
330
1F
100
AcDbEntity
  8
0
  6
Continuous
 62
     7
370
    25
100
AcDbLine
 10
2.7331321604
 20
0.4658078911
 30
0.0
 11
0.2337342437
 21
1.9318501923
 31
0.0
  0
LINE
  5
8C
330
1F
100
AcDbEntity
  8
0
  6
Continuous
 62
     7
370
    25
100
AcDbLine
 10
1.0142415874
 20
0.3175466245
 30
0.0
 11
1.024765325
 21
0.5485988746
 31
0.0
  0
LINE
  5
8D
330
1F
100
AcDbEntity
  8
0
  6
Continuous
 62
     7
370
    25
100
AcDbLine
 10
0.4885214003
 20
0.8631371368
 30
0.0
 11
0.4648111969
 21
0.3425715325
 31
0.0
  0
LINE
  5
8E
330
1F
100
AcDbEntity
  8
0
  6
Continuous
 62
     7
370
    25
100
AcDbLine
 10
1.4891571478
 20
-0.7131250207
 30
0.0
 11
1.5330456888
 21
0.2504628679
 31
0.0
  0
LINE
  5
8F
330
1F
100
AcDbEntity
  8
0
  6
Continuous
 62
     7
370
    25
100
AcDbLine
 10
-0.0567453466
 20
0.3492244861
 30
0.0
 11
-0.1018316302
 21
-0.6406602491
 31
0.0
  0
LINE
  5
90
330
1F
100
AcDbEntity
  8
0
  6
Continuous
 62
     7
370
    25
100
AcDbLine
 10
2.2030814889
 20
0.2645436607
 30
0.0
 11
2.6397166585
 21
0.4639645244
 31
0.0
  0
LINE
  5
91
330
1F
100
AcDbEntity
  8
0
  6
Continuous
 62
     7
370
    25
100
AcDbLine
 10
2.1875344945
 20
-0.0767959031
 30
0.0
 11
2.6241696642
 21
0.1226249605
 31
0.0
  0
LINE
  5
92
330
1F
100
AcDbEntity
  8
0
  6
Continuous
 62
     7
370
    25
100
AcDbLine
 10
2.2030814889
 20
0.2645436607
 30
0.0
 11
-0.2963164278
 21
1.7305859619
 31
0.0
  0
LINE
  5
93
330
1F
100
AcDbEntity
  8
0
  6
Continuous
 62
     7
370
    25
100
AcDbLine
 10
0.1403187418
 20
1.9300068256
 30
0.0
 11
-0.2963164278
 21
1.7305859619
 31
0.0
  0
LINE
  5
94
330
1F
100
AcDbEntity
  8
0
  6
Continuous
 62
     7
370
    25
100
AcDbLine
 10
2.6397166585
 20
0.4639645244
 30
0.0
 11
0.1403187418
 21
1.9300068256
 31
0.0
  0
ARC
  5
95
330
1F
100
AcDbEntity
  8
0
  6
Continuous
 62
     7
370
    25
100
AcDbCircle
 10
0.1887590231
 20
1.843129813
 30
0.0
 40
0.0994689708715233
100
AcDbArc
 50
63.1180802594
 51
119.1428598841
  0
ARC
  5
96
330
1F
100
AcDbEntity
  8
0
  6
Continuous
 62
     7
370
    25
100
AcDbCircle
 10
1.3059317202
 20
0.289079614
 30
0.0
 40
0.2287729179281084
100
AcDbArc
 50
338.3650264219
 51
350.5020631331
  0
ARC
  5
97
330
1F
100
AcDbEntity
  8
0
  6
Continuous
 62
     7
370
    25
100
AcDbCircle
 10
0.1647567441
 20
0.3391471318
 30
0.0
 40
0.2216306733808081
100
AcDbArc
 50
157.4109938309
 51
196.9536225924
  0
ENDSEC
  0
SECTION
  2
OBJECTS
  0
DICTIONARY
  5
C
330
0
100
AcDbDictionary
281
     1
  3
ACAD_GROUP
350
D
  3
ACAD_LAYOUT
350
1A
  3
ACAD_MLINESTYLE
350
17
  3
ACAD_PLOTSETTINGS
350
19
  3
ACAD_PLOTSTYLENAME
350
E
  3
ACAD_SCALELIST
350
47
  3
DWGPROPS
350
98
  0
DICTIONARY
  5
D
102
{ACAD_REACTORS
330
C
102
}
330
C
100
AcDbDictionary
281
     1
  0
DICTIONARY
  5
1A
102
{ACAD_REACTORS
330
C
102
}
330
C
100
AcDbDictionary
281
     1
  3
Layout1
350
1E
  3
Layout2
350
26
  3
Model
350
22
  0
DICTIONARY
  5
17
102
{ACAD_REACTORS
330
C
102
}
330
C
100
AcDbDictionary
281
     1
  3
Standard
350
18
  0
DICTIONARY
  5
19
102
{ACAD_REACTORS
330
C
102
}
330
C
100
AcDbDictionary
281
     1
  0
ACDBDICTIONARYWDFLT
  5
E
102
{ACAD_REACTORS
330
C
102
}
330
C
100
AcDbDictionary
281
     1
  3
Normal
350
F
100
AcDbDictionaryWithDefault
340
F
  0
DICTIONARY
  5
47
102
{ACAD_REACTORS
330
C
102
}
330
C
100
AcDbDictionary
281
     1
  3
A0
350
48
  3
A1
350
49
  3
A2
350
4A
  3
A3
350
4B
  3
A4
350
4C
  3
A5
350
4D
  3
A6
350
4E
  3
A7
350
4F
  3
A8
350
50
  3
A9
350
51
  3
B1
350
52
  3
B2
350
53
  3
B3
350
54
  3
B4
350
55
  3
B5
350
56
  3
B6
350
57
  3
B7
350
58
  0
XRECORD
  5
98
102
{ACAD_REACTORS
330
C
102
}
330
C
100
AcDbXrecord
280
     1
  1
DWGPROPS COOKIE
  2

  3

  4

  6

  7

  8
Alan Ramirez
  9

300
=
301
=
302
=
303
=
304
=
305
=
306
=
307
=
308
=
309
=
 40
0.0
 41
2460719.771187338
 42
2460719.771218947
  1

 90
        0
  0
LAYOUT
  5
1E
102
{ACAD_REACTORS
330
1A
102
}
330
1A
100
AcDbPlotSettings
  1

  2
none_device
  4

  6

 40
0.0
 41
0.0
 42
0.0
 43
0.0
 44
0.0
 45
0.0
 46
0.0
 47
0.0
 48
0.0
 49
0.0
140
0.0
141
0.0
142
1.0
143
1.0
 70
   688
 72
     0
 73
     0
 74
     5
  7

 75
    16
147
1.0
148
0.0
149
0.0
100
AcDbLayout
  1
Layout1
 70
     1
 71
     1
 10
0.0
 20
0.0
 11
12.0
 21
9.0
 12
0.0
 22
0.0
 32
0.0
 14
1.0000000000E+20
 24
1.0000000000E+20
 34
1.0000000000E+20
 15
-1.0000000000E+20
 25
-1.0000000000E+20
 35
-1.0000000000E+20
146
0.0
 13
0.0
 23
0.0
 33
0.0
 16
1.0
 26
0.0
 36
0.0
 17
0.0
 27
1.0
 37
0.0
 76
     0
330
1B
  0
LAYOUT
  5
26
102
{ACAD_REACTORS
330
1A
102
}
330
1A
100
AcDbPlotSettings
  1

  2
none_device
  4

  6

 40
0.0
 41
0.0
 42
0.0
 43
0.0
 44
0.0
 45
0.0
 46
0.0
 47
0.0
 48
0.0
 49
0.0
140
0.0
141
0.0
142
1.0
143
1.0
 70
   688
 72
     0
 73
     0
 74
     5
  7

 75
    16
147
1.0
148
0.0
149
0.0
100
AcDbLayout
  1
Layout2
 70
     1
 71
     2
 10
0.0
 20
0.0
 11
0.0
 21
0.0
 12
0.0
 22
0.0
 32
0.0
 14
0.0
 24
0.0
 34
0.0
 15
0.0
 25
0.0
 35
0.0
146
0.0
 13
0.0
 23
0.0
 33
0.0
 16
1.0
 26
0.0
 36
0.0
 17
0.0
 27
1.0
 37
0.0
 76
     0
330
23
  0
LAYOUT
  5
22
102
{ACAD_REACTORS
330
1A
102
}
330
1A
100
AcDbPlotSettings
  1

  2
none_device
  4
ANSI_A_(11.00_x_8.50_Inches)
  6

 40
6.35
 41
19.05
 42
6.35000508
 43
19.05000254
 44
279.4
 45
215.9
 46
68.5790991536
 47
82.2961060494
 48
0.0
 49
0.0
140
0.0
141
0.0
142
2.2997521731
143
1.0
 70
  1696
 72
     0
 73
     0
 74
     0
  7

 75
     0
147
0.5913241897
148
-39.4088153714
149
0.0
100
AcDbLayout
  1
Model
 70
     1
 71
     0
 10
0.0
 20
0.0
 11
12.0
 21
9.0
 12
0.0
 22
0.0
 32
0.0
 14
-0.5598272054
 24
-1.7164911382
 34
0.0
 15
2.7774882179
 25
1.9425987839
 35
0.0
146
0.0
 13
0.0
 23
0.0
 33
0.0
 16
1.0
 26
0.0
 36
0.0
 17
0.0
 27
1.0
 37
0.0
 76
     0
330
1F
331
29
  0
MLINESTYLE
  5
18
102
{ACAD_REACTORS
330
17
102
}
330
17
100
AcDbMlineStyle
  2
Standard
 70
     0
  3

 62
   256
 51
90.0
 52
90.0
 71
     2
 49
0.5
 62
   256
  6
BYLAYER
 49
-0.5
 62
   256
  6
BYLAYER
  0
ACDBPLACEHOLDER
  5
F
102
{ACAD_REACTORS
330
E
102
}
330
E
  0
SCALE
  5
48
102
{ACAD_REACTORS
330
47
102
}
330
47
100
AcDbScale
 70
     0
300
1:1
140
1.0
141
1.0
290
     1
  0
SCALE
  5
49
102
{ACAD_REACTORS
330
47
102
}
330
47
100
AcDbScale
 70
     0
300
1/128" = 1'-0"
140
0.0078125
141
12.0
290
     0
  0
SCALE
  5
4A
102
{ACAD_REACTORS
330
47
102
}
330
47
100
AcDbScale
 70
     0
300
1/64" = 1'-0"
140
0.015625
141
12.0
290
     0
  0
SCALE
  5
4B
102
{ACAD_REACTORS
330
47
102
}
330
47
100
AcDbScale
 70
     0
300
1/32" = 1'-0"
140
0.03125
141
12.0
290
     0
  0
SCALE
  5
4C
102
{ACAD_REACTORS
330
47
102
}
330
47
100
AcDbScale
 70
     0
300
1/16" = 1'-0"
140
0.0625
141
12.0
290
     0
  0
SCALE
  5
4D
102
{ACAD_REACTORS
330
47
102
}
330
47
100
AcDbScale
 70
     0
300
3/32" = 1'-0"
140
0.09375
141
12.0
290
     0
  0
SCALE
  5
4E
102
{ACAD_REACTORS
330
47
102
}
330
47
100
AcDbScale
 70
     0
300
1/8" = 1'-0"
140
0.125
141
12.0
290
     0
  0
SCALE
  5
4F
102
{ACAD_REACTORS
330
47
102
}
330
47
100
AcDbScale
 70
     0
300
3/16" = 1'-0"
140
0.1875
141
12.0
290
     0
  0
SCALE
  5
50
102
{ACAD_REACTORS
330
47
102
}
330
47
100
AcDbScale
 70
     0
300
1/4" = 1'-0"
140
0.25
141
12.0
290
     0
  0
SCALE
  5
51
102
{ACAD_REACTORS
330
47
102
}
330
47
100
AcDbScale
 70
     0
300
3/8" = 1'-0"
140
0.375
141
12.0
290
     0
  0
SCALE
  5
52
102
{ACAD_REACTORS
330
47
102
}
330
47
100
AcDbScale
 70
     0
300
1/2" = 1'-0"
140
0.5
141
12.0
290
     0
  0
SCALE
  5
53
102
{ACAD_REACTORS
330
47
102
}
330
47
100
AcDbScale
 70
     0
300
3/4" = 1'-0"
140
0.75
141
12.0
290
     0
  0
SCALE
  5
54
102
{ACAD_REACTORS
330
47
102
}
330
47
100
AcDbScale
 70
     0
300
1" = 1'-0"
140
1.0
141
12.0
290
     0
  0
SCALE
  5
55
102
{ACAD_REACTORS
330
47
102
}
330
47
100
AcDbScale
 70
     0
300
1-1/2" = 1'-0"
140
1.5
141
12.0
290
     0
  0
SCALE
  5
56
102
{ACAD_REACTORS
330
47
102
}
330
47
100
AcDbScale
 70
     0
300
3" = 1'-0"
140
3.0
141
12.0
290
     0
  0
SCALE
  5
57
102
{ACAD_REACTORS
330
47
102
}
330
47
100
AcDbScale
 70
     0
300
6" = 1'-0"
140
6.0
141
12.0
290
     0
  0
SCALE
  5
58
102
{ACAD_REACTORS
330
47
102
}
330
47
100
AcDbScale
 70
     0
300
1'-0" = 1'-0"
140
12.0
141
12.0
290
     0
  0
ENDSEC
  0
EOF
