  0
SECTION
  2
HEADER
  9
$ACADVER
  1
AC1015
  9
$ACADMAINTVER
 70
     6
  9
$DWGCODEPAGE
  3
ANSI_1252
  9
$INSBASE
 10
0.0
 20
0.0
 30
0.0
  9
$EXTMIN
 10
-0.3957747572
 20
-0.7839512043
 30
0.0
  9
$EXTMAX
 10
1.5020374257
 20
1.417135355
 30
0.0
  9
$LIMMIN
 10
0.0
 20
0.0
  9
$LIMMAX
 10
12.0
 20
9.0
  9
$ORTHOMODE
 70
     0
  9
$REGENMODE
 70
     1
  9
$FILLMODE
 70
     1
  9
$QTEXTMODE
 70
     0
  9
$MIRRTEXT
 70
     1
  9
$LTSCALE
 40
1.0
  9
$ATTMODE
 70
     1
  9
$TEXTSIZE
 40
0.125
  9
$TRACEWID
 40
0.05
  9
$TEXTSTYLE
  7
Standard
  9
$CLAYER
  8
0
  9
$CELTYPE
  6
ByLayer
  9
$CECOLOR
 62
   256
  9
$CELTSCALE
 40
1.0
  9
$DISPSILH
 70
     0
  9
$DIMSCALE
 40
1.0
  9
$DIMASZ
 40
0.13
  9
$DIMEXO
 40
0.0
  9
$DIMDLI
 40
0.38
  9
$DIMRND
 40
0.0
  9
$DIMDLE
 40
0.0
  9
$DIMEXE
 40
0.125
  9
$DIMTP
 40
0.0
  9
$DIMTM
 40
0.0
  9
$DIMTXT
 40
0.125
  9
$DIMCEN
 40
0.09
  9
$DIMTSZ
 40
0.0
  9
$DIMTOL
 70
     0
  9
$DIMLIM
 70
     0
  9
$DIMTIH
 70
     1
  9
$DIMTOH
 70
     1
  9
$DIMSE1
 70
     0
  9
$DIMSE2
 70
     0
  9
$DIMTAD
 70
     0
  9
$DIMZIN
 70
     1
  9
$DIMBLK
  1

  9
$DIMASO
 70
     1
  9
$DIMSHO
 70
     1
  9
$DIMPOST
  1

  9
$DIMAPOST
  1

  9
$DIMALT
 70
     0
  9
$DIMALTD
 70
     2
  9
$DIMALTF
 40
25.4
  9
$DIMLFAC
 40
1.0
  9
$DIMTOFL
 70
     0
  9
$DIMTVP
 40
0.0
  9
$DIMTIX
 70
     0
  9
$DIMSOXD
 70
     0
  9
$DIMSAH
 70
     0
  9
$DIMBLK1
  1

  9
$DIMBLK2
  1

  9
$DIMSTYLE
  2
Standard
  9
$DIMCLRD
 70
     0
  9
$DIMCLRE
 70
     0
  9
$DIMCLRT
 70
     0
  9
$DIMTFAC
 40
1.0
  9
$DIMGAP
 40
0.06
  9
$DIMJUST
 70
     0
  9
$DIMSD1
 70
     0
  9
$DIMSD2
 70
     0
  9
$DIMTOLJ
 70
     1
  9
$DIMTZIN
 70
     1
  9
$DIMALTZ
 70
     0
  9
$DIMALTTZ
 70
     0
  9
$DIMUPT
 70
     0
  9
$DIMDEC
 70
     3
  9
$DIMTDEC
 70
     3
  9
$DIMALTU
 70
     2
  9
$DIMALTTD
 70
     2
  9
$DIMTXSTY
  7
Standard
  9
$DIMAUNIT
 70
     0
  9
$DIMADEC
 70
     2
  9
$DIMALTRND
 40
0.0
  9
$DIMAZIN
 70
     0
  9
$DIMDSEP
 70
    46
  9
$DIMATFIT
 70
     3
  9
$DIMFRAC
 70
     0
  9
$DIMLDRBLK
  1

  9
$DIMLUNIT
 70
     2
  9
$DIMLWD
 70
    -2
  9
$DIMLWE
 70
    -2
  9
$DIMTMOVE
 70
     0
  9
$LUNITS
 70
     2
  9
$LUPREC
 70
     3
  9
$SKETCHINC
 40
0.1
  9
$FILLETRAD
 40
0.0
  9
$AUNITS
 70
     0
  9
$AUPREC
 70
     2
  9
$MENU
  1
.
  9
$ELEVATION
 40
0.0
  9
$PELEVATION
 40
0.0
  9
$THICKNESS
 40
0.0
  9
$LIMCHECK
 70
     0
  9
$CHAMFERA
 40
0.0
  9
$CHAMFERB
 40
0.0
  9
$CHAMFERC
 40
0.0
  9
$CHAMFERD
 40
0.0
  9
$SKPOLY
 70
     0
  9
$TDCREATE
 40
2460425.424714352
  9
$TDUCREATE
 40
2460425.674714352
  9
$TDUPDATE
 40
2460425.424743044
  9
$TDUUPDATE
 40
2460425.674743044
  9
$TDINDWG
 40
0.0000000116
  9
$TDUSRTIMER
 40
0.0000000116
  9
$USRTIMER
 70
     1
  9
$ANGBASE
 50
0.0
  9
$ANGDIR
 70
     0
  9
$PDMODE
 70
     0
  9
$PDSIZE
 40
-1.0
  9
$PLINEWID
 40
0.0
  9
$SPLFRAME
 70
     0
  9
$SPLINETYPE
 70
     6
  9
$SPLINESEGS
 70
     8
  9
$HANDSEED
  5
220
  9
$SURFTAB1
 70
     6
  9
$SURFTAB2
 70
     6
  9
$SURFTYPE
 70
     6
  9
$SURFU
 70
     6
  9
$SURFV
 70
     6
  9
$UCSBASE
  2

  9
$UCSNAME
  2

  9
$UCSORG
 10
0.0
 20
0.0
 30
0.0
  9
$UCSXDIR
 10
1.0
 20
0.0
 30
0.0
  9
$UCSYDIR
 10
0.0
 20
1.0
 30
0.0
  9
$UCSORTHOREF
  2

  9
$UCSORTHOVIEW
 70
     0
  9
$UCSORGTOP
 10
0.0
 20
0.0
 30
0.0
  9
$UCSORGBOTTOM
 10
0.0
 20
0.0
 30
0.0
  9
$UCSORGLEFT
 10
0.0
 20
0.0
 30
0.0
  9
$UCSORGRIGHT
 10
0.0
 20
0.0
 30
0.0
  9
$UCSORGFRONT
 10
0.0
 20
0.0
 30
0.0
  9
$UCSORGBACK
 10
0.0
 20
0.0
 30
0.0
  9
$PUCSBASE
  2

  9
$PUCSNAME
  2

  9
$PUCSORG
 10
0.0
 20
0.0
 30
0.0
  9
$PUCSXDIR
 10
1.0
 20
0.0
 30
0.0
  9
$PUCSYDIR
 10
0.0
 20
1.0
 30
0.0
  9
$PUCSORTHOREF
  2

  9
$PUCSORTHOVIEW
 70
     0
  9
$PUCSORGTOP
 10
0.0
 20
0.0
 30
0.0
  9
$PUCSORGBOTTOM
 10
0.0
 20
0.0
 30
0.0
  9
$PUCSORGLEFT
 10
0.0
 20
0.0
 30
0.0
  9
$PUCSORGRIGHT
 10
0.0
 20
0.0
 30
0.0
  9
$PUCSORGFRONT
 10
0.0
 20
0.0
 30
0.0
  9
$PUCSORGBACK
 10
0.0
 20
0.0
 30
0.0
  9
$USERI1
 70
     0
  9
$USERI2
 70
     0
  9
$USERI3
 70
     0
  9
$USERI4
 70
     0
  9
$USERI5
 70
     0
  9
$USERR1
 40
0.0
  9
$USERR2
 40
0.0
  9
$USERR3
 40
0.0
  9
$USERR4
 40
0.0
  9
$USERR5
 40
0.0
  9
$WORLDVIEW
 70
     1
  9
$SHADEDGE
 70
     3
  9
$SHADEDIF
 70
    70
  9
$TILEMODE
 70
     1
  9
$MAXACTVP
 70
    64
  9
$PINSBASE
 10
0.0
 20
0.0
 30
0.0
  9
$PLIMCHECK
 70
     0
  9
$PEXTMIN
 10
1.0000000000E+20
 20
1.0000000000E+20
 30
1.0000000000E+20
  9
$PEXTMAX
 10
-1.0000000000E+20
 20
-1.0000000000E+20
 30
-1.0000000000E+20
  9
$PLIMMIN
 10
0.0
 20
0.0
  9
$PLIMMAX
 10
12.0
 20
9.0
  9
$UNITMODE
 70
     0
  9
$VISRETAIN
 70
     1
  9
$PLINEGEN
 70
     0
  9
$PSLTSCALE
 70
     1
  9
$TREEDEPTH
 70
  3020
  9
$CMLSTYLE
  2
Standard
  9
$CMLJUST
 70
     0
  9
$CMLSCALE
 40
1.0
  9
$PROXYGRAPHICS
 70
     1
  9
$MEASUREMENT
 70
     0
  9
$CELWEIGHT
370
    -1
  9
$ENDCAPS
280
     0
  9
$JOINSTYLE
280
     0
  9
$LWDISPLAY
290
     1
  9
$INSUNITS
 70
     1
  9
$HYPERLINKBASE
  1

  9
$STYLESHEET
  1

  9
$XEDIT
290
     1
  9
$CEPSNTYPE
380
     0
  9
$PSTYLEMODE
290
     1
  9
$FINGERPRINTGUID
  2
{5e171328-33a5-4cd0-965c-b8983c069ed9}
  9
$VERSIONGUID
  2
{FAEB1C32-E019-11D5-929B-00C0DF256EC4}
  9
$EXTNAMES
290
     1
  9
$PSVPSCALE
 40
0.0
  9
$OLESTARTUP
290
     0
  0
ENDSEC
  0
SECTION
  2
CLASSES
  0
CLASS
  1
ACDBDICTIONARYWDFLT
  2
AcDbDictionaryWithDefault
  3
ObjectDBX Classes
 90
        0
280
     0
281
     0
  0
CLASS
  1
VISUALSTYLE
  2
AcDbVisualStyle
  3
ObjectDBX Classes
 90
     4095
280
     0
281
     0
  0
CLASS
  1
MATERIAL
  2
AcDbMaterial
  3
ObjectDBX Classes
 90
     1153
280
     0
281
     0
  0
CLASS
  1
SCALE
  2
AcDbScale
  3
ObjectDBX Classes
 90
     1153
280
     0
281
     0
  0
CLASS
  1
TABLESTYLE
  2
AcDbTableStyle
  3
ObjectDBX Classes
 90
     4095
280
     0
281
     0
  0
CLASS
  1
MLEADERSTYLE
  2
AcDbMLeaderStyle
  3
ACDB_MLEADERSTYLE_CLASS
 90
     4095
280
     0
281
     0
  0
CLASS
  1
SUN
  2
AcDbSun
  3
SCENEOE
 90
     1153
280
     0
281
     0
  0
CLASS
  1
ACDBPLACEHOLDER
  2
AcDbPlaceHolder
  3
ObjectDBX Classes
 90
        0
280
     0
281
     0
  0
CLASS
  1
LAYOUT
  2
AcDbLayout
  3
ObjectDBX Classes
 90
        0
280
     0
281
     0
  0
ENDSEC
  0
SECTION
  2
TABLES
  0
TABLE
  2
VPORT
  5
8
330
0
100
AcDbSymbolTable
 70
     1
  0
VPORT
  5
29
330
8
100
AcDbSymbolTableRecord
100
AcDbViewportTableRecord
  2
*Active
 70
     0
 10
0.0
 20
0.0
 11
1.0
 21
1.0
 12
0.5531313342
 22
0.3165920754
 13
0.0
 23
0.0
 14
0.5
 24
0.5
 15
0.5
 25
0.5
 16
0.0
 26
0.0
 36
1.0
 17
0.0
 27
0.0
 37
0.0
 40
2.2451082905
 41
0.8622160609
 42
50.0
 43
0.0
 44
0.0
 50
0.0
 51
0.0
 71
     0
 72
   100
 73
     1
 74
     3
 75
     0
 76
     0
 77
     0
 78
     0
281
     0
 65
     1
110
0.0
120
0.0
130
0.0
111
1.0
121
0.0
131
0.0
112
0.0
122
1.0
132
0.0
 79
     0
146
0.0
  0
ENDTAB
  0
TABLE
  2
LTYPE
  5
5
330
0
100
AcDbSymbolTable
 70
     6
  0
LTYPE
  5
14
330
5
100
AcDbSymbolTableRecord
100
AcDbLinetypeTableRecord
  2
ByBlock
 70
     0
  3

 72
    65
 73
     0
 40
0.0
  0
LTYPE
  5
15
330
5
100
AcDbSymbolTableRecord
100
AcDbLinetypeTableRecord
  2
ByLayer
 70
     0
  3

 72
    65
 73
     0
 40
0.0
  0
LTYPE
  5
16
330
5
100
AcDbSymbolTableRecord
100
AcDbLinetypeTableRecord
  2
Continuous
 70
     0
  3
Solid line
 72
    65
 73
     0
 40
0.0
  0
LTYPE
  5
5E
330
5
100
AcDbSymbolTableRecord
100
AcDbLinetypeTableRecord
  2
HIDDEN
 70
     0
  3
Hidden __ __ __ __ __ __ __ __ __ __ __ __ __ __
 72
    65
 73
     2
 40
0.075
 49
0.05
 74
     0
 49
-0.025
 74
     0
  0
LTYPE
  5
5F
330
5
100
AcDbSymbolTableRecord
100
AcDbLinetypeTableRecord
  2
PHANTOM
 70
     0
  3
Phantom ______  __  __  ______  __  __  ______
 72
    65
 73
     6
 40
0.5
 49
0.25
 74
     0
 49
-0.05
 74
     0
 49
0.05
 74
     0
 49
-0.05
 74
     0
 49
0.05
 74
     0
 49
-0.05
 74
     0
  0
LTYPE
  5
60
330
5
100
AcDbSymbolTableRecord
100
AcDbLinetypeTableRecord
  2
CENTER
 70
     0
  3
Center ____ _ ____ _ ____ _ ____ _ ____ _ ____
 72
    65
 73
     4
 40
0.4
 49
0.25
 74
     0
 49
-0.05
 74
     0
 49
0.05
 74
     0
 49
-0.05
 74
     0
  0
LTYPE
  5
61
330
5
100
AcDbSymbolTableRecord
100
AcDbLinetypeTableRecord
  2
CENTERX2
 70
     0
  3
Center (2x) ________  __  ________  __  _____
 72
    65
 73
     4
 40
0.8
 49
0.5
 74
     0
 49
-0.1
 74
     0
 49
0.1
 74
     0
 49
-0.1
 74
     0
  0
LTYPE
  5
62
330
5
100
AcDbSymbolTableRecord
100
AcDbLinetypeTableRecord
  2
DOT2
 70
     0
  3
Dot (.5x) ........................................
 72
    65
 73
     2
 40
0.025
 49
0.0
 74
     0
 49
-0.025
 74
     0
  0
ENDTAB
  0
TABLE
  2
LAYER
  5
2
330
0
100
AcDbSymbolTable
 70
     1
  0
LAYER
  5
10
330
2
100
AcDbSymbolTableRecord
100
AcDbLayerTableRecord
  2
0
 70
     0
 62
     7
  6
Continuous
370
    -3
390
F
  0
ENDTAB
  0
TABLE
  2
STYLE
  5
3
330
0
100
AcDbSymbolTable
 70
     1
  0
STYLE
  5
11
330
3
100
AcDbSymbolTableRecord
100
AcDbTextStyleTableRecord
  2
Standard
 70
     0
 40
0.0
 41
1.0
 50
0.0
 71
     0
 42
0.125
  3
txt
  4

  0
ENDTAB
  0
TABLE
  2
VIEW
  5
6
330
0
100
AcDbSymbolTable
 70
     0
  0
ENDTAB
  0
TABLE
  2
UCS
  5
7
330
0
100
AcDbSymbolTable
 70
     0
  0
ENDTAB
  0
TABLE
  2
APPID
  5
9
330
0
100
AcDbSymbolTable
 70
     1
  0
APPID
  5
12
330
9
100
AcDbSymbolTableRecord
100
AcDbRegAppTableRecord
  2
ACAD
 70
     0
  0
ENDTAB
  0
TABLE
  2
DIMSTYLE
  5
A
330
0
100
AcDbSymbolTable
 70
     1
100
AcDbDimStyleTable
  0
DIMSTYLE
105
27
330
A
100
AcDbSymbolTableRecord
100
AcDbDimStyleTableRecord
  2
Standard
 70
     0
178
     0
340
11
  0
ENDTAB
  0
TABLE
  2
BLOCK_RECORD
  5
1
330
0
100
AcDbSymbolTable
 70
     1
  0
BLOCK_RECORD
  5
1F
330
1
100
AcDbSymbolTableRecord
100
AcDbBlockTableRecord
  2
*Model_Space
340
22
  0
BLOCK_RECORD
  5
1B
330
1
100
AcDbSymbolTableRecord
100
AcDbBlockTableRecord
  2
*Paper_Space
340
1E
  0
BLOCK_RECORD
  5
23
330
1
100
AcDbSymbolTableRecord
100
AcDbBlockTableRecord
  2
*Paper_Space0
340
26
  0
ENDTAB
  0
ENDSEC
  0
SECTION
  2
BLOCKS
  0
BLOCK
  5
20
330
1F
100
AcDbEntity
  8
0
100
AcDbBlockBegin
  2
*Model_Space
 70
     0
 10
0.0
 20
0.0
 30
0.0
  3
*Model_Space
  1

  0
ENDBLK
  5
21
330
1F
100
AcDbEntity
  8
0
100
AcDbBlockEnd
  0
BLOCK
  5
1C
330
1B
100
AcDbEntity
 67
     1
  8
0
100
AcDbBlockBegin
  2
*Paper_Space
 70
     0
 10
0.0
 20
0.0
 30
0.0
  3
*Paper_Space
  1

  0
ENDBLK
  5
1D
330
1B
100
AcDbEntity
 67
     1
  8
0
100
AcDbBlockEnd
  0
BLOCK
  5
24
330
23
100
AcDbEntity
  8
0
100
AcDbBlockBegin
  2
*Paper_Space0
 70
     0
 10
0.0
 20
0.0
 30
0.0
  3
*Paper_Space0
  1

  0
ENDBLK
  5
25
330
23
100
AcDbEntity
  8
0
100
AcDbBlockEnd
  0
ENDSEC
  0
SECTION
  2
ENTITIES
  0
SPLINE
  5
63
330
1F
100
AcDbEntity
  8
0
  6
Continuous
 62
     7
370
    25
100
AcDbSpline
210
0.0
220
0.0
230
1.0
 70
     8
 71
     3
 72
    18
 73
    14
 74
     0
 42
0.00000001
 43
0.00000001
 40
0.0
 40
0.0
 40
0.0
 40
0.0
 40
0.1290279677751103
 40
0.1814783718656853
 40
0.2683203759814116
 40
0.3581619466234855
 40
0.4541973297960242
 40
0.5540173615875374
 40
0.6566747930628716
 40
0.7614316772178309
 40
0.8677890547571353
 40
0.9753990581314286
 40
1.0
 40
1.0
 40
1.0
 40
1.0
 10
0.7190104185617883
 20
1.093323938693575
 30
0.0
 10
0.7140860302157213
 20
1.084469921297604
 30
0.0
 10
0.7071598575813031
 20
1.072016709104944
 30
0.0
 10
0.6980195170666286
 20
1.053144663266095
 30
0.0
 10
0.6907281354713383
 20
1.036875582972971
 30
0.0
 10
0.6829394014358168
 20
1.017331214812392
 30
0.0
 10
0.6757795368804437
 20
0.9967620531614203
 30
0.0
 10
0.6694447524455338
 20
0.9752732680956501
 30
0.0
 10
0.6641948087741789
 20
0.9532860235144074
 30
0.0
 10
0.6601572537587267
 20
0.9310725494564718
 30
0.0
 10
0.6576218575908724
 20
0.9089596505824119
 30
0.0
 10
0.656475867076683
 20
0.8926364865234243
 30
0.0
 10
0.656686812937897
 20
0.883962569148157
 30
0.0
 10
0.6567260643543331
 20
0.8823485837346968
 30
0.0
  0
SPLINE
  5
64
330
1F
100
AcDbEntity
  8
0
  6
Continuous
 62
     7
370
    25
100
AcDbSpline
210
0.0
220
0.0
230
1.0
 70
     8
 71
     3
 72
    17
 73
    13
 74
     0
 42
0.00000001
 43
0.00000001
 40
0.0
 40
0.0
 40
0.0
 40
0.0
 40
0.0761843607175057
 40
0.1931752482974638
 40
0.3092391218942397
 40
0.423963323294517
 40
0.536484340614487
 40
0.644597470007856
 40
0.7475287288693966
 40
0.8210632711807623
 40
0.8969889232482028
 40
1.0
 40
1.0
 40
1.0
 40
1.0
 10
0.8711047864206075
 20
1.25299391846041
 30
0.0
 10
0.8667131330217721
 20
1.250468281888918
 30
0.0
 10
0.8555775308093685
 20
1.244064205419519
 30
0.0
 10
0.8380541041415952
 20
1.231586450312273
 30
0.0
 10
0.8187211853300579
 20
1.216057308103068
 30
0.0
 10
0.8001661859576311
 20
1.199011829863437
 30
0.0
 10
0.7826573752740735
 20
1.18093070475775
 30
0.0
 10
0.7664562433985213
 20
1.162243932379018
 30
0.0
 10
0.7528695979824592
 20
1.144879232625854
 30
0.0
 10
0.7413899015371863
 20
1.128862628257455
 30
0.0
 10
0.7303636029840863
 20
1.112401384305856
 30
0.0
 10
0.7231583627159698
 20
1.100293981287858
 30
0.0
 10
0.7190104185617883
 20
1.093323938693575
 30
0.0
  0
SPLINE
  5
66
330
1F
100
AcDbEntity
  8
0
  6
Continuous
 62
     7
370
    25
100
AcDbSpline
210
0.0
220
0.0
230
1.0
 70
     8
 71
     3
 72
    27
 73
    23
 74
     0
 42
0.00000001
 43
0.00000001
 40
0.0
 40
0.0
 40
0.0
 40
0.0
 40
0.0886289757666211
 40
0.1823520539239679
 40
0.2676251908382777
 40
0.344454642141758
 40
0.4126991497646304
 40
0.471332733988702
 40
0.5218378217932818
 40
0.5668166043349107
 40
0.6077053047589305
 40
0.6619431060367481
 40
0.707389562930842
 40
0.7498407561009955
 40
0.7654162317544128
 40
0.7807792981028011
 40
0.7993423740692125
 40
0.8257422404282497
 40
0.8599702007986542
 40
0.9020983749727455
 40
0.9523507624008953
 40
1.0
 40
1.0
 40
1.0
 40
1.0
 10
0.6565391940838208
 20
0.8825681324908408
 30
0.0
 10
0.655961694149782
 20
0.8583919967906469
 30
0.0
 10
0.6547735014825191
 20
0.8086501605261329
 30
0.0
 10
0.6517886632534046
 20
0.7364821994793402
 30
0.0
 10
0.647562356977928
 20
0.6684461912591133
 30
0.0
 10
0.6422717705077697
 20
0.6082640290833533
 30
0.0
 10
0.6361051572378694
 20
0.5561862264397802
 30
0.0
 10
0.6293626881950062
 20
0.5119653677060985
 30
0.0
 10
0.6222963729188823
 20
0.4746244830089799
 30
0.0
 10
0.6149896687583658
 20
0.4425834681021541
 30
0.0
 10
0.6064231433206161
 20
0.4107454017546661
 30
0.0
 10
0.59652223778323
 20
0.3801843341996619
 30
0.0
 10
0.5850796735747772
 20
0.3512251508605266
 30
0.0
 10
0.5756863730256535
 20
0.3313101847761404
 30
0.0
 10
0.5684961094063868
 20
0.3177891161895152
 30
0.0
 10
0.5634342219675726
 20
0.3088722530892727
 30
0.0
 10
0.5570736390937091
 20
0.29845048459604
 30
0.0
 10
0.5484056177969059
 20
0.2855536826914419
 30
0.0
 10
0.5364440947080809
 20
0.2699243285431435
 30
0.0
 10
0.520503518264982
 20
0.2525078769296228
 30
0.0
 10
0.5014581764439534
 20
0.2353378406211657
 30
0.0
 10
0.4864671604188485
 20
0.2259931224566104
 30
0.0
 10
0.4791709538008954
 20
0.2214449988070225
 30
0.0
  0
SPLINE
  5
68
330
1F
100
AcDbEntity
  8
0
  6
Continuous
 62
     7
370
    25
100
AcDbSpline
210
0.0
220
0.0
230
1.0
 70
     8
 71
     3
 72
    17
 73
    13
 74
     0
 42
0.00000001
 43
0.00000001
 40
0.0
 40
0.0
 40
0.0
 40
0.0
 40
0.0764817679838433
 40
0.1825288243486993
 40
0.2891681290237769
 40
0.3962499668993003
 40
0.503640094174165
 40
0.6112627743469614
 40
0.719185675820907
 40
0.8277260051553722
 40
0.9375321274876253
 40
1.0
 40
1.0
 40
1.0
 40
1.0
 10
1.501881249646984
 20
1.154615772592934
 30
0.0
 10
1.501863609577673
 20
1.159831198666754
 30
0.0
 10
1.501821510379423
 20
1.172278159750773
 30
0.0
 10
1.499892405807261
 20
1.191093065060412
 30
0.0
 10
1.496320958604115
 20
1.211062958247186
 30
0.0
 10
1.490993758739459
 20
1.230029759252424
 30
0.0
 10
1.483948825841872
 20
1.247865072332428
 30
0.0
 10
1.475135719269971
 20
1.264384762251825
 30
0.0
 10
1.464563222067921
 20
1.279458724461912
 30
0.0
 10
1.452136147077671
 20
1.292775042952612
 30
0.0
 10
1.440245116630847
 20
1.302883733697449
 30
0.0
 10
1.43197710210818
 20
1.307547655124553
 30
0.0
 10
1.428979056595865
 20
1.309238828823629
 30
0.0
  0
SPLINE
  5
6A
330
1F
100
AcDbEntity
  8
0
  6
Continuous
 62
     7
370
    25
100
AcDbSpline
210
0.0
220
0.0
230
1.0
 70
     8
 71
     3
 72
    17
 73
    13
 74
     0
 42
0.00000001
 43
0.00000001
 40
0.0
 40
0.0
 40
0.0
 40
0.0
 40
0.0504287475949984
 40
0.1649704138534488
 40
0.2841110139259699
 40
0.3937795327903365
 40
0.5051175219504287
 40
0.6178835249738146
 40
0.7316060680147254
 40
0.8457586241702405
 40
0.9598953716366304
 40
1.0
 40
1.0
 40
1.0
 40
1.0
 10
1.273036475647122
 20
1.399260388288432
 30
0.0
 10
1.270639863175198
 20
1.400744805975974
 30
0.0
 10
1.262799689262594
 20
1.405600865504001
 30
0.0
 10
1.247804277775177
 20
1.41122804285754
 30
0.0
 10
1.228931850322428
 20
1.415801870882439
 30
0.0
 10
1.209429539911419
 20
1.41752900362272
 30
0.0
 10
1.189841847435611
 20
1.41681078309118
 30
0.0
 10
1.169704513213854
 20
1.413645619441704
 30
0.0
 10
1.149225507830078
 20
1.40813580908964
 30
0.0
 10
1.12862741912712
 20
1.400191048003594
 30
0.0
 10
1.112466576531156
 20
1.39264883152776
 30
0.0
 10
1.103298342427889
 20
1.387102381058099
 30
0.0
 10
1.100914490368207
 20
1.38566023666834
 30
0.0
  0
SPLINE
  5
6C
330
1F
100
AcDbEntity
  8
0
  6
Continuous
 62
     7
370
    25
100
AcDbSpline
210
0.0
220
0.0
230
1.0
 70
     8
 71
     3
 72
    14
 73
    10
 74
     0
 42
0.00000001
 43
0.00000001
 40
0.0
 40
0.0
 40
0.0
 40
0.0
 40
0.1003817074922323
 40
0.2195753289288188
 40
0.3486639496947454
 40
0.4939573069037366
 40
0.6554892845446222
 40
0.8333508280582546
 40
1.0
 40
1.0
 40
1.0
 40
1.0
 10
0.6431951315625478
 20
0.6221734223942588
 30
0.0
 10
0.6308428032861265
 20
0.6270135540572518
 30
0.0
 10
0.6038232734127001
 20
0.6376008764739648
 30
0.0
 10
0.5606888978452126
 20
0.6557971063047848
 30
0.0
 10
0.5118559700952459
 20
0.6774627330250431
 30
0.0
 10
0.4576172242575535
 20
0.7028200288116748
 30
0.0
 10
0.3971801666349067
 20
0.7324815664398754
 30
0.0
 10
0.3339811316297334
 20
0.7647711318293549
 30
0.0
 10
0.290895262073347
 20
0.7879284223090496
 30
0.0
 10
0.2700534590122407
 20
0.7991302314538089
 30
0.0
  0
SPLINE
  5
6D
330
1F
100
AcDbEntity
  8
0
  6
Continuous
 62
     7
370
    25
100
AcDbSpline
210
0.0
220
0.0
230
1.0
 70
     8
 71
     3
 72
    17
 73
    13
 74
     0
 42
0.00000001
 43
0.00000001
 40
0.0
 40
0.0
 40
0.0
 40
0.0
 40
0.0406366508680164
 40
0.1548734460331665
 40
0.2736418140271352
 40
0.3830583965636399
 40
0.4940465893461736
 40
0.6063903084083817
 40
0.7196513904482845
 40
0.8333357406518471
 40
0.9470223720376065
 40
1.0
 40
1.0
 40
1.0
 40
1.0
 10
0.8866392828755228
 20
-0.7661621763805523
 30
0.0
 10
0.8885555295209049
 20
-0.7673752650309555
 30
0.0
 10
0.8958586835722495
 20
-0.7719985599043909
 30
0.0
 10
0.9102313217207155
 20
-0.7775365493195779
 30
0.0
 10
0.9289473632730171
 20
-0.7823419695938739
 30
0.0
 10
0.9483414185404216
 20
-0.7842902708916749
 30
0.0
 10
0.9678507008781598
 20
-0.7837994264087675
 30
0.0
 10
0.9879330325031034
 20
-0.7808675529260087
 30
0.0
 10
1.008381991625659
 20
-0.7755872755622627
 30
0.0
 10
1.028983807125725
 20
-0.7678931069668755
 30
0.0
 10
1.045948007168597
 20
-0.7601099583473272
 30
0.0
 10
1.055922456056744
 20
-0.7541723422430389
 30
0.0
 10
1.059093037706301
 20
-0.7522849500799754
 30
0.0
  0
SPLINE
  5
77
330
1F
100
AcDbEntity
  8
0
  6
Continuous
 62
     7
370
    25
100
AcDbSpline
210
0.0
220
0.0
230
1.0
 70
     8
 71
     3
 72
    18
 73
    14
 74
     0
 42
0.00000001
 43
0.00000001
 40
0.0
 40
0.0
 40
0.0
 40
0.0
 40
0.1279403968812361
 40
0.1799177095748403
 40
0.2659806643450413
 40
0.3550129765976442
 40
0.4501792048839517
 40
0.5490910624904611
 40
0.6508073955550722
 40
0.7545943254291122
 40
0.8599550125430782
 40
0.9665434065682654
 40
1.0
 40
1.0
 40
1.0
 40
1.0
 10
1.438978648260544
 20
-0.4604014309640043
 30
0.0
 10
1.443927030989369
 20
-0.4515062537484008
 30
0.0
 10
1.450885753241078
 20
-0.4389973046603398
 30
0.0
 10
1.460074812595699
 20
-0.4200457726221576
 30
0.0
 10
1.467406873248822
 20
-0.4037136317741503
 30
0.0
 10
1.47524609748048
 20
-0.3840948031992914
 30
0.0
 10
1.482461204933908
 20
-0.3634486281737168
 30
0.0
 10
1.488856179484534
 20
-0.3418806963802403
 30
0.0
 10
1.494172556111658
 20
-0.3198131040660802
 30
0.0
 10
1.498277243444852
 20
-0.2975218095956346
 30
0.0
 10
1.500903437438287
 20
-0.2753256135368891
 30
0.0
 10
1.502117074860868
 20
-0.2583334658867011
 30
0.0
 10
1.501916857610603
 20
-0.2490326676822079
 30
0.0
 10
1.501869025929785
 20
-0.2468107172235093
 30
0.0
  0
SPLINE
  5
78
330
1F
100
AcDbEntity
  8
0
  6
Continuous
 62
     7
370
    25
100
AcDbSpline
210
0.0
220
0.0
230
1.0
 70
     8
 71
     3
 72
    17
 73
    13
 74
     0
 42
0.00000001
 43
0.00000001
 40
0.0
 40
0.0
 40
0.0
 40
0.0
 40
0.06228456951712
 40
0.1786045999927397
 40
0.2940719861607274
 40
0.4083191351336098
 40
0.5205982921355428
 40
0.629070633986986
 40
0.7363868774889792
 40
0.8131268499817246
 40
0.8872579647509057
 40
1.0
 40
1.0
 40
1.0
 40
1.0
 10
1.285422885385302
 20
-0.6216275101366951
 30
0.0
 10
1.289045841924528
 20
-0.6195806449871253
 30
0.0
 10
1.299434879024667
 20
-0.6137111409653064
 30
0.0
 10
1.316277717275983
 20
-0.6018882049557405
 30
0.0
 10
1.335750794040262
 20
-0.5865309711531485
 30
0.0
 10
1.354487803559345
 20
-0.5695955028769949
 30
0.0
 10
1.372242927127669
 20
-0.5515511020654875
 30
0.0
 10
1.388940509599692
 20
-0.5325853461358613
 30
0.0
 10
1.403141892921561
 20
-0.5146681963776687
 30
0.0
 10
1.415069137952942
 20
-0.4981797761194564
 30
0.0
 10
1.426765108104812
 20
-0.4808713708210864
 30
0.0
 10
1.434382821872356
 20
-0.4681040535091683
 30
0.0
 10
1.438978648260544
 20
-0.4604014309640043
 30
0.0
  0
SPLINE
  5
7C
330
1F
100
AcDbEntity
  8
0
  6
Continuous
 62
     7
370
    25
100
AcDbSpline
210
0.0
220
0.0
230
1.0
 70
     8
 71
     3
 72
    20
 73
    16
 74
     0
 42
0.00000001
 43
0.00000001
 40
0.0
 40
0.0
 40
0.0
 40
0.0
 40
0.0776329063868488
 40
0.1576737997367773
 40
0.2399934666076883
 40
0.3043092093292369
 40
0.3686716243928714
 40
0.4999120227560817
 40
0.5655962890978758
 40
0.6313282209256361
 40
0.6956439674040558
 40
0.7600063862250703
 40
0.8422847047574884
 40
0.9223461233936734
 40
0.9999999999999999
 40
0.9999999999999999
 40
0.9999999999999999
 40
0.9999999999999999
 10
1.063487568102209
 20
1.125520059840063
 30
0.0
 10
1.055354959145558
 20
1.120493746007296
 30
0.0
 10
1.038837487165587
 20
1.110285214115774
 30
0.0
 10
1.014074114121716
 20
1.090444061768635
 30
0.0
 10
0.9914274643406924
 20
1.068974181286692
 30
0.0
 10
0.9712883066573748
 20
1.046749006126189
 30
0.0
 10
0.9477599196522927
 20
1.01730187951667
 30
0.0
 10
0.9263476812122248
 20
0.9848531528073025
 30
0.0
 10
0.9079040711934853
 20
0.9505960864610763
 30
0.0
 10
0.8958026796654246
 20
0.9244579537592147
 30
0.0
 10
0.8855183665120059
 20
0.898194399121144
 30
0.0
 10
0.8763428203733329
 20
0.8696478547837514
 30
0.0
 10
0.86907084145505
 20
0.8392948636780474
 30
0.0
 10
0.8642648937215268
 20
0.8079254739429206
 30
0.0
 10
0.8636825589188243
 20
0.7885103767976164
 30
0.0
 10
0.8633958362211741
 20
0.778951015064799
 30
0.0
  0
SPLINE
  5
84
330
1F
100
AcDbEntity
  8
0
  6
Continuous
 62
     7
370
    25
100
AcDbSpline
210
0.0
220
0.0
230
1.0
 70
     8
 71
     3
 72
    20
 73
    16
 74
     0
 42
0.00000001
 43
0.00000001
 40
0.0
 40
0.0
 40
0.0
 40
0.0
 40
0.0776329063863292
 40
0.1576737997376906
 40
0.2399934666077012
 40
0.3043092093316344
 40
0.3686716243928746
 40
0.4999120227560853
 40
0.5655962890987009
 40
0.6313282209256514
 40
0.6956439674036003
 40
0.7600063862250608
 40
0.842284704756799
 40
0.922346123394282
 40
1.0
 40
1.0
 40
1.0
 40
1.0
 10
1.493389003868873
 20
1.142638329445664
 30
0.0
 10
1.49310196783727
 20
1.151863863723425
 30
0.0
 10
1.492518992603297
 20
1.170601086273695
 30
0.0
 10
1.487716655721323
 20
1.196424585387339
 30
0.0
 10
1.480445685672584
 20
1.2183786590119
 30
0.0
 10
1.471267104380611
 20
1.236335932781968
 30
0.0
 10
1.457528807722048
 20
1.255574695826115
 30
0.0
 10
1.440133287604888
 20
1.27025853845038
 30
0.0
 10
1.419687711267949
 20
1.279753558567994
 30
0.0
 10
1.403102362954695
 20
1.284153281065101
 30
0.0
 10
1.385500010406081
 20
1.285867604474482
 30
0.0
 10
1.36536634446803
 20
1.284840268544539
 30
0.0
 10
1.342716705549728
 20
1.280162323162954
 30
0.0
 10
1.317954072069845
 20
1.271416890193045
 30
0.0
 10
1.301432135598136
 20
1.262551438024528
 30
0.0
 10
1.293297271987837
 20
1.258186378011253
 30
0.0
  0
SPLINE
  5
86
330
1F
100
AcDbEntity
  8
0
  6
Continuous
 62
     7
370
    25
100
AcDbSpline
210
0.0
220
0.0
230
1.0
 70
     8
 71
     3
 72
    20
 73
    16
 74
     0
 42
0.00000001
 43
0.00000001
 40
0.0
 40
0.0
 40
0.0
 40
0.0
 40
0.0776537862835792
 40
0.1577151163729145
 40
0.2399936131428635
 40
0.3043558307740137
 40
0.368671778412317
 40
0.4344035047794359
 40
0.5000879765727012
 40
0.6313283749357154
 40
0.6956905888405235
 40
0.7600065327556731
 40
0.8423260214097708
 40
0.9223670031573292
 40
1.0
 40
1.0
 40
1.0
 40
1.0
 10
1.493389003868873
 20
-0.2587819862293129
 30
0.0
 10
1.493099786510718
 20
-0.2684244623904651
 30
0.0
 10
1.492512385026755
 20
-0.2880083657989299
 30
0.0
 10
1.487664663048508
 20
-0.319650526396528
 30
0.0
 10
1.48032945063806
 20
-0.3502674429716604
 30
0.0
 10
1.471074113708877
 20
-0.3790622414936508
 30
0.0
 10
1.46070038525169
 20
-0.4055541476479755
 30
0.0
 10
1.448493754560344
 20
-0.4319195958083112
 30
0.0
 10
1.429889768494324
 20
-0.4664745517015477
 30
0.0
 10
1.408291336256739
 20
-0.4992054418164443
 30
0.0
 10
1.384558357121744
 20
-0.5289086329860361
 30
0.0
 10
1.364244094839596
 20
-0.5513270558418414
 30
0.0
 10
1.341400506479162
 20
-0.5729836387110703
 30
0.0
 10
1.316421802475602
 20
-0.5929973404026858
 30
0.0
 10
1.299760680958339
 20
-0.6032946499561974
 30
0.0
 10
1.291557343884524
 20
-0.6083646748721874
 30
0.0
  0
SPLINE
  5
88
330
1F
100
AcDbEntity
  8
0
  6
Continuous
 62
     7
370
    25
100
AcDbSpline
210
0.0
220
0.0
230
1.0
 70
     8
 71
     3
 72
    20
 73
    16
 74
     0
 42
0.00000001
 43
0.00000001
 40
0.0
 40
0.0
 40
0.0
 40
0.0
 40
0.0776537862840246
 40
0.1577151163732085
 40
0.2399936131428611
 40
0.3043558307740157
 40
0.3686717784123176
 40
0.43440350477979
 40
0.500087976572701
 40
0.6313283749357148
 40
0.6956905888407668
 40
0.7600065327556771
 40
0.8423260214101855
 40
0.92236700315743
 40
1.0
 40
1.0
 40
1.0
 40
1.0
 10
1.065227496205523
 20
-0.7390221148154674
 30
0.0
 10
1.057021904415312
 20
-0.7434251245960564
 30
0.0
 10
1.040356318279298
 20
-0.7523676531341762
 30
0.0
 10
1.015378354827125
 20
-0.7611891540949312
 30
0.0
 10
0.9925317737367445
 20
-0.7659077720698063
 30
0.0
 10
0.9722230139257462
 20
-0.766944048081385
 30
0.0
 10
0.9544676142615588
 20
-0.7652148233984539
 30
0.0
 10
0.9377380266804699
 20
-0.7607768421567659
 30
0.0
 10
0.9171146593945803
 20
-0.7511992622293753
 30
0.0
 10
0.8995678736060051
 20
-0.7363877336932497
 30
0.0
 10
0.8857101099860505
 20
-0.7169816820177293
 30
0.0
 10
0.876451718417164
 20
-0.6988682774119304
 30
0.0
 10
0.8691175214037556
 20
-0.6767232865348829
 30
0.0
 10
0.8642734084830864
 20
-0.6506752479706013
 30
0.0
 10
0.8636853667993174
 20
-0.6317750690360808
 30
0.0
 10
0.8633958362211741
 20
-0.6224693006101778
 30
0.0
  0
SPLINE
  5
8B
330
1F
100
AcDbEntity
  8
0
  6
Continuous
 62
     7
370
    25
100
AcDbSpline
210
0.0
220
0.0
230
1.0
 70
     8
 71
     3
 72
    12
 73
     8
 74
     0
 42
0.00000001
 43
0.00000001
 40
0.0
 40
0.0
 40
0.0
 40
0.0
 40
0.2134216032908095
 40
0.4033723843705662
 40
0.5807695017392513
 40
0.7862944703104243
 40
0.9999999999999999
 40
0.9999999999999999
 40
0.9999999999999999
 40
0.9999999999999999
 10
1.144108569158352
 20
-0.4966431831015583
 30
0.0
 10
1.144221654223955
 20
-0.4985331233443975
 30
0.0
 10
1.144435387940905
 20
-0.5021051595877626
 30
0.0
 10
1.146332595552641
 20
-0.5059618018804938
 30
0.0
 10
1.149350939945398
 20
-0.508192698146233
 30
0.0
 10
1.153573944208526
 20
-0.5085488681923103
 30
0.0
 10
1.1569047741492
 20
-0.5069689620870791
 30
0.0
 10
1.158602686824282
 20
-0.5061635944612053
 30
0.0
  0
SPLINE
  5
8C
330
1F
100
AcDbEntity
  8
0
  6
Continuous
 62
     7
370
    25
100
AcDbSpline
210
0.0
220
0.0
230
1.0
 70
     8
 71
     3
 72
    10
 73
     6
 74
     0
 42
0.00000001
 43
0.00000001
 40
0.0
 40
0.0
 40
0.0
 40
0.0
 40
0.3065668130916305
 40
0.569680863581186
 40
1.0
 40
1.0
 40
1.0
 40
1.0
 10
1.158602686824282
 20
-0.5061635944612053
 30
0.0
 10
1.159847678239259
 20
-0.5053874503381103
 30
0.0
 10
1.162161196057063
 20
-0.5039451727156594
 30
0.0
 10
1.166079556662955
 20
-0.500121285293572
 30
0.0
 10
1.168125234939906
 20
-0.4966485616793205
 30
0.0
 10
1.16939470765357
 20
-0.4944935171055697
 30
0.0
  0
SPLINE
  5
8F
330
1F
100
AcDbEntity
  8
0
  6
Continuous
 62
     7
370
    25
100
AcDbSpline
210
0.0
220
0.0
230
1.0
 70
     8
 71
     3
 72
    12
 73
     8
 74
     0
 42
0.00000001
 43
0.00000001
 40
0.0
 40
0.0
 40
0.0
 40
0.0
 40
0.2107469423924815
 40
0.39537171872929
 40
0.5702510452609729
 40
0.7792227134912353
 40
1.0
 40
1.0
 40
1.0
 40
1.0
 10
1.169556556539088
 20
-0.4965285334490717
 30
0.0
 10
1.169482190106043
 20
-0.4977779236281391
 30
0.0
 10
1.169342674988456
 20
-0.5001218415842129
 30
0.0
 10
1.168046371167262
 20
-0.5038491524137292
 30
0.0
 10
1.166002216876785
 20
-0.5073073915560904
 30
0.0
 10
1.163230819113042
 20
-0.510402340280649
 30
0.0
 10
1.161104534296863
 20
-0.5118043285327329
 30
0.0
 10
1.160012186341426
 20
-0.5125245796435243
 30
0.0
  0
SPLINE
  5
90
330
1F
100
AcDbEntity
  8
0
  6
Continuous
 62
     7
370
    25
100
AcDbSpline
210
0.0
220
0.0
230
1.0
 70
     8
 71
     3
 72
    10
 73
     6
 74
     0
 42
0.00000001
 43
0.00000001
 40
0.0
 40
0.0
 40
0.0
 40
0.0
 40
0.285370629526749
 40
0.5546912352174809
 40
1.0
 40
1.0
 40
1.0
 40
1.0
 10
1.160012186341426
 20
-0.5125245796435243
 30
0.0
 10
1.159135674754658
 20
-0.512964808159796
 30
0.0
 10
1.157431948987389
 20
-0.5138205055378812
 30
0.0
 10
1.154533643738365
 20
-0.5141615253076978
 30
0.0
 10
1.152857407564091
 20
-0.5134778563372943
 30
0.0
 10
1.151812890376455
 20
-0.5130518400030802
 30
0.0
  0
SPLINE
  5
92
330
1F
100
AcDbEntity
  8
0
  6
Continuous
 62
     7
370
    25
100
AcDbSpline
210
0.0
220
0.0
230
1.0
 70
     8
 71
     3
 72
    10
 73
     6
 74
     0
 42
0.00000001
 43
0.00000001
 40
0.0
 40
0.0
 40
0.0
 40
0.0
 40
0.4971750406821084
 40
0.7234176564803287
 40
1.0
 40
1.0
 40
1.0
 40
1.0
 10
1.14530436529274
 20
-0.5212547426446357
 30
0.0
 10
1.147382714060074
 20
-0.5223990083011725
 30
0.0
 10
1.150406828449547
 20
-0.5240639792106274
 30
0.0
 10
1.156005206148981
 20
-0.5226910167862931
 30
0.0
 10
1.158879174490226
 20
-0.5211689064197111
 30
0.0
 10
1.160460020636171
 20
-0.5203316590944078
 30
0.0
  0
SPLINE
  5
93
330
1F
100
AcDbEntity
  8
0
  6
Continuous
 62
     7
370
    25
100
AcDbSpline
210
0.0
220
0.0
230
1.0
 70
     8
 71
     3
 72
    12
 73
     8
 74
     0
 42
0.00000001
 43
0.00000001
 40
0.0
 40
0.0
 40
0.0
 40
0.0
 40
0.2479958014003098
 40
0.5206175998583552
 40
0.6692313133382263
 40
0.8258210920277297
 40
0.9999999999999999
 40
0.9999999999999999
 40
0.9999999999999999
 40
0.9999999999999999
 10
1.160460020636171
 20
-0.5203316590944078
 30
0.0
 10
1.162504751050494
 20
-0.5188796647717746
 30
0.0
 10
1.166797253724535
 20
-0.515831493008427
 30
0.0
 10
1.171696747971815
 20
-0.5095603934280966
 30
0.0
 10
1.174796041439058
 20
-0.5035606871251861
 30
0.0
 10
1.176496400864202
 20
-0.4983554454389366
 30
0.0
 10
1.176695584768935
 20
-0.4950802635518272
 30
0.0
 10
1.17680047267523
 20
-0.4933555912127837
 30
0.0
  0
SPLINE
  5
97
330
1F
100
AcDbEntity
  8
0
  6
Continuous
 62
     7
370
    25
100
AcDbSpline
210
0.0
220
0.0
230
1.0
 70
     8
 71
     3
 72
    12
 73
     8
 74
     0
 42
0.00000001
 43
0.00000001
 40
0.0
 40
0.0
 40
0.0
 40
0.0
 40
0.1976451844736259
 40
0.375230870474066
 40
0.5436940315042282
 40
0.7523636124242945
 40
1.0
 40
1.0
 40
1.0
 40
1.0
 10
1.16909929415387
 20
-0.4817100893421469
 30
0.0
 10
1.169049175710967
 20
-0.4828269908595015
 30
0.0
 10
1.168954025469855
 20
-0.484947436797544
 30
0.0
 10
1.168022509913845
 20
-0.4883293801157568
 30
0.0
 10
1.16632663206936
 20
-0.4917080098557247
 30
0.0
 10
1.163616636489833
 20
-0.4949506493343253
 30
0.0
 10
1.16143296370132
 20
-0.4963751546561758
 30
0.0
 10
1.16024788860187
 20
-0.4971482310048116
 30
0.0
  0
SPLINE
  5
98
330
1F
100
AcDbEntity
  8
0
  6
Continuous
 62
     7
370
    25
100
AcDbSpline
210
0.0
220
0.0
230
1.0
 70
     8
 71
     3
 72
    11
 73
     7
 74
     0
 42
0.00000001
 43
0.00000001
 40
0.0
 40
0.0
 40
0.0
 40
0.0
 40
0.2803630562051361
 40
0.5353477400659423
 40
0.7462568745276977
 40
1.0
 40
1.0
 40
1.0
 40
1.0
 10
1.16024788860187
 20
-0.4971482310048117
 30
0.0
 10
1.158994155901494
 20
-0.4977672529730546
 30
0.0
 10
1.156600177975593
 20
-0.4989492632430078
 30
0.0
 10
1.153675616235572
 20
-0.4984792656841056
 30
0.0
 10
1.152033905726174
 20
-0.4961218036027022
 30
0.0
 10
1.151890954805534
 20
-0.4938053388774044
 30
0.0
 10
1.151812890376455
 20
-0.4925403348084976
 30
0.0
  0
SPLINE
  5
9E
330
1F
100
AcDbEntity
  8
0
  6
Continuous
 62
     7
370
    25
100
AcDbSpline
210
0.0
220
0.0
230
1.0
 70
     8
 71
     3
 72
    12
 73
     8
 74
     0
 42
0.00000001
 43
0.00000001
 40
0.0
 40
0.0
 40
0.0
 40
0.0
 40
0.2006360717816854
 40
0.3867418903986246
 40
0.5674352042097638
 40
0.7807258691714506
 40
1.0
 40
1.0
 40
1.0
 40
1.0
 10
1.092183361193204
 20
-0.5170491092920034
 30
0.0
 10
1.092228760545208
 20
-0.516382226297983
 30
0.0
 10
1.09231627138541
 20
-0.5150967566040645
 30
0.0
 10
1.093043082719294
 20
-0.5130304418566745
 30
0.0
 10
1.094160867708236
 20
-0.5110465549609648
 30
0.0
 10
1.09568339210877
 20
-0.5092032658576607
 30
0.0
 10
1.096879011690532
 20
-0.5083858492505047
 30
0.0
 10
1.097485090703766
 20
-0.5079714874767235
 30
0.0
  0
SPLINE
  5
9F
330
1F
100
AcDbEntity
  8
0
  6
Continuous
 62
     7
370
    25
100
AcDbSpline
210
0.0
220
0.0
230
1.0
 70
     8
 71
     3
 72
    10
 73
     6
 74
     0
 42
0.00000001
 43
0.00000001
 40
0.0
 40
0.0
 40
0.0
 40
0.0
 40
0.244016103904632
 40
0.5436725374775375
 40
1.0
 40
1.0
 40
1.0
 40
1.0
 10
1.097485090703767
 20
-0.5079714874767237
 30
0.0
 10
1.097736831960525
 20
-0.5078548902646332
 30
0.0
 10
1.098297716286027
 20
-0.5075951094503929
 30
0.0
 10
1.099299468380147
 20
-0.5073606861961721
 30
0.0
 10
1.09997983224641
 20
-0.5074209580542743
 30
0.0
 10
1.100390513900196
 20
-0.5074573393901879
 30
0.0
  0
SPLINE
  5
A1
330
1F
100
AcDbEntity
  8
0
  6
Continuous
 62
     7
370
    25
100
AcDbSpline
210
0.0
220
0.0
230
1.0
 70
     8
 71
     3
 72
     9
 73
     5
 74
     0
 42
0.00000001
 43
0.00000001
 40
0.0
 40
0.0
 40
0.0
 40
0.0
 40
0.5176862473734174
 40
1.0
 40
1.0
 40
1.0
 40
1.0
 10
1.103104232591557
 20
-0.4974059766325397
 30
0.0
 10
1.10241168724979
 20
-0.4974250678008103
 30
0.0
 10
1.101073916842946
 20
-0.4974619456749426
 30
0.0
 10
1.099595216800281
 20
-0.4982373505924291
 30
0.0
 10
1.098882019433693
 20
-0.4986113390479868
 30
0.0
  0
SPLINE
  5
A2
330
1F
100
AcDbEntity
  8
0
  6
Continuous
 62
     7
370
    25
100
AcDbSpline
210
0.0
220
0.0
230
1.0
 70
     8
 71
     3
 72
    10
 73
     6
 74
     0
 42
0.00000001
 43
0.00000001
 40
0.0
 40
0.0
 40
0.0
 40
0.0
 40
0.2822059413461044
 40
0.5577459539367118
 40
1.0
 40
1.0
 40
1.0
 40
1.0
 10
1.098882019433693
 20
-0.4986113390479868
 30
0.0
 10
1.098045602140193
 20
-0.4991902681315933
 30
0.0
 10
1.096392524394815
 20
-0.5003344515334655
 30
0.0
 10
1.093704341285752
 20
-0.5036032412922673
 30
0.0
 10
1.092571674748691
 20
-0.5063838538853026
 30
0.0
 10
1.091873805557916
 20
-0.5080970711444571
 30
0.0
  0
SPLINE
  5
A7
330
1F
100
AcDbEntity
  8
0
  6
Continuous
 62
     7
370
    25
100
AcDbSpline
210
0.0
220
0.0
230
1.0
 70
     8
 71
     3
 72
    10
 73
     6
 74
     0
 42
0.00000001
 43
0.00000001
 40
0.0
 40
0.0
 40
0.0
 40
0.0
 40
0.2908461815637384
 40
0.5665622784060319
 40
1.0
 40
1.0
 40
1.0
 40
1.0
 10
1.210309477361478
 20
-0.4625579087751453
 30
0.0
 10
1.209534869464546
 20
-0.4640146594975839
 30
0.0
 10
1.208025949482865
 20
-0.4668523794357896
 30
0.0
 10
1.204565773589378
 20
-0.4714018799904632
 30
0.0
 10
1.201700713696885
 20
-0.47344818719328
 30
0.0
 10
1.199949577342898
 20
-0.4746988985461794
 30
0.0
  0
SPLINE
  5
A8
330
1F
100
AcDbEntity
  8
0
  6
Continuous
 62
     7
370
    25
100
AcDbSpline
210
0.0
220
0.0
230
1.0
 70
     8
 71
     3
 72
    11
 73
     7
 74
     0
 42
0.00000001
 43
0.00000001
 40
0.0
 40
0.0
 40
0.0
 40
0.0
 40
0.2875750588398836
 40
0.5670798079646968
 40
0.7819879379488
 40
1.0
 40
1.0
 40
1.0
 40
1.0
 10
1.199949577342898
 20
-0.4746988985461794
 30
0.0
 10
1.198458912908882
 20
-0.4753684538415849
 30
0.0
 10
1.195519417027731
 20
-0.4766887744906431
 30
0.0
 10
1.192042594393789
 20
-0.4760695041537975
 30
0.0
 10
1.189692211104735
 20
-0.4740220272697825
 30
0.0
 10
1.189250928959684
 20
-0.4717163794591003
 30
0.0
 10
1.189028705944545
 20
-0.4705552900878525
 30
0.0
  0
SPLINE
  5
AB
330
1F
100
AcDbEntity
  8
0
  6
Continuous
 62
     7
370
    25
100
AcDbSpline
210
0.0
220
0.0
230
1.0
 70
     8
 71
     3
 72
    12
 73
     8
 74
     0
 42
0.00000001
 43
0.00000001
 40
0.0
 40
0.0
 40
0.0
 40
0.0
 40
0.23037594239323
 40
0.4307596311571845
 40
0.6159382555712105
 40
0.81944213534043
 40
1.0
 40
1.0
 40
1.0
 40
1.0
 10
1.218747618283638
 20
-0.4518184670731465
 30
0.0
 10
1.218560392645006
 20
-0.449272980831911
 30
0.0
 10
1.218210315956432
 20
-0.4445134008905352
 30
0.0
 10
1.215192023881415
 20
-0.4398986423412064
 30
0.0
 10
1.210907680872761
 20
-0.4377114812003303
 30
0.0
 10
1.205779932632391
 20
-0.4375851114577973
 30
0.0
 10
1.201970100054078
 20
-0.4393187905680928
 30
0.0
 10
1.200178994209694
 20
-0.4401338402383626
 30
0.0
  0
SPLINE
  5
AC
330
1F
100
AcDbEntity
  8
0
  6
Continuous
 62
     7
370
    25
100
AcDbSpline
210
0.0
220
0.0
230
1.0
 70
     8
 71
     3
 72
    12
 73
     8
 74
     0
 42
0.00000001
 43
0.00000001
 40
0.0
 40
0.0
 40
0.0
 40
0.0
 40
0.217669295479072
 40
0.4119211744248987
 40
0.5931052615766609
 40
0.7982905541539885
 40
0.9999999999999999
 40
0.9999999999999999
 40
0.9999999999999999
 40
0.9999999999999999
 10
1.200178994209694
 20
-0.4401338402383626
 30
0.0
 10
1.198005350854393
 20
-0.4415714150442949
 30
0.0
 10
1.193891910225453
 20
-0.4442919067015131
 30
0.0
 10
1.188432218234113
 20
-0.4504064501064463
 30
0.0
 10
1.184113252193996
 20
-0.4574103534186547
 30
0.0
 10
1.181060121750408
 20
-0.4651756282775495
 30
0.0
 10
1.180647437664661
 20
-0.470105018033026
 30
0.0
 10
1.180442858272537
 20
-0.4725486585671578
 30
0.0
  0
SPLINE
  5
AD
330
1F
100
AcDbEntity
  8
0
  6
Continuous
 62
     7
370
    25
100
AcDbSpline
210
0.0
220
0.0
230
1.0
 70
     8
 71
     3
 72
    11
 73
     7
 74
     0
 42
0.00000001
 43
0.00000001
 40
0.0
 40
0.0
 40
0.0
 40
0.0
 40
0.2566826957827724
 40
0.5215407495807929
 40
0.7458698645320236
 40
1.0
 40
1.0
 40
1.0
 40
1.0
 10
1.180442858272537
 20
-0.4725486585671578
 30
0.0
 10
1.180776630630703
 20
-0.4753173925290799
 30
0.0
 10
1.181454806015047
 20
-0.4809430447822911
 30
0.0
 10
1.186321280320815
 20
-0.4850830047605771
 30
0.0
 10
1.192855796769088
 20
-0.4856665847465136
 30
0.0
 10
1.197638628223656
 20
-0.483377783274629
 30
0.0
 10
1.200178994209694
 20
-0.4821621030937155
 30
0.0
  0
SPLINE
  5
AE
330
1F
100
AcDbEntity
  8
0
  6
Continuous
 62
     7
370
    25
100
AcDbSpline
210
0.0
220
0.0
230
1.0
 70
     8
 71
     3
 72
     9
 73
     5
 74
     0
 42
0.00000001
 43
0.00000001
 40
0.0
 40
0.0
 40
0.0
 40
0.0
 40
0.5505980433225682
 40
0.9999999999999999
 40
0.9999999999999999
 40
0.9999999999999999
 40
0.9999999999999999
 10
1.200178994209694
 20
-0.4821621030937155
 30
0.0
 10
1.203753113272859
 20
-0.4794389102282654
 30
0.0
 10
1.210244453201343
 20
-0.4744930283849205
 30
0.0
 10
1.214780890151722
 20
-0.4664511063012495
 30
0.0
 10
1.216819573793566
 20
-0.4628370507814005
 30
0.0
  0
SPLINE
  5
B0
330
1F
100
AcDbEntity
  8
0
  6
Continuous
 62
     7
370
    25
100
AcDbSpline
210
0.0
220
0.0
230
1.0
 70
     8
 71
     3
 72
    12
 73
     8
 74
     0
 42
0.00000001
 43
0.00000001
 40
0.0
 40
0.0
 40
0.0
 40
0.0
 40
0.2177561366064139
 40
0.4120338098033127
 40
0.5932007247172375
 40
0.7983402137808796
 40
1.0
 40
1.0
 40
1.0
 40
1.0
 10
1.241301181906629
 20
-0.4163945065868464
 30
0.0
 10
1.239126145892989
 20
-0.4178328241870191
 30
0.0
 10
1.235010586216343
 20
-0.4205543800051109
 30
0.0
 10
1.22954816746917
 20
-0.426670262778526
 30
0.0
 10
1.225227769800994
 20
-0.4336750960372068
 30
0.0
 10
1.222174318072198
 20
-0.4414408479539008
 30
0.0
 10
1.22176172241433
 20
-0.4463702447806964
 30
0.0
 10
1.221557189227532
 20
-0.4488138605162208
 30
0.0
  0
SPLINE
  5
B1
330
1F
100
AcDbEntity
  8
0
  6
Continuous
 62
     7
370
    25
100
AcDbSpline
210
0.0
220
0.0
230
1.0
 70
     8
 71
     3
 72
    11
 73
     7
 74
     0
 42
0.00000001
 43
0.00000001
 40
0.0
 40
0.0
 40
0.0
 40
0.0
 40
0.2566195288804998
 40
0.5214299930849458
 40
0.7457738339972589
 40
1.0
 40
1.0
 40
1.0
 40
1.0
 10
1.221557189227532
 20
-0.4488138605162208
 30
0.0
 10
1.221890890378287
 20
-0.4515826505210595
 30
0.0
 10
1.222568943952344
 20
-0.4572086064230714
 30
0.0
 10
1.227436622529251
 20
-0.4613484097692041
 30
0.0
 10
1.233974142779891
 20
-0.4619298307433505
 30
0.0
 10
1.238759240321528
 20
-0.4596394607698548
 30
0.0
 10
1.241301181906629
 20
-0.4584227694421995
 30
0.0
  0
SPLINE
  5
B2
330
1F
100
AcDbEntity
  8
0
  6
Continuous
 62
     7
370
    25
100
AcDbSpline
210
0.0
220
0.0
230
1.0
 70
     8
 71
     3
 72
    10
 73
     6
 74
     0
 42
0.00000001
 43
0.00000001
 40
0.0
 40
0.0
 40
0.0
 40
0.0
 40
0.2962085828496009
 40
0.5796975449371414
 40
1.0
 40
1.0
 40
1.0
 40
1.0
 10
1.241301181906629
 20
-0.4584227694421996
 30
0.0
 10
1.243150899008965
 20
-0.4571737638859533
 30
0.0
 10
1.246770903712194
 20
-0.4547293868608067
 30
0.0
 10
1.252657089482943
 20
-0.4483845791770621
 30
0.0
 10
1.255597857789754
 20
-0.4428279602420441
 30
0.0
 10
1.257354077188007
 20
-0.4395095614617733
 30
0.0
  0
SPLINE
  5
B4
330
1F
100
AcDbEntity
  8
0
  6
Continuous
 62
     7
370
    25
100
AcDbSpline
210
0.0
220
0.0
230
1.0
 70
     8
 71
     3
 72
    11
 73
     7
 74
     0
 42
0.00000001
 43
0.00000001
 40
0.0
 40
0.0
 40
0.0
 40
0.0
 40
0.2762296260089585
 40
0.5460777759036197
 40
0.7643139849127993
 40
1.0
 40
1.0
 40
1.0
 40
1.0
 10
1.250609849843847
 20
-0.4389536808778906
 30
0.0
 10
1.249994618664658
 20
-0.4402633058521416
 30
0.0
 10
1.248778369419954
 20
-0.4428523007530131
 30
0.0
 10
1.246413036712827
 20
-0.4461237659556084
 30
0.0
 10
1.243868746445213
 20
-0.448697409720094
 30
0.0
 10
1.242178693253208
 20
-0.4497899109966381
 30
0.0
 10
1.241301181906629
 20
-0.4503571607559089
 30
0.0
  0
SPLINE
  5
B5
330
1F
100
AcDbEntity
  8
0
  6
Continuous
 62
     7
370
    25
100
AcDbSpline
210
0.0
220
0.0
230
1.0
 70
     8
 71
     3
 72
    11
 73
     7
 74
     0
 42
0.00000001
 43
0.00000001
 40
0.0
 40
0.0
 40
0.0
 40
0.0
 40
0.2949917349910183
 40
0.5676807441788861
 40
0.7799905298972427
 40
1.0
 40
1.0
 40
1.0
 40
1.0
 10
1.241301181906629
 20
-0.4503571607559087
 30
0.0
 10
1.23952264954842
 20
-0.4511489846895294
 30
0.0
 10
1.236100050021404
 20
-0.4526727670419743
 30
0.0
 10
1.232279368329343
 20
-0.451412956977093
 30
0.0
 10
1.230060385125062
 20
-0.4484274680107783
 30
0.0
 10
1.22980482892615
 20
-0.4455778586596847
 30
0.0
 10
1.229674775075559
 20
-0.4441276779543556
 30
0.0
  0
SPLINE
  5
B6
330
1F
100
AcDbEntity
  8
0
  6
Continuous
 62
     7
370
    25
100
AcDbSpline
210
0.0
220
0.0
230
1.0
 70
     8
 71
     3
 72
    11
 73
     7
 74
     0
 42
0.00000001
 43
0.00000001
 40
0.0
 40
0.0
 40
0.0
 40
0.0
 40
0.2782824273692244
 40
0.5471447437463041
 40
0.764996858435842
 40
0.9999999999999999
 40
0.9999999999999999
 40
0.9999999999999999
 40
0.9999999999999999
 10
1.229674775075559
 20
-0.4441276779543556
 30
0.0
 10
1.229880000692446
 20
-0.4420780186248808
 30
0.0
 10
1.230283504854111
 20
-0.4380480827816641
 30
0.0
 10
1.233295832175949
 20
-0.432048200182771
 30
0.0
 10
1.237104683924412
 20
-0.4273204231828309
 30
0.0
 10
1.239817814552211
 20
-0.4254707685580552
 30
0.0
 10
1.241225757183331
 20
-0.4245109151796781
 30
0.0
  0
SPLINE
  5
BA
330
1F
100
AcDbEntity
  8
0
  6
Continuous
 62
     7
370
    25
100
AcDbSpline
210
0.0
220
0.0
230
1.0
 70
     8
 71
     3
 72
    11
 73
     7
 74
     0
 42
0.00000001
 43
0.00000001
 40
0.0
 40
0.0
 40
0.0
 40
0.0
 40
0.1891337172582864
 40
0.3509647071663908
 40
0.5119037176717547
 40
1.0
 40
1.0
 40
1.0
 40
1.0
 10
1.26485726581057
 20
-0.4282429095729026
 30
0.0
 10
1.264913689803889
 20
-0.4296051734505377
 30
0.0
 10
1.265018392606643
 20
-0.4321330492297923
 30
0.0
 10
1.266274827465388
 20
-0.4349662665194555
 30
0.0
 10
1.269768400732981
 20
-0.4374519466223974
 30
0.0
 10
1.273588689006223
 20
-0.4372468320661896
 30
0.0
 10
1.276461673764034
 20
-0.4370925790487623
 30
0.0
  0
SPLINE
  5
BD
330
1F
100
AcDbEntity
  8
0
  6
Continuous
 62
     7
370
    25
100
AcDbSpline
210
0.0
220
0.0
230
1.0
 70
     8
 71
     3
 72
    11
 73
     7
 74
     0
 42
0.00000001
 43
0.00000001
 40
0.0
 40
0.0
 40
0.0
 40
0.0
 40
0.2572943322491097
 40
0.5007434440620833
 40
0.7229154403371841
 40
1.0
 40
1.0
 40
1.0
 40
1.0
 10
1.275729425408432
 20
-0.4281414085062382
 30
0.0
 10
1.275154430673422
 20
-0.4280487218487429
 30
0.0
 10
1.274035382144799
 20
-0.4278683360793125
 30
0.0
 10
1.273027886716311
 20
-0.4265082744877891
 30
0.0
 10
1.27259428635542
 20
-0.4245488773043398
 30
0.0
 10
1.272562142084492
 20
-0.4230531329349974
 30
0.0
 10
1.272544302196263
 20
-0.4222230032851851
 30
0.0
  0
SPLINE
  5
CC
330
1F
100
AcDbEntity
  8
0
  6
Continuous
 62
     7
370
    25
100
AcDbSpline
210
0.0
220
0.0
230
1.0
 70
     8
 71
     3
 72
    10
 73
     6
 74
     0
 42
0.00000001
 43
0.00000001
 40
0.0
 40
0.0
 40
0.0
 40
0.0
 40
0.2410611250516658
 40
0.5098945677042654
 40
1.0
 40
1.0
 40
1.0
 40
1.0
 10
1.311971004966827
 20
-0.3815275869483996
 30
0.0
 10
1.311299602931292
 20
-0.3809941900064309
 30
0.0
 10
1.309879447563678
 20
-0.3798659442012158
 30
0.0
 10
1.306010675565857
 20
-0.3796385790187861
 30
0.0
 10
1.302727325789999
 20
-0.3811694058021299
 30
0.0
 10
1.300607013319004
 20
-0.3821579788574653
 30
0.0
  0
SPLINE
  5
CD
330
1F
100
AcDbEntity
  8
0
  6
Continuous
 62
     7
370
    25
100
AcDbSpline
210
0.0
220
0.0
230
1.0
 70
     8
 71
     3
 72
    12
 73
     8
 74
     0
 42
0.00000001
 43
0.00000001
 40
0.0
 40
0.0
 40
0.0
 40
0.0
 40
0.2110205032316294
 40
0.4053859308270105
 40
0.5911855440877276
 40
0.8013643352513731
 40
1.0
 40
1.0
 40
1.0
 40
1.0
 10
1.300607013319004
 20
-0.3821579788574653
 30
0.0
 10
1.298558840724904
 20
-0.383544478835783
 30
0.0
 10
1.294624150299859
 20
-0.3862080474260109
 30
0.0
 10
1.289442601801552
 20
-0.3923467379711148
 30
0.0
 10
1.285316204502699
 20
-0.399329009961814
 30
0.0
 10
1.282328986650476
 20
-0.4069389623222216
 30
0.0
 10
1.281882782382348
 20
-0.4117676305103641
 30
0.0
 10
1.28166597967361
 20
-0.414113794403375
 30
0.0
  0
SPLINE
  5
CE
330
1F
100
AcDbEntity
  8
0
  6
Continuous
 62
     7
370
    25
100
AcDbSpline
210
0.0
220
0.0
230
1.0
 70
     8
 71
     3
 72
    11
 73
     7
 74
     0
 42
0.00000001
 43
0.00000001
 40
0.0
 40
0.0
 40
0.0
 40
0.0
 40
0.2616092365250524
 40
0.5300129691218897
 40
0.7522464891632211
 40
1.0
 40
1.0
 40
1.0
 40
1.0
 10
1.28166597967361
 20
-0.4141137944033751
 30
0.0
 10
1.281979258752516
 20
-0.4168480668713617
 30
0.0
 10
1.282613953371788
 20
-0.4223876261330892
 30
0.0
 10
1.287114055323877
 20
-0.4267395707409942
 30
0.0
 10
1.293265510093956
 20
-0.4276688593280846
 30
0.0
 10
1.297812511733921
 20
-0.4255386711245827
 30
0.0
 10
1.300209462173123
 20
-0.4244157431042614
 30
0.0
  0
SPLINE
  5
CF
330
1F
100
AcDbEntity
  8
0
  6
Continuous
 62
     7
370
    25
100
AcDbSpline
210
0.0
220
0.0
230
1.0
 70
     8
 71
     3
 72
    10
 73
     6
 74
     0
 42
0.00000001
 43
0.00000001
 40
0.0
 40
0.0
 40
0.0
 40
0.0
 40
0.3026245345859515
 40
0.5881187255952943
 40
0.9999999999999999
 40
0.9999999999999999
 40
0.9999999999999999
 40
0.9999999999999999
 10
1.300209462173123
 20
-0.4244157431042614
 30
0.0
 10
1.301540362735919
 20
-0.4235436374873266
 30
0.0
 10
1.304126826995853
 20
-0.4218487926039864
 30
0.0
 10
1.308387910701542
 20
-0.4177060145172211
 30
0.0
 10
1.310640556046102
 20
-0.4139299073987106
 30
0.0
 10
1.311971004966827
 20
-0.4116996772151217
 30
0.0
  0
SPLINE
  5
D1
330
1F
100
AcDbEntity
  8
0
  6
Continuous
 62
     7
370
    25
100
AcDbSpline
210
0.0
220
0.0
230
1.0
 70
     8
 71
     3
 72
    11
 73
     7
 74
     0
 42
0.00000001
 43
0.00000001
 40
0.0
 40
0.0
 40
0.0
 40
0.0
 40
0.2570116651891883
 40
0.5218836869694545
 40
0.7461091081710738
 40
1.0
 40
1.0
 40
1.0
 40
1.0
 10
1.141066438650837
 20
-0.4952801817606894
 30
0.0
 10
1.140732521106033
 20
-0.4925060859040792
 30
0.0
 10
1.140054473596797
 20
-0.4868730521949337
 30
0.0
 10
1.135182514266073
 20
-0.4827314976779395
 30
0.0
 10
1.1286464418371
 20
-0.4821513517317116
 30
0.0
 10
1.123864768512109
 20
-0.4844397497148781
 30
0.0
 10
1.121325588668565
 20
-0.4856549423133545
 30
0.0
  0
SPLINE
  5
D2
330
1F
100
AcDbEntity
  8
0
  6
Continuous
 62
     7
370
    25
100
AcDbSpline
210
0.0
220
0.0
230
1.0
 70
     8
 71
     3
 72
    12
 73
     8
 74
     0
 42
0.00000001
 43
0.00000001
 40
0.0
 40
0.0
 40
0.0
 40
0.0
 40
0.2179240638193452
 40
0.4122366753241072
 40
0.5933579700612315
 40
0.7984125883903055
 40
1.0
 40
1.0
 40
1.0
 40
1.0
 10
1.121325588668565
 20
-0.4856549423133546
 30
0.0
 10
1.119148142522037
 20
-0.4870945095033763
 30
0.0
 10
1.11502917032406
 20
-0.4898176708739911
 30
0.0
 10
1.109562639446487
 20
-0.495935547351596
 30
0.0
 10
1.105240942978363
 20
-0.5029415663138073
 30
0.0
 10
1.102188544771784
 20
-0.5107074127416965
 30
0.0
 10
1.101776455639565
 20
-0.5156363055170541
 30
0.0
 10
1.101572167898995
 20
-0.5180797389635073
 30
0.0
  0
SPLINE
  5
D3
330
1F
100
AcDbEntity
  8
0
  6
Continuous
 62
     7
370
    25
100
AcDbSpline
210
0.0
220
0.0
230
1.0
 70
     8
 71
     3
 72
    11
 73
     7
 74
     0
 42
0.00000001
 43
0.00000001
 40
0.0
 40
0.0
 40
0.0
 40
0.0
 40
0.2565249980642854
 40
0.5212366883737884
 40
0.7455904172339797
 40
1.0
 40
1.0
 40
1.0
 40
1.0
 10
1.101572167898995
 20
-0.5180797389635072
 30
0.0
 10
1.101905459376223
 20
-0.5208487176575356
 30
0.0
 10
1.102582678934411
 20
-0.5264750437292393
 30
0.0
 10
1.107450376808224
 20
-0.5306163991098525
 30
0.0
 10
1.113992300314134
 20
-0.53119469244396
 30
0.0
 10
1.11878095172846
 20
-0.5289016844925044
 30
0.0
 10
1.121325588668565
 20
-0.5276832051687076
 30
0.0
  0
SPLINE
  5
D4
330
1F
100
AcDbEntity
  8
0
  6
Continuous
 62
     7
370
    25
100
AcDbSpline
210
0.0
220
0.0
230
1.0
 70
     8
 71
     3
 72
    12
 73
     8
 74
     0
 42
0.00000001
 43
0.00000001
 40
0.0
 40
0.0
 40
0.0
 40
0.0
 40
0.217665557565956
 40
0.4120361217300911
 40
0.5933651737506662
 40
0.798579511322516
 40
1.0
 40
1.0
 40
1.0
 40
1.0
 10
1.121325588668565
 20
-0.5276832051687078
 30
0.0
 10
1.123498253327896
 20
-0.52624576421937
 30
0.0
 10
1.127611059828205
 20
-0.5235247200605958
 30
0.0
 10
1.133069787626689
 20
-0.5174082710960238
 30
0.0
 10
1.137389485605209
 20
-0.510405169075542
 30
0.0
 10
1.140446471112463
 20
-0.502645222563887
 30
0.0
 10
1.140861072195717
 20
-0.4977198777575713
 30
0.0
 10
1.141066438650837
 20
-0.4952801817606894
 30
0.0
  0
SPLINE
  5
D9
330
1F
100
AcDbEntity
  8
0
  6
Continuous
 62
     7
370
    25
100
AcDbSpline
210
0.0
220
0.0
230
1.0
 70
     8
 71
     3
 72
    12
 73
     8
 74
     0
 42
0.00000001
 43
0.00000001
 40
0.0
 40
0.0
 40
0.0
 40
0.0
 40
0.2128760539457927
 40
0.4024603247955801
 40
0.5789286130004669
 40
0.7836719793651374
 40
1.0
 40
1.0
 40
1.0
 40
1.0
 10
1.064629766952997
 20
-0.5431440754678839
 30
0.0
 10
1.066437203935467
 20
-0.5419686203497267
 30
0.0
 10
1.06985431761044
 20
-0.5397463222571629
 30
0.0
 10
1.074462130662372
 20
-0.534851385876587
 30
0.0
 10
1.078204768962804
 20
-0.5290659838220523
 30
0.0
 10
1.080859928532397
 20
-0.5223326468691917
 30
0.0
 10
1.081176728123737
 20
-0.5180103290716478
 30
0.0
 10
1.0813394858666
 20
-0.5157897116595732
 30
0.0
  0
SPLINE
  5
DA
330
1F
100
AcDbEntity
  8
0
  6
Continuous
 62
     7
370
    25
100
AcDbSpline
210
0.0
220
0.0
230
1.0
 70
     8
 71
     3
 72
    11
 73
     7
 74
     0
 42
0.00000001
 43
0.00000001
 40
0.0
 40
0.0
 40
0.0
 40
0.0
 40
0.2729158426805461
 40
0.5331769732588509
 40
0.7515723761485779
 40
1.0
 40
1.0
 40
1.0
 40
1.0
 10
1.0813394858666
 20
-0.5157897116595732
 30
0.0
 10
1.081078671012065
 20
-0.5132462141245475
 30
0.0
 10
1.080569134909814
 20
-0.5082771573490353
 30
0.0
 10
1.076290384690614
 20
-0.5048230776533857
 30
0.0
 10
1.070708452070018
 20
-0.5047327557321925
 30
0.0
 10
1.06674107338594
 20
-0.5066852808997715
 30
0.0
 10
1.064629766952998
 20
-0.5077243495834178
 30
0.0
  0
SPLINE
  5
E0
330
1F
100
AcDbEntity
  8
0
  6
Continuous
 62
     7
370
    25
100
AcDbSpline
210
0.0
220
0.0
230
1.0
 70
     8
 71
     3
 72
    10
 73
     6
 74
     0
 42
0.00000001
 43
0.00000001
 40
0.0
 40
0.0
 40
0.0
 40
0.0
 40
0.0070604728943395
 40
0.5035302364471408
 40
1.0
 40
1.0
 40
1.0
 40
1.0
 10
0.6566214573783463
 20
0.8823586246467154
 30
0.0
 10
0.6566100428119317
 20
0.8823259964439277
 30
0.0
 10
0.6557959926184473
 20
0.8799990578789814
 30
0.0
 10
0.6583819130798235
 20
0.8750712394704796
 30
0.0
 10
0.6632876771692521
 20
0.8713712498053611
 30
0.0
 10
0.6657405592139666
 20
0.8695212549728016
 30
0.0
  0
SPLINE
  5
E7
330
1F
100
AcDbEntity
  8
0
  6
Continuous
 62
     7
370
    25
100
AcDbSpline
210
0.0
220
0.0
230
1.0
 70
     8
 71
     3
 72
    45
 73
    41
 74
     0
 42
0.00000001
 43
0.00000001
 40
0.0
 40
0.0
 40
0.0
 40
0.0
 40
0.0294088271085364
 40
0.0565975515452714
 40
0.084611736461375
 40
0.1125370286537049
 40
0.1412674652976719
 40
0.1604936048055807
 40
0.1792893484966318
 40
0.1976579085779314
 40
0.2156027266616973
 40
0.2331274940124239
 40
0.2502361737795259
 40
0.2727562963474586
 40
0.2945950207486805
 40
0.3157650825607737
 40
0.3362804626801055
 40
0.3561565235677915
 40
0.3754101580828342
 40
0.4022247017367638
 40
0.4280703927975969
 40
0.4530175356239901
 40
0.4771442908499586
 40
0.5005370438733215
 40
0.532164982846193
 40
0.5631823209334423
 40
0.5942825104472864
 40
0.6256273684103865
 40
0.6500748567136257
 40
0.6752229645502812
 40
0.700047100320349
 40
0.7247194085215434
 40
0.7504836967064111
 40
0.78507792416784
 40
0.8210277858407631
 40
0.8563531617570646
 40
0.8920448866608627
 40
0.9281001483821824
 40
0.962107841232354
 40
1.0
 40
1.0
 40
1.0
 40
1.0
 10
-0.3949201509985861
 20
0.3967724395104109
 30
0.0
 10
-0.3786679918229462
 20
0.3880558426631823
 30
0.0
 10
-0.3473905657198756
 20
0.3712806738494226
 30
0.0
 10
-0.3006572882197344
 20
0.3469477148669892
 30
0.0
 10
-0.2547769312335125
 20
0.3237535353030034
 30
0.0
 10
-0.2080905176947414
 20
0.3009076510216136
 30
0.0
 10
-0.1663034322658205
 20
0.281212234820889
 30
0.0
 10
-0.1296000577576101
 20
0.2645603355824582
 30
0.0
 10
-0.0986388259365569
 20
0.2509754385282394
 30
0.0
 10
-0.068432255667712
 20
0.2381954952904547
 30
0.0
 10
-0.0389802943431165
 20
0.2262202463699234
 30
0.0
 10
-0.0102829118117259
 20
0.2150499311787587
 30
0.0
 10
0.0208299050574485
 20
0.2035078148301197
 30
0.0
 10
0.0541731509419801
 20
0.1918961320896752
 30
0.0
 10
0.0895450516942628
 20
0.1805762324319169
 30
0.0
 10
0.1236347039833215
 20
0.1707003212846529
 30
0.0
 10
0.1564421352818104
 20
0.1622685501772486
 30
0.0
 10
0.187967564007418
 20
0.1552815944943581
 30
0.0
 10
0.2224845516218959
 20
0.1489538519236729
 30
0.0
 10
0.2596046616184346
 20
0.1440481465599771
 30
0.0
 10
0.2988384908800655
 20
0.1415338191482607
 30
0.0
 10
0.3357522660624904
 20
0.1419955137231474
 30
0.0
 10
0.3703453390056938
 20
0.1454372434603086
 30
0.0
 10
0.4066894338237895
 20
0.1526705805231734
 30
0.0
 10
0.4440348223408696
 20
0.1652840849873046
 30
0.0
 10
0.4814623299326481
 20
0.185231479224495
 30
0.0
 10
0.5150274766441331
 20
0.2113659741661898
 30
0.0
 10
0.5424419705960335
 20
0.2412213337490478
 30
0.0
 10
0.5647043130949677
 20
0.2732568806829029
 30
0.0
 10
0.5825824310514819
 20
0.3057807135640369
 30
0.0
 10
0.5980443482224214
 20
0.341081274100005
 30
0.0
 10
0.6113282630594519
 20
0.3789823011476357
 30
0.0
 10
0.623970042340951
 20
0.4240046966563614
 30
0.0
 10
0.6354470180535234
 20
0.4774681113614921
 30
0.0
 10
0.6450606765014917
 20
0.5386287892650695
 30
0.0
 10
0.6523003190745984
 20
0.6022552557422421
 30
0.0
 10
0.6576177670159749
 20
0.6672899234793739
 30
0.0
 10
0.6613621205063932
 20
0.7325252767064854
 30
0.0
 10
0.6640124986333603
 20
0.7998656985425984
 30
0.0
 10
0.6651402896654004
 20
0.8451083830623157
 30
0.0
 10
0.6657346502361274
 20
0.868951867385596
 30
0.0
  0
SPLINE
  5
EA
330
1F
100
AcDbEntity
  8
0
  6
Continuous
 62
     7
370
    25
100
AcDbSpline
210
0.0
220
0.0
230
1.0
 70
     8
 71
     3
 72
    12
 73
     8
 74
     0
 42
0.00000001
 43
0.00000001
 40
0.0
 40
0.0
 40
0.0
 40
0.0
 40
0.2137049378439881
 40
0.4274293698990215
 40
0.643447196705655
 40
0.8568368045968621
 40
1.0
 40
1.0
 40
1.0
 40
1.0
 10
-0.3728254856803631
 20
0.4350650437579686
 30
0.0
 10
-0.375299059280064
 20
0.4333576687772399
 30
0.0
 10
-0.3802464321193895
 20
0.4299427630686644
 30
0.0
 10
-0.3868673084059144
 20
0.4217339140981442
 30
0.0
 10
-0.3918631105398654
 20
0.4123864279567738
 30
0.0
 10
-0.3945380329981063
 20
0.4036521090419663
 30
0.0
 10
-0.3948106899635966
 20
0.398743397342137
 30
0.0
 10
-0.3949201672754223
 20
0.3967724498533855
 30
0.0
  0
SPLINE
  5
ED
330
1F
100
AcDbEntity
  8
0
  6
Continuous
 62
     7
370
    25
100
AcDbSpline
210
0.0
220
0.0
230
1.0
 70
     8
 71
     3
 72
    10
 73
     6
 74
     0
 42
0.00000001
 43
0.00000001
 40
0.0
 40
0.0
 40
0.0
 40
0.0
 40
0.2695261923272787
 40
0.7076879159016114
 40
1.0
 40
1.0
 40
1.0
 40
1.0
 10
0.2698288984276958
 20
0.7986852381711204
 30
0.0
 10
0.2687502764162671
 20
0.7992996019128626
 30
0.0
 10
0.265918166643475
 20
0.8009127208169842
 30
0.0
 10
0.2604582502255116
 20
0.800178500139691
 30
0.0
 10
0.2563718685343767
 20
0.7981575703046994
 30
0.0
 10
0.2547366302328653
 20
0.7973488592931914
 30
0.0
  0
SPLINE
  5
EF
330
1F
100
AcDbEntity
  8
0
  6
Continuous
 62
     7
370
    25
100
AcDbSpline
210
0.0
220
0.0
230
1.0
 70
     8
 71
     3
 72
     9
 73
     5
 74
     0
 42
0.00000001
 43
0.00000001
 40
0.0
 40
0.0
 40
0.0
 40
0.0
 40
0.5895322430277138
 40
0.9999999999999999
 40
0.9999999999999999
 40
0.9999999999999999
 40
0.9999999999999999
 10
1.07857735000259
 20
-0.5141951645661694
 30
0.0
 10
1.078378935279537
 20
-0.5115530934747338
 30
0.0
 10
1.078042372308809
 20
-0.5070714537973741
 30
0.0
 10
1.07526298287946
 20
-0.5053394614173733
 30
0.0
 10
1.074122133134642
 20
-0.5046285343900612
 30
0.0
  0
SPLINE
  5
F0
330
1F
100
AcDbEntity
  8
0
  6
Continuous
 62
     7
370
    25
100
AcDbSpline
210
0.0
220
0.0
230
1.0
 70
     8
 71
     3
 72
    12
 73
     8
 74
     0
 42
0.00000001
 43
0.00000001
 40
0.0
 40
0.0
 40
0.0
 40
0.0
 40
0.2128760539457927
 40
0.4024603247955801
 40
0.5789286130004669
 40
0.7836719793651374
 40
1.0
 40
1.0
 40
1.0
 40
1.0
 10
1.061867631088988
 20
-0.5415495283744801
 30
0.0
 10
1.063675068071457
 20
-0.5403740732563228
 30
0.0
 10
1.06709218174643
 20
-0.5381517751637592
 30
0.0
 10
1.071699994798362
 20
-0.5332568387831835
 30
0.0
 10
1.075442633098794
 20
-0.5274714367286486
 30
0.0
 10
1.078097792668387
 20
-0.5207380997757882
 30
0.0
 10
1.078414592259727
 20
-0.5164157819782441
 30
0.0
 10
1.07857735000259
 20
-0.5141951645661694
 30
0.0
  0
SPLINE
  5
F6
330
1F
100
AcDbEntity
  8
0
  6
Continuous
 62
     7
370
    25
100
AcDbSpline
210
0.0
220
0.0
230
1.0
 70
     8
 71
     3
 72
    10
 73
     6
 74
     0
 42
0.00000001
 43
0.00000001
 40
0.0
 40
0.0
 40
0.0
 40
0.0
 40
0.1196519245034023
 40
0.5151395335113531
 40
1.0
 40
1.0
 40
1.0
 40
1.0
 10
1.067877779834789
 20
-0.5145656605944371
 30
0.0
 10
1.06770477785701
 20
-0.514389489601963
 30
0.0
 10
1.066959949401474
 20
-0.5136310175317645
 30
0.0
 10
1.064507948378171
 20
-0.5139708580686435
 30
0.0
 10
1.062377750016845
 20
-0.515007231658009
 30
0.0
 10
1.061204522063114
 20
-0.515578024729503
 30
0.0
  0
SPLINE
  5
F8
330
1F
100
AcDbEntity
  8
0
  6
Continuous
 62
     7
370
    25
100
AcDbSpline
210
0.0
220
0.0
230
1.0
 70
     8
 71
     3
 72
    12
 73
     8
 74
     0
 42
0.00000001
 43
0.00000001
 40
0.0
 40
0.0
 40
0.0
 40
0.0
 40
0.2367689276018453
 40
0.4344953719688416
 40
0.6087365171366811
 40
0.8027735137647887
 40
0.9999999999999999
 40
0.9999999999999999
 40
0.9999999999999999
 40
0.9999999999999999
 10
1.063966657927125
 20
-0.5344669062186131
 30
0.0
 10
1.064994988332251
 20
-0.5338086293105073
 30
0.0
 10
1.066882080555069
 20
-0.5326006233743272
 30
0.0
 10
1.069381888277848
 20
-0.5300183769498958
 30
0.0
 10
1.071293141287394
 20
-0.5270832439500505
 30
0.0
 10
1.072553558656725
 20
-0.5238195562955404
 30
0.0
 10
1.072698075547518
 20
-0.5217695808720559
 30
0.0
 10
1.072770923027083
 20
-0.5207362376970587
 30
0.0
  0
SPLINE
  5
FC
330
1F
100
AcDbEntity
  8
0
  6
Continuous
 62
     7
370
    25
100
AcDbSpline
210
0.0
220
0.0
230
1.0
 70
     8
 71
     3
 72
    11
 73
     7
 74
     0
 42
0.00000001
 43
0.00000001
 40
0.0
 40
0.0
 40
0.0
 40
0.0
 40
0.2502602273639635
 40
0.5009600246110437
 40
0.7251487655867461
 40
1.0
 40
1.0
 40
1.0
 40
1.0
 10
1.072770923027083
 20
-0.5207362376970587
 30
0.0
 10
1.072653801036711
 20
-0.519540817447668
 30
0.0
 10
1.072419351336904
 20
-0.5171478772515243
 30
0.0
 10
1.070311389922831
 20
-0.5154206884129338
 30
0.0
 10
1.06733105906681
 20
-0.5154732843566181
 30
0.0
 10
1.065161541386959
 20
-0.5165690615984508
 30
0.0
 10
1.063966657927124
 20
-0.5171725718229068
 30
0.0
  0
SPLINE
  5
107
330
1F
100
AcDbEntity
  8
0
  6
Continuous
 62
     7
370
    25
100
AcDbSpline
210
0.0
220
0.0
230
1.0
 70
     8
 71
     3
 72
    10
 73
     6
 74
     0
 42
0.00000001
 43
0.00000001
 40
0.0
 40
0.0
 40
0.0
 40
0.0
 40
0.244016103904632
 40
0.5436725374775375
 40
1.0
 40
1.0
 40
1.0
 40
1.0
 10
1.094722954839757
 20
-0.5063769403833199
 30
0.0
 10
1.094974696096516
 20
-0.5062603431712295
 30
0.0
 10
1.095535580422017
 20
-0.5060005623569892
 30
0.0
 10
1.096537332516137
 20
-0.5057661391027686
 30
0.0
 10
1.0972176963824
 20
-0.5058264109608706
 30
0.0
 10
1.097628378036186
 20
-0.5058627922967841
 30
0.0
  0
SPLINE
  5
108
330
1F
100
AcDbEntity
  8
0
  6
Continuous
 62
     7
370
    25
100
AcDbSpline
210
0.0
220
0.0
230
1.0
 70
     8
 71
     3
 72
    12
 73
     8
 74
     0
 42
0.00000001
 43
0.00000001
 40
0.0
 40
0.0
 40
0.0
 40
0.0
 40
0.2006360717816854
 40
0.3867418903986246
 40
0.5674352042097638
 40
0.7807258691714506
 40
1.0
 40
1.0
 40
1.0
 40
1.0
 10
1.089421225329194
 20
-0.5154545621985996
 30
0.0
 10
1.089466624681198
 20
-0.5147876792045792
 30
0.0
 10
1.0895541355214
 20
-0.5135022095106607
 30
0.0
 10
1.090280946855284
 20
-0.5114358947632708
 30
0.0
 10
1.091398731844226
 20
-0.5094520078675612
 30
0.0
 10
1.09292125624476
 20
-0.507608718764257
 30
0.0
 10
1.094116875826522
 20
-0.506791302157101
 30
0.0
 10
1.094722954839756
 20
-0.5063769403833198
 30
0.0
  0
SPLINE
  5
10F
330
1F
100
AcDbEntity
  8
0
  6
Continuous
 62
     7
370
    25
100
AcDbSpline
210
0.0
220
0.0
230
1.0
 70
     8
 71
     3
 72
    10
 73
     6
 74
     0
 42
0.00000001
 43
0.00000001
 40
0.0
 40
0.0
 40
0.0
 40
0.0
 40
0.1023090535992997
 40
0.5229768581245385
 40
1.0
 40
1.0
 40
1.0
 40
1.0
 10
1.104286194647438
 20
-0.5276482812721836
 30
0.0
 10
1.104602817727633
 20
-0.5279757136280088
 30
0.0
 10
1.106221311280884
 20
-0.5296494613431277
 30
0.0
 10
1.111362993745311
 20
-0.5294050669556883
 30
0.0
 10
1.116064907374142
 20
-0.5272394455716687
 30
0.0
 10
1.118563452804555
 20
-0.5260886580753039
 30
0.0
  0
SPLINE
  5
110
330
1F
100
AcDbEntity
  8
0
  6
Continuous
 62
     7
370
    25
100
AcDbSpline
210
0.0
220
0.0
230
1.0
 70
     8
 71
     3
 72
     9
 73
     5
 74
     0
 42
0.00000001
 43
0.00000001
 40
0.0
 40
0.0
 40
0.0
 40
0.0
 40
0.5501216196671428
 40
1.0
 40
1.0
 40
1.0
 40
1.0
 10
1.138304302786827
 20
-0.4936856346672856
 30
0.0
 10
1.138025152327229
 20
-0.4908247713127735
 30
0.0
 10
1.137517718244258
 20
-0.4856243515287935
 30
0.0
 10
1.134279793112814
 20
-0.4834767431439472
 30
0.0
 10
1.132823120599042
 20
-0.4825105805621832
 30
0.0
  0
SPLINE
  5
111
330
1F
100
AcDbEntity
  8
0
  6
Continuous
 62
     7
370
    25
100
AcDbSpline
210
0.0
220
0.0
230
1.0
 70
     8
 71
     3
 72
    12
 73
     8
 74
     0
 42
0.00000001
 43
0.00000001
 40
0.0
 40
0.0
 40
0.0
 40
0.0
 40
0.217665557565956
 40
0.4120361217300911
 40
0.5933651737506662
 40
0.798579511322516
 40
1.0
 40
1.0
 40
1.0
 40
1.0
 10
1.118563452804555
 20
-0.526088658075304
 30
0.0
 10
1.120736117463886
 20
-0.5246512171259662
 30
0.0
 10
1.124848923964195
 20
-0.521930172967192
 30
0.0
 10
1.130307651762679
 20
-0.51581372400262
 30
0.0
 10
1.134627349741199
 20
-0.5088106219821386
 30
0.0
 10
1.137684335248453
 20
-0.5010506754704831
 30
0.0
 10
1.138098936331707
 20
-0.4961253306641675
 30
0.0
 10
1.138304302786827
 20
-0.4936856346672856
 30
0.0
  0
SPLINE
  5
112
330
1F
100
AcDbEntity
  8
0
  6
Continuous
 62
     7
370
    25
100
AcDbSpline
210
0.0
220
0.0
230
1.0
 70
     8
 71
     3
 72
    10
 73
     6
 74
     0
 42
0.00000001
 43
0.00000001
 40
0.0
 40
0.0
 40
0.0
 40
0.0
 40
0.1206191238398962
 40
0.5443639598707081
 40
1.0
 40
1.0
 40
1.0
 40
1.0
 10
1.126788966785866
 20
-0.4913739702256865
 30
0.0
 10
1.126570679146497
 20
-0.4911527175046785
 30
0.0
 10
1.125585529197013
 20
-0.4901541858995245
 30
0.0
 10
1.122617171102661
 20
-0.4902880811095939
 30
0.0
 10
1.119946970968716
 20
-0.4915035090262492
 30
0.0
 10
1.118563452804555
 20
-0.4921332620468353
 30
0.0
  0
SPLINE
  5
113
330
1F
100
AcDbEntity
  8
0
  6
Continuous
 62
     7
370
    25
100
AcDbSpline
210
0.0
220
0.0
230
1.0
 70
     8
 71
     3
 72
    11
 73
     7
 74
     0
 42
0.00000001
 43
0.00000001
 40
0.0
 40
0.0
 40
0.0
 40
0.0
 40
0.294616474711005
 40
0.5672242596762851
 40
0.7796526051267701
 40
1.0
 40
1.0
 40
1.0
 40
1.0
 10
1.118563452804555
 20
-0.4921332620468353
 30
0.0
 10
1.116787327368768
 20
-0.4933934637865209
 30
0.0
 10
1.113367758125756
 20
-0.49581972660681
 30
0.0
 10
1.109549408400992
 20
-0.5014886869198529
 30
0.0
 10
1.10733032237984
 20
-0.50703880808019
 30
0.0
 10
1.107074933661213
 20
-0.5101864247000274
 30
0.0
 10
1.106944902715423
 20
-0.5117890309868819
 30
0.0
  0
SPLINE
  5
114
330
1F
100
AcDbEntity
  8
0
  6
Continuous
 62
     7
370
    25
100
AcDbSpline
210
0.0
220
0.0
230
1.0
 70
     8
 71
     3
 72
     9
 73
     5
 74
     0
 42
0.00000001
 43
0.00000001
 40
0.0
 40
0.0
 40
0.0
 40
0.0
 40
0.5734178730193042
 40
1.0
 40
1.0
 40
1.0
 40
1.0
 10
1.106944902715423
 20
-0.5117890309868819
 30
0.0
 10
1.107115445586337
 20
-0.5136589340801012
 30
0.0
 10
1.107412860227453
 20
-0.5169199121228215
 30
0.0
 10
1.109445194947214
 20
-0.5182271099871516
 30
0.0
 10
1.110312152614706
 20
-0.5187847372325022
 30
0.0
  0
SPLINE
  5
118
330
1F
100
AcDbEntity
  8
0
  6
Continuous
 62
     7
370
    25
100
AcDbSpline
210
0.0
220
0.0
230
1.0
 70
     8
 71
     3
 72
    11
 73
     7
 74
     0
 42
0.00000001
 43
0.00000001
 40
0.0
 40
0.0
 40
0.0
 40
0.0
 40
0.294616474711005
 40
0.5672242596762851
 40
0.7796526051267701
 40
1.0
 40
1.0
 40
1.0
 40
1.0
 10
1.121325588668565
 20
-0.4937278091402391
 30
0.0
 10
1.119549463232778
 20
-0.4949880108799247
 30
0.0
 10
1.116129893989766
 20
-0.4974142737002138
 30
0.0
 10
1.112311544265002
 20
-0.5030832340132565
 30
0.0
 10
1.110092458243849
 20
-0.5086333551735936
 30
0.0
 10
1.109837069525223
 20
-0.5117809717934312
 30
0.0
 10
1.109707038579433
 20
-0.5133835780802857
 30
0.0
  0
SPLINE
  5
119
330
1F
100
AcDbEntity
  8
0
  6
Continuous
 62
     7
370
    25
100
AcDbSpline
210
0.0
220
0.0
230
1.0
 70
     8
 71
     3
 72
    11
 73
     7
 74
     0
 42
0.00000001
 43
0.00000001
 40
0.0
 40
0.0
 40
0.0
 40
0.0
 40
0.2780480138867871
 40
0.5472940828818345
 40
0.7654382338634503
 40
1.0
 40
1.0
 40
1.0
 40
1.0
 10
1.132918997183183
 20
-0.4999835996049021
 30
0.0
 10
1.132710445627089
 20
-0.4981718594408401
 30
0.0
 10
1.132299944465686
 20
-0.4946057319305243
 30
0.0
 10
1.129264231271917
 20
-0.492105246114961
 30
0.0
 10
1.125448228437844
 20
-0.4917808385612554
 30
0.0
 10
1.122732629460658
 20
-0.4930633157139522
 30
0.0
 10
1.121325588668565
 20
-0.4937278091402391
 30
0.0
  0
SPLINE
  5
11A
330
1F
100
AcDbEntity
  8
0
  6
Continuous
 62
     7
370
    25
100
AcDbSpline
210
0.0
220
0.0
230
1.0
 70
     8
 71
     3
 72
    11
 73
     7
 74
     0
 42
0.00000001
 43
0.00000001
 40
0.0
 40
0.0
 40
0.0
 40
0.0
 40
0.2944353921664004
 40
0.5671062159693798
 40
0.7796530356180027
 40
1.0
 40
1.0
 40
1.0
 40
1.0
 10
1.121325588668565
 20
-0.5196175964824169
 30
0.0
 10
1.123097963694893
 20
-0.5183589833501655
 30
0.0
 10
1.126511700362433
 20
-0.5159347933587772
 30
0.0
 10
1.130320066586541
 20
-0.5102701439573574
 30
0.0
 10
1.132533900904919
 20
-0.5047274632456037
 30
0.0
 10
1.132789098985441
 20
-0.5015837691522101
 30
0.0
 10
1.132918997183183
 20
-0.4999835996049021
 30
0.0
  0
SPLINE
  5
11B
330
1F
100
AcDbEntity
  8
0
  6
Continuous
 62
     7
370
    25
100
AcDbSpline
210
0.0
220
0.0
230
1.0
 70
     8
 71
     3
 72
    11
 73
     7
 74
     0
 42
0.00000001
 43
0.00000001
 40
0.0
 40
0.0
 40
0.0
 40
0.0
 40
0.2775048169406946
 40
0.5467167690499561
 40
0.7650852150218828
 40
1.0
 40
1.0
 40
1.0
 40
1.0
 10
1.109707038579433
 20
-0.5133835780802857
 30
0.0
 10
1.109916451846689
 20
-0.5151924145932036
 30
0.0
 10
1.110329020342373
 20
-0.5187560329295781
 30
0.0
 10
1.113371497057788
 20
-0.5212487112265869
 30
0.0
 10
1.117194357459526
 20
-0.5215691916938875
 30
0.0
 10
1.119915402546686
 20
-0.520283768948562
 30
0.0
 10
1.121325588668565
 20
-0.519617596482417
 30
0.0
  0
SPLINE
  5
11F
330
1F
100
AcDbEntity
  8
0
  6
Continuous
 62
     7
370
    25
100
AcDbSpline
210
0.0
220
0.0
230
1.0
 70
     8
 71
     3
 72
    10
 73
     6
 74
     0
 42
0.00000001
 43
0.00000001
 40
0.0
 40
0.0
 40
0.0
 40
0.0
 40
0.0461134477821645
 40
0.4790896849611749
 40
1.0
 40
1.0
 40
1.0
 40
1.0
 10
1.151219164376398
 20
-0.4965322980954781
 30
0.0
 10
1.151134520413497
 20
-0.4965199861549687
 30
0.0
 10
1.150255122938997
 20
-0.4963920728458653
 30
0.0
 10
1.149334256113008
 20
-0.4943958024982043
 30
0.0
 10
1.149150889596362
 20
-0.4921643611521948
 30
0.0
 10
1.149050754512445
 20
-0.4909457877150938
 30
0.0
  0
SPLINE
  5
121
330
1F
100
AcDbEntity
  8
0
  6
Continuous
 62
     7
370
    25
100
AcDbSpline
210
0.0
220
0.0
230
1.0
 70
     8
 71
     3
 72
    12
 73
     8
 74
     0
 42
0.00000001
 43
0.00000001
 40
0.0
 40
0.0
 40
0.0
 40
0.0
 40
0.2479958014003098
 40
0.5206175998583552
 40
0.6692313133382263
 40
0.8258210920277297
 40
0.9999999999999999
 40
0.9999999999999999
 40
0.9999999999999999
 40
0.9999999999999999
 10
1.157697884772162
 20
-0.518737112001004
 30
0.0
 10
1.159742615186484
 20
-0.5172851176783708
 30
0.0
 10
1.164035117860525
 20
-0.5142369459150231
 30
0.0
 10
1.168934612107805
 20
-0.5079658463346928
 30
0.0
 10
1.172033905575048
 20
-0.5019661400317824
 30
0.0
 10
1.173734265000192
 20
-0.4967608983455332
 30
0.0
 10
1.173933448904925
 20
-0.4934857164584235
 30
0.0
 10
1.17403833681122
 20
-0.49176104411938
 30
0.0
  0
SPLINE
  5
122
330
1F
100
AcDbEntity
  8
0
  6
Continuous
 62
     7
370
    25
100
AcDbSpline
210
0.0
220
0.0
230
1.0
 70
     8
 71
     3
 72
     9
 73
     5
 74
     0
 42
0.00000001
 43
0.00000001
 40
0.0
 40
0.0
 40
0.0
 40
0.0
 40
0.4499430897486282
 40
0.9999999999999999
 40
0.9999999999999999
 40
0.9999999999999999
 40
0.9999999999999999
 10
1.149261810185741
 20
-0.5218374614786069
 30
0.0
 10
1.15048743240088
 20
-0.5216329992305289
 30
0.0
 10
1.153211381813735
 20
-0.5211785812102591
 30
0.0
 10
1.156105793579364
 20
-0.5196034976161612
 30
0.0
 10
1.157697884772162
 20
-0.5187371120010041
 30
0.0
  0
SPLINE
  5
124
330
1F
100
AcDbEntity
  8
0
  6
Continuous
 62
     7
370
    25
100
AcDbSpline
210
0.0
220
0.0
230
1.0
 70
     8
 71
     3
 72
    10
 73
     6
 74
     0
 42
0.00000001
 43
0.00000001
 40
0.0
 40
0.0
 40
0.0
 40
0.0
 40
0.3065668130916305
 40
0.569680863581186
 40
1.0
 40
1.0
 40
1.0
 40
1.0
 10
1.155840550960272
 20
-0.5045690473678015
 30
0.0
 10
1.157085542375249
 20
-0.5037929032447068
 30
0.0
 10
1.159399060193053
 20
-0.5023506256222561
 30
0.0
 10
1.163317420798944
 20
-0.4985267382001682
 30
0.0
 10
1.165363099075897
 20
-0.495054014585917
 30
0.0
 10
1.16663257178956
 20
-0.4928989700121659
 30
0.0
  0
SPLINE
  5
125
330
1F
100
AcDbEntity
  8
0
  6
Continuous
 62
     7
370
    25
100
AcDbSpline
210
0.0
220
0.0
230
1.0
 70
     8
 71
     3
 72
    10
 73
     6
 74
     0
 42
0.00000001
 43
0.00000001
 40
0.0
 40
0.0
 40
0.0
 40
0.0
 40
0.1117295065164753
 40
0.5471982188675358
 40
1.0
 40
1.0
 40
1.0
 40
1.0
 10
1.145762580217805
 20
-0.5056121973223233
 30
0.0
 10
1.14602950923244
 20
-0.5058288978188424
 30
0.0
 10
1.147336801154926
 20
-0.506890194242858
 30
0.0
 10
1.150862663751989
 20
-0.5068719737279027
 30
0.0
 10
1.154159809186058
 20
-0.5053466110960271
 30
0.0
 10
1.155840550960272
 20
-0.5045690473678015
 30
0.0
  0
SPLINE
  5
129
330
1F
100
AcDbEntity
  8
0
  6
Continuous
 62
     7
370
    25
100
AcDbSpline
210
0.0
220
0.0
230
1.0
 70
     8
 71
     3
 72
    10
 73
     6
 74
     0
 42
0.00000001
 43
0.00000001
 40
0.0
 40
0.0
 40
0.0
 40
0.0
 40
0.1022502147705198
 40
0.5231667601016751
 40
1.0
 40
1.0
 40
1.0
 40
1.0
 10
1.183159634756341
 20
-0.48211832752849
 30
0.0
 10
1.183475679746424
 20
-0.4824451228112653
 30
0.0
 10
1.185092734868303
 20
-0.484117182177495
 30
0.0
 10
1.190226230160824
 20
-0.4838773867707458
 30
0.0
 10
1.194922479707499
 20
-0.4817157131511935
 30
0.0
 10
1.197416858345684
 20
-0.4805675560003118
 30
0.0
  0
SPLINE
  5
12A
330
1F
100
AcDbEntity
  8
0
  6
Continuous
 62
     7
370
    25
100
AcDbSpline
210
0.0
220
0.0
230
1.0
 70
     8
 71
     3
 72
    10
 73
     6
 74
     0
 42
0.00000001
 43
0.00000001
 40
0.0
 40
0.0
 40
0.0
 40
0.0
 40
0.4532738130565271
 40
0.847536676343415
 40
1.0
 40
1.0
 40
1.0
 40
1.0
 10
1.215985482419628
 20
-0.4502239199797427
 30
0.0
 10
1.215780864176338
 20
-0.4477089375932199
 30
0.0
 10
1.215398266592179
 20
-0.4430063941161055
 30
0.0
 10
1.21308455510241
 20
-0.4388882698693805
 30
0.0
 10
1.211018040885408
 20
-0.4379660322448657
 30
0.0
 10
1.21044176041187
 20
-0.4377088515632147
 30
0.0
  0
SPLINE
  5
12D
330
1F
100
AcDbEntity
  8
0
  6
Continuous
 62
     7
370
    25
100
AcDbSpline
210
0.0
220
0.0
230
1.0
 70
     8
 71
     3
 72
     9
 73
     5
 74
     0
 42
0.00000001
 43
0.00000001
 40
0.0
 40
0.0
 40
0.0
 40
0.0
 40
0.4765871586627464
 40
1.0
 40
1.0
 40
1.0
 40
1.0
 10
1.189022560280672
 20
-0.4739482994773601
 30
0.0
 10
1.188329795262776
 20
-0.4734487326594987
 30
0.0
 10
1.186876199618615
 20
-0.4724005155416409
 30
0.0
 10
1.186476026059919
 20
-0.4701425770145029
 30
0.0
 10
1.186266570080535
 20
-0.4689607429944488
 30
0.0
  0
SPLINE
  5
12E
330
1F
100
AcDbEntity
  8
0
  6
Continuous
 62
     7
370
    25
100
AcDbSpline
210
0.0
220
0.0
230
1.0
 70
     8
 71
     3
 72
     9
 73
     5
 74
     0
 42
0.00000001
 43
0.00000001
 40
0.0
 40
0.0
 40
0.0
 40
0.0
 40
0.5877444089940306
 40
1.0
 40
1.0
 40
1.0
 40
1.0
 10
1.197416858345684
 20
-0.4805675560003118
 30
0.0
 10
1.201004305100822
 20
-0.4778654706123784
 30
0.0
 10
1.207108058195263
 20
-0.4732680889162119
 30
0.0
 10
1.211380461236587
 20
-0.4657703415640121
 30
0.0
 10
1.213141783277404
 20
-0.4626793532981176
 30
0.0
  0
SPLINE
  5
12F
330
1F
100
AcDbEntity
  8
0
  6
Continuous
 62
     7
370
    25
100
AcDbSpline
210
0.0
220
0.0
230
1.0
 70
     8
 71
     3
 72
    10
 73
     6
 74
     0
 42
0.00000001
 43
0.00000001
 40
0.0
 40
0.0
 40
0.0
 40
0.0
 40
0.2744062033658911
 40
0.6301250518690071
 40
1.0
 40
1.0
 40
1.0
 40
1.0
 10
1.203908598161496
 20
-0.4460310775288958
 30
0.0
 10
1.203374185607146
 20
-0.4456908400128656
 30
0.0
 10
1.20214700220386
 20
-0.4449095450574068
 30
0.0
 10
1.19945043426654
 20
-0.4452284746147511
 30
0.0
 10
1.197420713681259
 20
-0.4462194234592646
 30
0.0
 10
1.196386053793477
 20
-0.4467245644267934
 30
0.0
  0
SPLINE
  5
130
330
1F
100
AcDbEntity
  8
0
  6
Continuous
 62
     7
370
    25
100
AcDbSpline
210
0.0
220
0.0
230
1.0
 70
     8
 71
     3
 72
    11
 73
     7
 74
     0
 42
0.00000001
 43
0.00000001
 40
0.0
 40
0.0
 40
0.0
 40
0.0
 40
0.2797231536910623
 40
0.5474136834722144
 40
0.7642441735155496
 40
1.0
 40
1.0
 40
1.0
 40
1.0
 10
1.196386053793477
 20
-0.4467245644267934
 30
0.0
 10
1.195073443495913
 20
-0.447622582162822
 30
0.0
 10
1.192504686392788
 20
-0.4493799883346604
 30
0.0
 10
1.189391432203041
 20
-0.4534459012022845
 30
0.0
 10
1.18724807316851
 20
-0.4577536408307548
 30
0.0
 10
1.186602732952519
 20
-0.4604634316205213
 30
0.0
 10
1.186266570080535
 20
-0.4618749832824066
 30
0.0
  0
SPLINE
  5
135
330
1F
100
AcDbEntity
  8
0
  6
Continuous
 62
     7
370
    25
100
AcDbSpline
210
0.0
220
0.0
230
1.0
 70
     8
 71
     3
 72
    11
 73
     7
 74
     0
 42
0.00000001
 43
0.00000001
 40
0.0
 40
0.0
 40
0.0
 40
0.0
 40
0.2797231536910623
 40
0.5474136834722144
 40
0.7642441735155496
 40
1.0
 40
1.0
 40
1.0
 40
1.0
 10
1.199148189657486
 20
-0.4483191115201972
 30
0.0
 10
1.197835579359923
 20
-0.4492171292562256
 30
0.0
 10
1.195266822256797
 20
-0.450974535428064
 30
0.0
 10
1.192153568067051
 20
-0.455040448295688
 30
0.0
 10
1.19001020903252
 20
-0.4593481879241586
 30
0.0
 10
1.189364868816529
 20
-0.4620579787139248
 30
0.0
 10
1.189028705944545
 20
-0.4634695303758103
 30
0.0
  0
SPLINE
  5
137
330
1F
100
AcDbEntity
  8
0
  6
Continuous
 62
     7
370
    25
100
AcDbSpline
210
0.0
220
0.0
230
1.0
 70
     8
 71
     3
 72
    11
 73
     7
 74
     0
 42
0.00000001
 43
0.00000001
 40
0.0
 40
0.0
 40
0.0
 40
0.0
 40
0.3006128070120301
 40
0.5718862445436743
 40
0.7817669420161505
 40
1.0
 40
1.0
 40
1.0
 40
1.0
 10
1.209713936316883
 20
-0.4515282010602012
 30
0.0
 10
1.209177943444499
 20
-0.4502880429146633
 30
0.0
 10
1.208158269818693
 20
-0.4479287642414046
 30
0.0
 10
1.205320983930183
 20
-0.4465913907675396
 30
0.0
 10
1.202233102493202
 20
-0.4467888605779793
 30
0.0
 10
1.200189782108711
 20
-0.447802436361198
 30
0.0
 10
1.199148189657486
 20
-0.4483191115201972
 30
0.0
  0
SPLINE
  5
13D
330
1F
100
AcDbEntity
  8
0
  6
Continuous
 62
     7
370
    25
100
AcDbSpline
210
0.0
220
0.0
230
1.0
 70
     8
 71
     3
 72
    10
 73
     6
 74
     0
 42
0.00000001
 43
0.00000001
 40
0.0
 40
0.0
 40
0.0
 40
0.0
 40
0.1071128853643726
 40
0.545605201925474
 40
1.0
 40
1.0
 40
1.0
 40
1.0
 10
1.230229152078493
 20
-0.4495398386615726
 30
0.0
 10
1.229975480294418
 20
-0.4494795360017675
 30
0.0
 10
1.22868334214967
 20
-0.4491723699239629
 30
0.0
 10
1.227350977677945
 20
-0.4467231352130102
 30
0.0
 10
1.227060476658966
 20
-0.4439462843839995
 30
0.0
 10
1.226912639211549
 20
-0.4425331308609518
 30
0.0
  0
SPLINE
  5
13E
330
1F
100
AcDbEntity
  8
0
  6
Continuous
 62
     7
370
    25
100
AcDbSpline
210
0.0
220
0.0
230
1.0
 70
     8
 71
     3
 72
    10
 73
     6
 74
     0
 42
0.00000001
 43
0.00000001
 40
0.0
 40
0.0
 40
0.0
 40
0.0
 40
0.2962085828496009
 40
0.5796975449371414
 40
1.0
 40
1.0
 40
1.0
 40
1.0
 10
1.238539046042619
 20
-0.4568282223487958
 30
0.0
 10
1.240388763144955
 20
-0.4555792167925496
 30
0.0
 10
1.244008767848184
 20
-0.4531348397674029
 30
0.0
 10
1.249894953618933
 20
-0.4467900320836583
 30
0.0
 10
1.252835721925743
 20
-0.4412334131486402
 30
0.0
 10
1.254591941323997
 20
-0.4379150143683695
 30
0.0
  0
SPLINE
  5
13F
330
1F
100
AcDbEntity
  8
0
  6
Continuous
 62
     7
370
    25
100
AcDbSpline
210
0.0
220
0.0
230
1.0
 70
     8
 71
     3
 72
    10
 73
     6
 74
     0
 42
0.00000001
 43
0.00000001
 40
0.0
 40
0.0
 40
0.0
 40
0.0
 40
0.1023386459077568
 40
0.523143947338499
 40
1.0
 40
1.0
 40
1.0
 40
1.0
 10
1.224273165570547
 20
-0.4583819526419414
 30
0.0
 10
1.224589686576846
 20
-0.4587091959313966
 30
0.0
 10
1.226207707288199
 20
-0.460382027779688
 30
0.0
 10
1.231344630642393
 20
-0.4601405322346884
 30
0.0
 10
1.236043115098346
 20
-0.4579773493148259
 30
0.0
 10
1.238539046042619
 20
-0.4568282223487957
 30
0.0
  0
SPLINE
  5
141
330
1F
100
AcDbEntity
  8
0
  6
Continuous
 62
     7
370
    25
100
AcDbSpline
210
0.0
220
0.0
230
1.0
 70
     8
 71
     3
 72
    11
 73
     7
 74
     0
 42
0.00000001
 43
0.00000001
 40
0.0
 40
0.0
 40
0.0
 40
0.0
 40
0.2782824273692246
 40
0.5471447437463045
 40
0.7649968584358425
 40
1.0
 40
1.0
 40
1.0
 40
1.0
 10
1.226912639211549
 20
-0.4425331308609518
 30
0.0
 10
1.227117864828436
 20
-0.4404834715314772
 30
0.0
 10
1.227521368990101
 20
-0.4364535356882603
 30
0.0
 10
1.230533696311939
 20
-0.4304536530893672
 30
0.0
 10
1.234342548060402
 20
-0.4257258760894274
 30
0.0
 10
1.237055678688201
 20
-0.4238762214646514
 30
0.0
 10
1.238463621319321
 20
-0.4229163680862744
 30
0.0
  0
SPLINE
  5
146
330
1F
100
AcDbEntity
  8
0
  6
Continuous
 62
     7
370
    25
100
AcDbSpline
210
0.0
220
0.0
230
1.0
 70
     8
 71
     3
 72
    11
 73
     7
 74
     0
 42
0.00000001
 43
0.00000001
 40
0.0
 40
0.0
 40
0.0
 40
0.0
 40
0.0272222281727745
 40
0.346085938018831
 40
0.6370814008020624
 40
1.0
 40
1.0
 40
1.0
 40
1.0
 10
1.271483864028928
 20
-0.4261064087311498
 30
0.0
 10
1.271439921011136
 20
-0.4260943927695373
 30
0.0
 10
1.270881257685147
 20
-0.425941629545328
 30
0.0
 10
1.270290141326851
 20
-0.4248696184332348
 30
0.0
 10
1.269824563065235
 20
-0.4229680516941192
 30
0.0
 10
1.269797298185833
 20
-0.4214634831876823
 30
0.0
 10
1.269782166332253
 20
-0.4206284561917814
 30
0.0
  0
SPLINE
  5
148
330
1F
100
AcDbEntity
  8
0
  6
Continuous
 62
     7
370
    25
100
AcDbSpline
210
0.0
220
0.0
230
1.0
 70
     8
 71
     3
 72
     9
 73
     5
 74
     0
 42
0.00000001
 43
0.00000001
 40
0.0
 40
0.0
 40
0.0
 40
0.0
 40
0.0711569066614939
 40
1.0
 40
1.0
 40
1.0
 40
1.0
 10
1.265196318872534
 20
-0.4343610081837622
 30
0.0
 10
1.265348965367213
 20
-0.4344840719391945
 30
0.0
 10
1.267494175183668
 20
-0.4362135422212215
 30
0.0
 10
1.270711317489222
 20
-0.4358425891518224
 30
0.0
 10
1.273699537900024
 20
-0.4354980319553585
 30
0.0
  0
SPLINE
  5
154
330
1F
100
AcDbEntity
  8
0
  6
Continuous
 62
     7
370
    25
100
AcDbSpline
210
0.0
220
0.0
230
1.0
 70
     8
 71
     3
 72
    10
 73
     6
 74
     0
 42
0.00000001
 43
0.00000001
 40
0.0
 40
0.0
 40
0.0
 40
0.0
 40
0.3026245345859515
 40
0.5881187255952943
 40
0.9999999999999999
 40
0.9999999999999999
 40
0.9999999999999999
 40
0.9999999999999999
 10
1.297447326309113
 20
-0.4228211960108577
 30
0.0
 10
1.298778226871909
 20
-0.4219490903939228
 30
0.0
 10
1.301364691131843
 20
-0.4202542455105828
 30
0.0
 10
1.305625774837532
 20
-0.4161114674238174
 30
0.0
 10
1.307878420182093
 20
-0.412335360305307
 30
0.0
 10
1.309208869102817
 20
-0.410105130121718
 30
0.0
  0
SPLINE
  5
155
330
1F
100
AcDbEntity
  8
0
  6
Continuous
 62
     7
370
    25
100
AcDbSpline
210
0.0
220
0.0
230
1.0
 70
     8
 71
     3
 72
    10
 73
     6
 74
     0
 42
0.00000001
 43
0.00000001
 40
0.0
 40
0.0
 40
0.0
 40
0.0
 40
0.0658721600757262
 40
0.507574812268305
 40
1.0
 40
1.0
 40
1.0
 40
1.0
 10
1.284415907247324
 20
-0.4241760102759818
 30
0.0
 10
1.284596108640996
 20
-0.4243752312650251
 30
0.0
 10
1.285984641952461
 20
-0.4259103191685843
 30
0.0
 10
1.290646367401705
 20
-0.4258692673244409
 30
0.0
 10
1.295099735016108
 20
-0.4238733455347188
 30
0.0
 10
1.297447326309113
 20
-0.4228211960108577
 30
0.0
  0
SPLINE
  5
159
330
1F
100
AcDbEntity
  8
0
  6
Continuous
 62
     7
370
    25
100
AcDbSpline
210
0.0
220
0.0
230
1.0
 70
     8
 71
     3
 72
    10
 73
     6
 74
     0
 42
0.00000001
 43
0.00000001
 40
0.0
 40
0.0
 40
0.0
 40
0.0
 40
0.1242293801615578
 40
0.5571435388537902
 40
1.0
 40
1.0
 40
1.0
 40
1.0
 10
1.306228029448512
 20
-0.3877670020894674
 30
0.0
 10
1.306012063517726
 20
-0.3875516605115055
 30
0.0
 10
1.305043500181149
 20
-0.3865858972705397
 30
0.0
 10
1.302250108357368
 20
-0.3866158052787305
 30
0.0
 10
1.299710497451942
 20
-0.3877348099730322
 30
0.0
 10
1.298426276363921
 20
-0.3883006641450026
 30
0.0
  0
SPLINE
  5
15A
330
1F
100
AcDbEntity
  8
0
  6
Continuous
 62
     7
370
    25
100
AcDbSpline
210
0.0
220
0.0
230
1.0
 70
     8
 71
     3
 72
    11
 73
     7
 74
     0
 42
0.00000001
 43
0.00000001
 40
0.0
 40
0.0
 40
0.0
 40
0.0
 40
0.2839316370591523
 40
0.5591632118547638
 40
0.7760831793720154
 40
1.0
 40
1.0
 40
1.0
 40
1.0
 10
1.298426276363921
 20
-0.3883006641450026
 30
0.0
 10
1.296742858858072
 20
-0.389522913833811
 30
0.0
 10
1.293427606111978
 20
-0.3919299617723973
 30
0.0
 10
1.289720815340074
 20
-0.3975068095377913
 30
0.0
 10
1.287444269452178
 20
-0.4030470420939971
 30
0.0
 10
1.28717011210209
 20
-0.4062173227445839
 30
0.0
 10
1.287030857748019
 20
-0.4078276220273742
 30
0.0
  0
SPLINE
  5
15B
330
1F
100
AcDbEntity
  8
0
  6
Continuous
 62
     7
370
    25
100
AcDbSpline
210
0.0
220
0.0
230
1.0
 70
     8
 71
     3
 72
     9
 73
     5
 74
     0
 42
0.00000001
 43
0.00000001
 40
0.0
 40
0.0
 40
0.0
 40
0.0
 40
0.5744846715226153
 40
0.9999999999999999
 40
0.9999999999999999
 40
0.9999999999999999
 40
0.9999999999999999
 10
1.287030857748019
 20
-0.4078276220273742
 30
0.0
 10
1.287217866252071
 20
-0.4096895130005959
 30
0.0
 10
1.2875433901752
 20
-0.4129304888969357
 30
0.0
 10
1.289587688095703
 20
-0.4142169647909151
 30
0.0
 10
1.290457568196851
 20
-0.41476438000352
 30
0.0
  0
SPLINE
  5
15F
330
1F
100
AcDbEntity
  8
0
  6
Continuous
 62
     7
370
    25
100
AcDbSpline
210
0.0
220
0.0
230
1.0
 70
     8
 71
     3
 72
    11
 73
     7
 74
     0
 42
0.00000001
 43
0.00000001
 40
0.0
 40
0.0
 40
0.0
 40
0.0
 40
0.2839316370591523
 40
0.5591632118547638
 40
0.7760831793720154
 40
1.0
 40
1.0
 40
1.0
 40
1.0
 10
1.301188412227931
 20
-0.3898952112384064
 30
0.0
 10
1.299504994722082
 20
-0.3911174609272149
 30
0.0
 10
1.296189741975988
 20
-0.3935245088658011
 30
0.0
 10
1.292482951204084
 20
-0.3991013566311947
 30
0.0
 10
1.290206405316188
 20
-0.4046415891874008
 30
0.0
 10
1.2899322479661
 20
-0.4078118698379877
 30
0.0
 10
1.289792993612029
 20
-0.409422169120778
 30
0.0
  0
SPLINE
  5
160
330
1F
100
AcDbEntity
  8
0
  6
Continuous
 62
     7
370
    25
100
AcDbSpline
210
0.0
220
0.0
230
1.0
 70
     8
 71
     3
 72
    11
 73
     7
 74
     0
 42
0.00000001
 43
0.00000001
 40
0.0
 40
0.0
 40
0.0
 40
0.0
 40
0.2845563626552554
 40
0.5602421815860648
 40
0.7776248862286573
 40
1.0
 40
1.0
 40
1.0
 40
1.0
 10
1.312428267352045
 20
-0.396355103730974
 30
0.0
 10
1.312204336006182
 20
-0.3945500082707371
 30
0.0
 10
1.311763453979995
 20
-0.3909960880238738
 30
0.0
 10
1.308725298291944
 20
-0.3885583341097829
 30
0.0
 10
1.305073899627613
 20
-0.3881201415002128
 30
0.0
 10
1.302493340076347
 20
-0.3892990600491278
 30
0.0
 10
1.301188412227931
 20
-0.3898952112384064
 30
0.0
  0
SPLINE
  5
161
330
1F
100
AcDbEntity
  8
0
  6
Continuous
 62
     7
370
    25
100
AcDbSpline
210
0.0
220
0.0
230
1.0
 70
     8
 71
     3
 72
    11
 73
     7
 74
     0
 42
0.00000001
 43
0.00000001
 40
0.0
 40
0.0
 40
0.0
 40
0.0
 40
0.2811003164144373
 40
0.5564778096034074
 40
0.7746364893899874
 40
1.0
 40
1.0
 40
1.0
 40
1.0
 10
1.301188412227931
 20
-0.4157849985805842
 30
0.0
 10
1.302841212745291
 20
-0.4145769635307208
 30
0.0
 10
1.306113164991177
 20
-0.4121854873949165
 30
0.0
 10
1.309760277653857
 20
-0.4066417131813345
 30
0.0
 10
1.312015848374534
 20
-0.4011264881560793
 30
0.0
 10
1.312289313583899
 20
-0.3979626966917647
 30
0.0
 10
1.312428267352045
 20
-0.396355103730974
 30
0.0
  0
SPLINE
  5
162
330
1F
100
AcDbEntity
  8
0
  6
Continuous
 62
     7
370
    25
100
AcDbSpline
210
0.0
220
0.0
230
1.0
 70
     8
 71
     3
 72
    11
 73
     7
 74
     0
 42
0.00000001
 43
0.00000001
 40
0.0
 40
0.0
 40
0.0
 40
0.0
 40
0.2822079854874318
 40
0.5568105442072205
 40
0.774935020918386
 40
1.0
 40
1.0
 40
1.0
 40
1.0
 10
1.289792993612029
 20
-0.409422169120778
 30
0.0
 10
1.2900181889438
 20
-0.4112246826734317
 30
0.0
 10
1.290462510655747
 20
-0.4147811325395136
 30
0.0
 10
1.293533543142878
 20
-0.4172010575185829
 30
0.0
 10
1.297238197157808
 20
-0.4176025740187921
 30
0.0
 10
1.299857998203381
 20
-0.4163971495168611
 30
0.0
 10
1.301188412227932
 20
-0.4157849985805842
 30
0.0
  0
SPLINE
  5
169
330
1F
100
AcDbEntity
  8
0
  6
Continuous
 62
     7
370
    25
100
AcDbSpline
210
0.0
220
0.0
230
1.0
 70
     8
 71
     3
 72
    20
 73
    16
 74
     0
 42
0.00000001
 43
0.00000001
 40
0.0
 40
0.0
 40
0.0
 40
0.0
 40
0.0373064297146191
 40
0.0980285120125336
 40
0.1617982683683769
 40
0.2294910394425933
 40
0.3019360213978794
 40
0.3799051378519706
 40
0.4516768169340125
 40
0.5284456368332809
 40
0.6105986949864971
 40
0.6984984200206718
 40
0.7924858886137601
 40
0.8928839446991692
 40
1.0
 40
1.0
 40
1.0
 40
1.0
 10
0.4758712486196853
 20
0.2201420057200633
 30
0.0
 10
0.4679644871435837
 20
0.2155246529871729
 30
0.0
 10
0.447188227708698
 20
0.2033918324169728
 30
0.0
 10
0.4084982965719923
 20
0.191465003341382
 30
0.0
 10
0.3599169095264801
 20
0.1834085266144717
 30
0.0
 10
0.3054064083316611
 20
0.1823889312916362
 30
0.0
 10
0.2448935806607114
 20
0.188156727791732
 30
0.0
 10
0.1815342719322356
 20
0.2003196866103864
 30
0.0
 10
0.1158083091625333
 20
0.2178328658894027
 30
0.0
 10
0.0480715533781372
 20
0.2399312142798141
 30
0.0
 10
-0.025007567560463
 20
0.2675625654478506
 30
0.0
 10
-0.1036380264925367
 20
0.3008329944842731
 30
0.0
 10
-0.1880289008093375
 20
0.3399092009577258
 30
0.0
 10
-0.2783830954633857
 20
0.3847071331334945
 30
0.0
 10
-0.3406723470238577
 20
0.4179162334191344
 30
0.0
 10
-0.3728252395198295
 20
0.4350583342571175
 30
0.0
  0
SPLINE
  5
16B
330
1F
100
AcDbEntity
  8
0
  6
Continuous
 62
     7
370
    25
100
AcDbSpline
210
0.0
220
0.0
230
1.0
 70
     8
 71
     3
 72
    12
 73
     8
 74
     0
 42
0.00000001
 43
0.00000001
 40
0.0
 40
0.0
 40
0.0
 40
0.0
 40
0.2475811761847835
 40
0.4796347998465474
 40
0.6968714027273727
 40
0.9000371855904606
 40
1.0
 40
1.0
 40
1.0
 40
1.0
 10
0.2547368513143038
 20
0.7973422448174186
 30
0.0
 10
0.2868891519983014
 20
0.7802039187882653
 30
0.0
 10
0.3491772570183106
 20
0.7470021313932391
 30
0.0
 10
0.4395384443909267
 20
0.7021524581808406
 30
0.0
 10
0.5239044087548684
 20
0.6632538791832633
 30
0.0
 10
0.5910204537785837
 20
0.6343729543120158
 30
0.0
 10
0.6297963221478308
 20
0.6200322268650207
 30
0.0
 10
0.6425834526536262
 20
0.6153030805911957
 30
0.0
  0
LINE
  5
173
330
1F
100
AcDbEntity
  8
0
  6
Continuous
 62
     7
370
    25
100
AcDbLine
 10
0.4791709538
 20
0.2214449988
 30
0.0
 11
0.4743124441
 21
0.2182180674
 31
0.0
  0
LINE
  5
174
330
1F
100
AcDbEntity
  8
0
  6
Continuous
 62
     7
370
    25
100
AcDbLine
 10
1.1008968465
 20
1.3858949756
 30
0.0
 11
0.8710871426
 21
1.2532286574
 31
0.0
  0
LINE
  5
175
330
1F
100
AcDbEntity
  8
0
  6
Continuous
 62
     7
370
    25
100
AcDbLine
 10
1.4286554367
 20
1.3098213702
 30
0.0
 11
1.2727578787
 21
1.3998191148
 31
0.0
  0
LINE
  5
176
330
1F
100
AcDbEntity
  8
0
  6
Continuous
 62
     7
370
    25
100
AcDbLine
 10
1.5020374257
 20
-0.2467287169
 30
0.0
 11
1.5020374257
 21
1.1546915988
 31
0.0
  0
LINE
  5
177
330
1F
100
AcDbEntity
  8
0
  6
Continuous
 62
     7
370
    25
100
AcDbLine
 10
-0.3296768878
 20
-0.0643685608
 30
0.0
 11
0.886880842
 21
-0.7666723893
 31
0.0
  0
LINE
  5
178
330
1F
100
AcDbEntity
  8
0
  6
Continuous
 62
     7
370
    25
100
AcDbLine
 10
1.0711099611
 20
-0.5161728579
 30
0.0
 11
1.0676572913
 21
-0.514179674
 31
0.0
  0
LINE
  5
179
330
1F
100
AcDbEntity
  8
0
  6
Continuous
 62
     7
370
    25
100
AcDbLine
 10
1.1098158527
 20
-0.5188100884
 30
0.0
 11
1.1132685225
 21
-0.5208032723
 31
0.0
  0
LINE
  5
17A
330
1F
100
AcDbEntity
  8
0
  6
Continuous
 62
     7
370
    25
100
AcDbLine
 10
1.130046409
 20
-0.4929449671
 30
0.0
 11
1.1265937392
 21
-0.4909517833
 31
0.0
  0
LINE
  5
17B
330
1F
100
AcDbEntity
  8
0
  6
Continuous
 62
     7
370
    25
100
AcDbLine
 10
1.150835684
 20
-0.4964224586
 30
0.0
 11
1.1542883538
 21
-0.4984156424
 31
0.0
  0
LINE
  5
17C
330
1F
100
AcDbEntity
  8
0
  6
Continuous
 62
     7
370
    25
100
AcDbLine
 10
1.2071355561
 20
-0.4476069635
 30
0.0
 11
1.2036828863
 21
-0.4456137797
 31
0.0
  0
LINE
  5
17D
330
1F
100
AcDbEntity
  8
0
  6
Continuous
 62
     7
370
    25
100
AcDbLine
 10
1.1886456234
 20
-0.4737946573
 30
0.0
 11
1.1920982932
 21
-0.4757878412
 31
0.0
  0
LINE
  5
17E
330
1F
100
AcDbEntity
  8
0
  6
Continuous
 62
     7
370
    25
100
AcDbLine
 10
1.2297821108
 20
-0.4495542563
 30
0.0
 11
1.2332347806
 21
-0.4515474402
 31
0.0
  0
LINE
  5
17F
330
1F
100
AcDbEntity
  8
0
  6
Continuous
 62
     7
370
    25
100
AcDbLine
 10
1.0591109387
 20
-0.7525411544
 30
0.0
 11
1.2854407864
 21
-0.6218837144
 31
0.0
  0
LINE
  5
180
330
1F
100
AcDbEntity
  8
0
  6
Continuous
 62
     7
370
    25
100
AcDbLine
 10
1.2711233498
 20
-0.4259391501
 30
0.0
 11
1.2745760196
 21
-0.4279323339
 31
0.0
  0
LINE
  5
181
330
1F
100
AcDbEntity
  8
0
  6
Continuous
 62
     7
370
    25
100
AcDbLine
 10
1.2899643983
 20
-0.4147868601
 30
0.0
 11
1.2934170682
 21
-0.416780044
 31
0.0
  0
LINE
  5
182
330
1F
100
AcDbEntity
  8
0
  6
Continuous
 62
     7
370
    25
100
AcDbLine
 10
1.3094771438
 20
-0.38934956
 30
0.0
 11
1.3060244739
 21
-0.3873563762
 31
0.0
  0
LINE
  5
183
330
1F
100
AcDbEntity
  8
0
  6
Continuous
 62
     7
370
    25
100
AcDbLine
 10
1.0426084309
 20
1.1616837863
 30
0.0
 11
0.8867108728
 21
1.2516815309
 31
0.0
  0
LINE
  5
184
330
1F
100
AcDbEntity
  8
0
  6
Continuous
 62
     7
370
    25
100
AcDbLine
 10
0.6657346502
 20
0.8689518674
 30
0.0
 11
0.8216375617
 21
0.7789510323
 31
0.0
  0
LINE
  5
185
330
1F
100
AcDbEntity
  8
0
  6
Continuous
 62
     7
370
    25
100
AcDbLine
 10
1.293297272
 20
1.258186378
 30
0.0
 11
1.0634875681
 21
1.1255200598
 31
0.0
  0
LINE
  5
186
330
1F
100
AcDbEntity
  8
0
  6
Continuous
 62
     7
370
    25
100
AcDbLine
 10
1.4933890039
 20
1.1426383294
 30
0.0
 11
1.4933890039
 21
-0.2587819862
 31
0.0
  0
LINE
  5
187
330
1F
100
AcDbEntity
  8
0
  6
Continuous
 62
     7
370
    25
100
AcDbLine
 10
1.2915573439
 20
-0.6083646749
 30
0.0
 11
1.0652274962
 21
-0.7390221148
 31
0.0
  0
LINE
  5
188
330
1F
100
AcDbEntity
  8
0
  6
Continuous
 62
     7
370
    25
100
AcDbLine
 10
0.8633958362
 20
-0.6224693006
 30
0.0
 11
0.8633958362
 21
0.7789510151
 31
0.0
  0
LINE
  5
189
330
1F
100
AcDbEntity
  8
0
  6
Continuous
 62
     7
370
    25
100
AcDbLine
 10
1.1441085692
 20
-0.4735731834
 30
0.0
 11
1.1441085692
 21
-0.4966431831
 31
0.0
  0
LINE
  5
18A
330
1F
100
AcDbEntity
  8
0
  6
Continuous
 62
     7
370
    25
100
AcDbLine
 10
1.1693947077
 20
-0.4944935171
 30
0.0
 11
1.1695565565
 21
-0.4944000837
 31
0.0
  0
LINE
  5
18B
330
1F
100
AcDbEntity
  8
0
  6
Continuous
 62
     7
370
    25
100
AcDbLine
 10
1.1695565565
 20
-0.4944000837
 30
0.0
 11
1.1695565565
 21
-0.4965285334
 31
0.0
  0
LINE
  5
18C
330
1F
100
AcDbEntity
  8
0
  6
Continuous
 62
     7
370
    25
100
AcDbLine
 10
1.1518128904
 20
-0.51305184
 30
0.0
 11
1.1453043653
 21
-0.5212547426
 31
0.0
  0
LINE
  5
18D
330
1F
100
AcDbEntity
  8
0
  6
Continuous
 62
     7
370
    25
100
AcDbLine
 10
1.1768004727
 20
-0.4933555912
 30
0.0
 11
1.1768004727
 21
-0.4547005492
 31
0.0
  0
LINE
  5
18E
330
1F
100
AcDbEntity
  8
0
  6
Continuous
 62
     7
370
    25
100
AcDbLine
 10
1.1768004727
 20
-0.4547005492
 30
0.0
 11
1.1690992942
 21
-0.4591463449
 31
0.0
  0
LINE
  5
18F
330
1F
100
AcDbEntity
  8
0
  6
Continuous
 62
     7
370
    25
100
AcDbLine
 10
1.1690992942
 20
-0.4591463449
 30
0.0
 11
1.1690992942
 21
-0.4817100893
 31
0.0
  0
LINE
  5
190
330
1F
100
AcDbEntity
  8
0
  6
Continuous
 62
     7
370
    25
100
AcDbLine
 10
1.1518128904
 20
-0.4925403348
 30
0.0
 11
1.1518128904
 21
-0.4691255734
 31
0.0
  0
LINE
  5
191
330
1F
100
AcDbEntity
  8
0
  6
Continuous
 62
     7
370
    25
100
AcDbLine
 10
1.1518128904
 20
-0.4691255734
 30
0.0
 11
1.1441085692
 21
-0.4735731834
 31
0.0
  0
LINE
  5
192
330
1F
100
AcDbEntity
  8
0
  6
Continuous
 62
     7
370
    25
100
AcDbLine
 10
1.0844868967
 20
-0.5079920422
 30
0.0
 11
1.0844868967
 21
-0.5478791536
 31
0.0
  0
LINE
  5
193
330
1F
100
AcDbEntity
  8
0
  6
Continuous
 62
     7
370
    25
100
AcDbLine
 10
1.0844868967
 20
-0.5478791536
 30
0.0
 11
1.0921833612
 21
-0.5434360793
 31
0.0
  0
LINE
  5
194
330
1F
100
AcDbEntity
  8
0
  6
Continuous
 62
     7
370
    25
100
AcDbLine
 10
1.0921833612
 20
-0.5434360793
 30
0.0
 11
1.0921833612
 21
-0.5170491093
 31
0.0
  0
LINE
  5
195
330
1F
100
AcDbEntity
  8
0
  6
Continuous
 62
     7
370
    25
100
AcDbLine
 10
1.1003905139
 20
-0.5074573394
 30
0.0
 11
1.1031042326
 21
-0.4974059766
 31
0.0
  0
LINE
  5
196
330
1F
100
AcDbEntity
  8
0
  6
Continuous
 62
     7
370
    25
100
AcDbLine
 10
1.0918738056
 20
-0.5080970711
 30
0.0
 11
1.0917103853
 21
-0.5081914116
 31
0.0
  0
LINE
  5
197
330
1F
100
AcDbEntity
  8
0
  6
Continuous
 62
     7
370
    25
100
AcDbLine
 10
1.0917103853
 20
-0.5081914116
 30
0.0
 11
1.0917103853
 21
-0.503822011
 31
0.0
  0
LINE
  5
198
330
1F
100
AcDbEntity
  8
0
  6
Continuous
 62
     7
370
    25
100
AcDbLine
 10
1.0917103853
 20
-0.503822011
 30
0.0
 11
1.0844868967
 21
-0.5079920422
 31
0.0
  0
LINE
  5
199
330
1F
100
AcDbEntity
  8
0
  6
Continuous
 62
     7
370
    25
100
AcDbLine
 10
1.2168195738
 20
-0.4628370508
 30
0.0
 11
1.2103094774
 21
-0.4625579088
 31
0.0
  0
LINE
  5
19A
330
1F
100
AcDbEntity
  8
0
  6
Continuous
 62
     7
370
    25
100
AcDbLine
 10
1.1890287059
 20
-0.4705552901
 30
0.0
 11
1.2187476183
 21
-0.4533989272
 31
0.0
  0
LINE
  5
19B
330
1F
100
AcDbEntity
  8
0
  6
Continuous
 62
     7
370
    25
100
AcDbLine
 10
1.2187476183
 20
-0.4533989272
 30
0.0
 11
1.2187476183
 21
-0.4518184671
 31
0.0
  0
LINE
  5
19C
330
1F
100
AcDbEntity
  8
0
  6
Continuous
 62
     7
370
    25
100
AcDbLine
 10
1.2412257572
 20
-0.4245109152
 30
0.0
 11
1.2413011819
 21
-0.4163945066
 31
0.0
  0
LINE
  5
19D
330
1F
100
AcDbEntity
  8
0
  6
Continuous
 62
     7
370
    25
100
AcDbLine
 10
1.2573540772
 20
-0.4395095615
 30
0.0
 11
1.2506098498
 21
-0.4389536809
 31
0.0
  0
LINE
  5
19E
330
1F
100
AcDbEntity
  8
0
  6
Continuous
 62
     7
370
    25
100
AcDbLine
 10
1.2414598881
 20
-0.4163446218
 30
0.0
 11
1.2486158087
 21
-0.4203100525
 31
0.0
  0
LINE
  5
19F
330
1F
100
AcDbEntity
  8
0
  6
Continuous
 62
     7
370
    25
100
AcDbLine
 10
1.2486158087
 20
-0.4203100525
 30
0.0
 11
1.2648572658
 21
-0.4109340589
 31
0.0
  0
LINE
  5
1A0
330
1F
100
AcDbEntity
  8
0
  6
Continuous
 62
     7
370
    25
100
AcDbLine
 10
1.2648572658
 20
-0.4109340589
 30
0.0
 11
1.2648572658
 21
-0.4282429096
 31
0.0
  0
LINE
  5
1A1
330
1F
100
AcDbEntity
  8
0
  6
Continuous
 62
     7
370
    25
100
AcDbLine
 10
1.2764616738
 20
-0.437092579
 30
0.0
 11
1.2798746425
 21
-0.4283667998
 31
0.0
  0
LINE
  5
1A2
330
1F
100
AcDbEntity
  8
0
  6
Continuous
 62
     7
370
    25
100
AcDbLine
 10
1.2798746425
 20
-0.4283667998
 30
0.0
 11
1.2757294254
 21
-0.4281414085
 31
0.0
  0
LINE
  5
1A3
330
1F
100
AcDbEntity
  8
0
  6
Continuous
 62
     7
370
    25
100
AcDbLine
 10
1.2725443022
 20
-0.4222230033
 30
0.0
 11
1.2725443022
 21
-0.4064964272
 31
0.0
  0
LINE
  5
1A4
330
1F
100
AcDbEntity
  8
0
  6
Continuous
 62
     7
370
    25
100
AcDbLine
 10
1.2725443022
 20
-0.4064964272
 30
0.0
 11
1.2786945598
 21
-0.4029459591
 31
0.0
  0
LINE
  5
1A5
330
1F
100
AcDbEntity
  8
0
  6
Continuous
 62
     7
370
    25
100
AcDbLine
 10
1.2786945598
 20
-0.4029459591
 30
0.0
 11
1.2786945598
 21
-0.3948495033
 31
0.0
  0
LINE
  5
1A6
330
1F
100
AcDbEntity
  8
0
  6
Continuous
 62
     7
370
    25
100
AcDbLine
 10
1.2786945598
 20
-0.3948495033
 30
0.0
 11
1.2725443022
 21
-0.3983999715
 31
0.0
  0
LINE
  5
1A7
330
1F
100
AcDbEntity
  8
0
  6
Continuous
 62
     7
370
    25
100
AcDbLine
 10
1.2725443022
 20
-0.3983999715
 30
0.0
 11
1.2725443022
 21
-0.3854768522
 31
0.0
  0
LINE
  5
1A8
330
1F
100
AcDbEntity
  8
0
  6
Continuous
 62
     7
370
    25
100
AcDbLine
 10
1.2725443022
 20
-0.3854768522
 30
0.0
 11
1.2648572658
 21
-0.3923060412
 31
0.0
  0
LINE
  5
1A9
330
1F
100
AcDbEntity
  8
0
  6
Continuous
 62
     7
370
    25
100
AcDbLine
 10
1.2648572658
 20
-0.3923060412
 30
0.0
 11
1.2648572658
 21
-0.4028376031
 31
0.0
  0
LINE
  5
1AA
330
1F
100
AcDbEntity
  8
0
  6
Continuous
 62
     7
370
    25
100
AcDbLine
 10
1.2648572658
 20
-0.4028376031
 30
0.0
 11
1.2414598881
 21
-0.4163446218
 31
0.0
  0
LINE
  5
1AB
330
1F
100
AcDbEntity
  8
0
  6
Continuous
 62
     7
370
    25
100
AcDbLine
 10
1.3121297112
 20
-0.4116080581
 30
0.0
 11
1.3121297112
 21
-0.4164637541
 31
0.0
  0
LINE
  5
1AC
330
1F
100
AcDbEntity
  8
0
  6
Continuous
 62
     7
370
    25
100
AcDbLine
 10
1.3121297112
 20
-0.4164637541
 30
0.0
 11
1.3198151762
 21
-0.4120270296
 31
0.0
  0
LINE
  5
1AD
330
1F
100
AcDbEntity
  8
0
  6
Continuous
 62
     7
370
    25
100
AcDbLine
 10
1.3198151762
 20
-0.4120270296
 30
0.0
 11
1.3198151762
 21
-0.3721399182
 31
0.0
  0
LINE
  5
1AE
330
1F
100
AcDbEntity
  8
0
  6
Continuous
 62
     7
370
    25
100
AcDbLine
 10
1.3198151762
 20
-0.3721399182
 30
0.0
 11
1.3121297112
 21
-0.3765766427
 31
0.0
  0
LINE
  5
1AF
330
1F
100
AcDbEntity
  8
0
  6
Continuous
 62
     7
370
    25
100
AcDbLine
 10
1.3121297112
 20
-0.3765766427
 30
0.0
 11
1.3121297112
 21
-0.3814359678
 31
0.0
  0
LINE
  5
1B0
330
1F
100
AcDbEntity
  8
0
  6
Continuous
 62
     7
370
    25
100
AcDbLine
 10
1.3121297112
 20
-0.3814359678
 30
0.0
 11
1.311971005
 21
-0.3815275869
 31
0.0
  0
LINE
  5
1B1
330
1F
100
AcDbEntity
  8
0
  6
Continuous
 62
     7
370
    25
100
AcDbLine
 10
1.311971005
 20
-0.4116996772
 30
0.0
 11
1.3121297112
 21
-0.4116080581
 31
0.0
  0
LINE
  5
1B2
330
1F
100
AcDbEntity
  8
0
  6
Continuous
 62
     7
370
    25
100
AcDbLine
 10
1.0425114668
 20
-0.5559126983
 30
0.0
 11
1.0425114668
 21
-0.5722199256
 31
0.0
  0
LINE
  5
1B3
330
1F
100
AcDbEntity
  8
0
  6
Continuous
 62
     7
370
    25
100
AcDbLine
 10
1.0425114668
 20
-0.5722199256
 30
0.0
 11
1.0510894578
 21
-0.5672679569
 31
0.0
  0
LINE
  5
1B4
330
1F
100
AcDbEntity
  8
0
  6
Continuous
 62
     7
370
    25
100
AcDbLine
 10
1.0510894578
 20
-0.5672679569
 30
0.0
 11
1.0510894578
 21
-0.5509607296
 31
0.0
  0
LINE
  5
1B5
330
1F
100
AcDbEntity
  8
0
  6
Continuous
 62
     7
370
    25
100
AcDbLine
 10
1.0510894578
 20
-0.5509607296
 30
0.0
 11
1.064629767
 21
-0.5431440755
 31
0.0
  0
LINE
  5
1B6
330
1F
100
AcDbEntity
  8
0
  6
Continuous
 62
     7
370
    25
100
AcDbLine
 10
1.064629767
 20
-0.5077243496
 30
0.0
 11
1.0425114668
 21
-0.5204929725
 31
0.0
  0
LINE
  5
1B7
330
1F
100
AcDbEntity
  8
0
  6
Continuous
 62
     7
370
    25
100
AcDbLine
 10
1.0425114668
 20
-0.5204929725
 30
0.0
 11
1.0425114668
 21
-0.5468527244
 31
0.0
  0
LINE
  5
1B8
330
1F
100
AcDbEntity
  8
0
  6
Continuous
 62
     7
370
    25
100
AcDbLine
 10
1.0425114668
 20
-0.5468527244
 30
0.0
 11
1.0369724637
 21
-0.5500503228
 31
0.0
  0
LINE
  5
1B9
330
1F
100
AcDbEntity
  8
0
  6
Continuous
 62
     7
370
    25
100
AcDbLine
 10
1.0369724637
 20
-0.5500503228
 30
0.0
 11
1.0369724637
 21
-0.5591102968
 31
0.0
  0
LINE
  5
1BA
330
1F
100
AcDbEntity
  8
0
  6
Continuous
 62
     7
370
    25
100
AcDbLine
 10
1.0369724637
 20
-0.5591102968
 30
0.0
 11
1.0425114668
 21
-0.5559126983
 31
0.0
  0
LINE
  5
1BB
330
1F
100
AcDbEntity
  8
0
  6
Continuous
 62
     7
370
    25
100
AcDbLine
 10
0.8216375617
 20
0.7789510323
 30
0.0
 11
0.8216375617
 21
-0.6224693006
 31
0.0
  0
LINE
  5
1BC
330
1F
100
AcDbEntity
  8
0
  6
Continuous
 62
     7
370
    25
100
AcDbLine
 10
1.0426084309
 20
1.1616837863
 30
0.0
 11
1.2724181347
 21
1.2943501044
 31
0.0
  0
LINE
  5
1BD
330
1F
100
AcDbEntity
  8
0
  6
Continuous
 62
     7
370
    25
100
AcDbLine
 10
0.8216375617
 20
-0.6224693006
 30
0.0
 11
-0.3949201681
 21
0.0798345279
 31
0.0
  0
LINE
  5
1BE
330
1F
100
AcDbEntity
  8
0
  6
Continuous
 62
     7
370
    25
100
AcDbLine
 10
-0.394920168
 20
0.3967724494
 30
0.0
 11
-0.3949201681
 21
0.0798345279
 31
0.0
  0
LINE
  5
1BF
330
1F
100
AcDbEntity
  8
0
  6
Continuous
 62
     7
370
    25
100
AcDbLine
 10
0.8867108728
 20
1.2516815309
 30
0.0
 11
1.1165205767
 21
1.384347849
 31
0.0
  0
LINE
  5
1C0
330
1F
100
AcDbEntity
  8
0
  6
Continuous
 62
     7
370
    25
100
AcDbLine
 10
1.1165205778
 20
1.3843478484
 30
0.0
 11
1.2724181347
 21
1.2943501044
 31
0.0
  0
LINE
  5
1C1
330
1F
100
AcDbEntity
  8
0
  6
Continuous
 62
     7
370
    25
100
AcDbLine
 10
0.479212458
 20
0.2219634524
 30
0.0
 11
0.4758712486
 21
0.2201420057
 31
0.0
  0
LINE
  5
1C2
330
1F
100
AcDbEntity
  8
0
  6
Continuous
 62
     7
370
    25
100
AcDbLine
 10
-0.3728254854
 20
0.435058467
 30
0.0
 11
0.2547366299
 21
0.7973423647
 31
0.0
  0
LINE
  5
1C3
330
1F
100
AcDbEntity
  8
0
  6
Continuous
 62
     7
370
    25
100
AcDbLine
 10
1.0483273219
 20
-0.5493661825
 30
0.0
 11
1.0618676311
 21
-0.5415495284
 31
0.0
  0
LINE
  5
1C4
330
1F
100
AcDbEntity
  8
0
  6
Continuous
 62
     7
370
    25
100
AcDbLine
 10
1.0483273219
 20
-0.5656734098
 30
0.0
 11
1.0483273219
 21
-0.5493661825
 31
0.0
  0
LINE
  5
1C5
330
1F
100
AcDbEntity
  8
0
  6
Continuous
 62
     7
370
    25
100
AcDbLine
 10
1.0425114668
 20
-0.5690308314
 30
0.0
 11
1.0483273219
 21
-0.5656734098
 31
0.0
  0
LINE
  5
1C6
330
1F
100
AcDbEntity
  8
0
  6
Continuous
 62
     7
370
    25
100
AcDbLine
 10
1.0369724637
 20
-0.5559212026
 30
0.0
 11
1.039749331
 21
-0.5543181512
 31
0.0
  0
LINE
  5
1C7
330
1F
100
AcDbEntity
  8
0
  6
Continuous
 62
     7
370
    25
100
AcDbLine
 10
1.0483273219
 20
-0.5230118741
 30
0.0
 11
1.0483273219
 21
-0.5403062085
 31
0.0
  0
LINE
  5
1C8
330
1F
100
AcDbEntity
  8
0
  6
Continuous
 62
     7
370
    25
100
AcDbLine
 10
1.0612045221
 20
-0.5155780247
 30
0.0
 11
1.0483273219
 21
-0.5230118741
 31
0.0
  0
LINE
  5
1C9
330
1F
100
AcDbEntity
  8
0
  6
Continuous
 62
     7
370
    25
100
AcDbLine
 10
1.0510894578
 20
-0.5419007556
 30
0.0
 11
1.0639666579
 21
-0.5344669062
 31
0.0
  0
LINE
  5
1CA
330
1F
100
AcDbEntity
  8
0
  6
Continuous
 62
     7
370
    25
100
AcDbLine
 10
1.0510894578
 20
-0.5246064212
 30
0.0
 11
1.0510894578
 21
-0.5419007556
 31
0.0
  0
LINE
  5
1CB
330
1F
100
AcDbEntity
  8
0
  6
Continuous
 62
     7
370
    25
100
AcDbLine
 10
1.0639666579
 20
-0.5171725718
 30
0.0
 11
1.0510894578
 21
-0.5246064212
 31
0.0
  0
LINE
  5
1CC
330
1F
100
AcDbEntity
  8
0
  6
Continuous
 62
     7
370
    25
100
AcDbLine
 10
1.0483273219
 20
-0.5230118741
 30
0.0
 11
1.0510894578
 21
-0.5246064212
 31
0.0
  0
LINE
  5
1CD
330
1F
100
AcDbEntity
  8
0
  6
Continuous
 62
     7
370
    25
100
AcDbLine
 10
1.0612045221
 20
-0.5155780247
 30
0.0
 11
1.0639666579
 21
-0.5171725718
 31
0.0
  0
LINE
  5
1CE
330
1F
100
AcDbEntity
  8
0
  6
Continuous
 62
     7
370
    25
100
AcDbLine
 10
1.0483273219
 20
-0.5403062085
 30
0.0
 11
1.0510894578
 21
-0.5419007556
 31
0.0
  0
LINE
  5
1CF
330
1F
100
AcDbEntity
  8
0
  6
Continuous
 62
     7
370
    25
100
AcDbLine
 10
1.07857735
 20
-0.5141951646
 30
0.0
 11
1.0813394859
 21
-0.5157897117
 31
0.0
  0
LINE
  5
1D0
330
1F
100
AcDbEntity
  8
0
  6
Continuous
 62
     7
370
    25
100
AcDbLine
 10
1.039749331
 20
-0.5543181512
 30
0.0
 11
1.0425114668
 21
-0.5559126983
 31
0.0
  0
LINE
  5
1D1
330
1F
100
AcDbEntity
  8
0
  6
Continuous
 62
     7
370
    25
100
AcDbLine
 10
1.0618676311
 20
-0.5415495284
 30
0.0
 11
1.064629767
 21
-0.5431440755
 31
0.0
  0
LINE
  5
1D2
330
1F
100
AcDbEntity
  8
0
  6
Continuous
 62
     7
370
    25
100
AcDbLine
 10
1.0483273219
 20
-0.5656734098
 30
0.0
 11
1.0510894578
 21
-0.5672679569
 31
0.0
  0
LINE
  5
1D3
330
1F
100
AcDbEntity
  8
0
  6
Continuous
 62
     7
370
    25
100
AcDbLine
 10
1.0483273219
 20
-0.5493661825
 30
0.0
 11
1.0510894578
 21
-0.5509607296
 31
0.0
  0
LINE
  5
1D4
330
1F
100
AcDbEntity
  8
0
  6
Continuous
 62
     7
370
    25
100
AcDbLine
 10
1.0889482495
 20
-0.5065968645
 30
0.0
 11
1.0889482495
 21
-0.5054165581
 31
0.0
  0
LINE
  5
1D5
330
1F
100
AcDbEntity
  8
0
  6
Continuous
 62
     7
370
    25
100
AcDbLine
 10
1.097628378
 20
-0.5058627923
 30
0.0
 11
1.0996837881
 21
-0.4982497437
 31
0.0
  0
LINE
  5
1D6
330
1F
100
AcDbEntity
  8
0
  6
Continuous
 62
     7
370
    25
100
AcDbLine
 10
1.0894212253
 20
-0.5418415322
 30
0.0
 11
1.0894212253
 21
-0.5154545622
 31
0.0
  0
LINE
  5
1D7
330
1F
100
AcDbEntity
  8
0
  6
Continuous
 62
     7
370
    25
100
AcDbLine
 10
1.0844868967
 20
-0.5446900594
 30
0.0
 11
1.0894212253
 21
-0.5418415322
 31
0.0
  0
LINE
  5
1D8
330
1F
100
AcDbEntity
  8
0
  6
Continuous
 62
     7
370
    25
100
AcDbLine
 10
1.0889482495
 20
-0.5065968645
 30
0.0
 11
1.0917103853
 21
-0.5081914116
 31
0.0
  0
LINE
  5
1D9
330
1F
100
AcDbEntity
  8
0
  6
Continuous
 62
     7
370
    25
100
AcDbLine
 10
1.0894212253
 20
-0.5154545622
 30
0.0
 11
1.0921833612
 21
-0.5170491093
 31
0.0
  0
LINE
  5
1DA
330
1F
100
AcDbEntity
  8
0
  6
Continuous
 62
     7
370
    25
100
AcDbLine
 10
1.0947229548
 20
-0.5063769404
 30
0.0
 11
1.0974850907
 21
-0.5079714875
 31
0.0
  0
LINE
  5
1DB
330
1F
100
AcDbEntity
  8
0
  6
Continuous
 62
     7
370
    25
100
AcDbLine
 10
1.097628378
 20
-0.5058627923
 30
0.0
 11
1.1003905139
 21
-0.5074573394
 31
0.0
  0
LINE
  5
1DC
330
1F
100
AcDbEntity
  8
0
  6
Continuous
 62
     7
370
    25
100
AcDbLine
 10
1.0894212253
 20
-0.5418415322
 30
0.0
 11
1.0921833612
 21
-0.5434360793
 31
0.0
  0
LINE
  5
1DD
330
1F
100
AcDbEntity
  8
0
  6
Continuous
 62
     7
370
    25
100
AcDbLine
 10
1.1069449027
 20
-0.511789031
 30
0.0
 11
1.1097070386
 21
-0.5133835781
 31
0.0
  0
LINE
  5
1DE
330
1F
100
AcDbEntity
  8
0
  6
Continuous
 62
     7
370
    25
100
AcDbLine
 10
1.1185634528
 20
-0.492133262
 30
0.0
 11
1.1213255887
 21
-0.4937278091
 31
0.0
  0
LINE
  5
1DF
330
1F
100
AcDbEntity
  8
0
  6
Continuous
 62
     7
370
    25
100
AcDbLine
 10
1.1185634528
 20
-0.5260886581
 30
0.0
 11
1.1213255887
 21
-0.5276832052
 31
0.0
  0
LINE
  5
1E0
330
1F
100
AcDbEntity
  8
0
  6
Continuous
 62
     7
370
    25
100
AcDbLine
 10
1.1383043028
 20
-0.4936856347
 30
0.0
 11
1.1410664387
 21
-0.4952801818
 31
0.0
  0
LINE
  5
1E1
330
1F
100
AcDbEntity
  8
0
  6
Continuous
 62
     7
370
    25
100
AcDbLine
 10
1.1490507545
 20
-0.4909457877
 30
0.0
 11
1.1490507545
 21
-0.4707201205
 31
0.0
  0
LINE
  5
1E2
330
1F
100
AcDbEntity
  8
0
  6
Continuous
 62
     7
370
    25
100
AcDbLine
 10
1.1740383368
 20
-0.4917610441
 30
0.0
 11
1.1740383368
 21
-0.4562950963
 31
0.0
  0
LINE
  5
1E3
330
1F
100
AcDbEntity
  8
0
  6
Continuous
 62
     7
370
    25
100
AcDbLine
 10
1.1666325718
 20
-0.49289897
 30
0.0
 11
1.1667944207
 21
-0.4928055366
 31
0.0
  0
LINE
  5
1E4
330
1F
100
AcDbEntity
  8
0
  6
Continuous
 62
     7
370
    25
100
AcDbLine
 10
1.1490507545
 20
-0.4909457877
 30
0.0
 11
1.1518128904
 21
-0.4925403348
 31
0.0
  0
LINE
  5
1E5
330
1F
100
AcDbEntity
  8
0
  6
Continuous
 62
     7
370
    25
100
AcDbLine
 10
1.155840551
 20
-0.5045690474
 30
0.0
 11
1.1586026868
 21
-0.5061635945
 31
0.0
  0
LINE
  5
1E6
330
1F
100
AcDbEntity
  8
0
  6
Continuous
 62
     7
370
    25
100
AcDbLine
 10
1.1740383368
 20
-0.4917610441
 30
0.0
 11
1.1768004727
 21
-0.4933555912
 31
0.0
  0
LINE
  5
1E7
330
1F
100
AcDbEntity
  8
0
  6
Continuous
 62
     7
370
    25
100
AcDbLine
 10
1.2159854824
 20
-0.4518043801
 30
0.0
 11
1.2159854824
 21
-0.45022392
 31
0.0
  0
LINE
  5
1E8
330
1F
100
AcDbEntity
  8
0
  6
Continuous
 62
     7
370
    25
100
AcDbLine
 10
1.1862665701
 20
-0.468960743
 30
0.0
 11
1.2159854824
 21
-0.4518043801
 31
0.0
  0
LINE
  5
1E9
330
1F
100
AcDbEntity
  8
0
  6
Continuous
 62
     7
370
    25
100
AcDbLine
 10
1.1576978848
 20
-0.518737112
 30
0.0
 11
1.1604600206
 21
-0.5203316591
 31
0.0
  0
LINE
  5
1EA
330
1F
100
AcDbEntity
  8
0
  6
Continuous
 62
     7
370
    25
100
AcDbLine
 10
1.1666325718
 20
-0.49289897
 30
0.0
 11
1.1693947077
 21
-0.4944935171
 31
0.0
  0
LINE
  5
1EB
330
1F
100
AcDbEntity
  8
0
  6
Continuous
 62
     7
370
    25
100
AcDbLine
 10
1.1862665701
 20
-0.4618749833
 30
0.0
 11
1.1890287059
 21
-0.4634695304
 31
0.0
  0
LINE
  5
1EC
330
1F
100
AcDbEntity
  8
0
  6
Continuous
 62
     7
370
    25
100
AcDbLine
 10
1.1963860538
 20
-0.4467245644
 30
0.0
 11
1.1991481897
 21
-0.4483191115
 31
0.0
  0
LINE
  5
1ED
330
1F
100
AcDbEntity
  8
0
  6
Continuous
 62
     7
370
    25
100
AcDbLine
 10
1.1890287059
 20
-0.4634695304
 30
0.0
 11
1.2097139363
 21
-0.4515282011
 31
0.0
  0
LINE
  5
1EE
330
1F
100
AcDbEntity
  8
0
  6
Continuous
 62
     7
370
    25
100
AcDbLine
 10
1.1974168583
 20
-0.480567556
 30
0.0
 11
1.2001789942
 21
-0.4821621031
 31
0.0
  0
LINE
  5
1EF
330
1F
100
AcDbEntity
  8
0
  6
Continuous
 62
     7
370
    25
100
AcDbLine
 10
1.2159854824
 20
-0.45022392
 30
0.0
 11
1.2187476183
 21
-0.4518184671
 31
0.0
  0
LINE
  5
1F0
330
1F
100
AcDbEntity
  8
0
  6
Continuous
 62
     7
370
    25
100
AcDbLine
 10
1.1667944207
 20
-0.4928055366
 30
0.0
 11
1.1695565565
 21
-0.4944000837
 31
0.0
  0
LINE
  5
1F1
330
1F
100
AcDbEntity
  8
0
  6
Continuous
 62
     7
370
    25
100
AcDbLine
 10
1.1862665701
 20
-0.468960743
 30
0.0
 11
1.1890287059
 21
-0.4705552901
 31
0.0
  0
LINE
  5
1F2
330
1F
100
AcDbEntity
  8
0
  6
Continuous
 62
     7
370
    25
100
AcDbLine
 10
1.2159854824
 20
-0.4518043801
 30
0.0
 11
1.2187476183
 21
-0.4533989272
 31
0.0
  0
LINE
  5
1F3
330
1F
100
AcDbEntity
  8
0
  6
Continuous
 62
     7
370
    25
100
AcDbLine
 10
1.2384636213
 20
-0.4229163681
 30
0.0
 11
1.2385050843
 21
-0.4184545623
 31
0.0
  0
LINE
  5
1F4
330
1F
100
AcDbEntity
  8
0
  6
Continuous
 62
     7
370
    25
100
AcDbLine
 10
1.2697821663
 20
-0.3968054244
 30
0.0
 11
1.2697821663
 21
-0.387930743
 31
0.0
  0
LINE
  5
1F5
330
1F
100
AcDbEntity
  8
0
  6
Continuous
 62
     7
370
    25
100
AcDbLine
 10
1.275932424
 20
-0.401351412
 30
0.0
 11
1.275932424
 21
-0.3964440504
 31
0.0
  0
LINE
  5
1F6
330
1F
100
AcDbEntity
  8
0
  6
Continuous
 62
     7
370
    25
100
AcDbLine
 10
1.2697821663
 20
-0.4049018802
 30
0.0
 11
1.275932424
 21
-0.401351412
 31
0.0
  0
LINE
  5
1F7
330
1F
100
AcDbEntity
  8
0
  6
Continuous
 62
     7
370
    25
100
AcDbLine
 10
1.2697821663
 20
-0.4206284562
 30
0.0
 11
1.2697821663
 21
-0.4049018802
 31
0.0
  0
LINE
  5
1F8
330
1F
100
AcDbEntity
  8
0
  6
Continuous
 62
     7
370
    25
100
AcDbLine
 10
1.2736995379
 20
-0.435498032
 30
0.0
 11
1.2765593301
 21
-0.4281865336
 31
0.0
  0
LINE
  5
1F9
330
1F
100
AcDbEntity
  8
0
  6
Continuous
 62
     7
370
    25
100
AcDbLine
 10
1.2458536729
 20
-0.4187155054
 30
0.0
 11
1.2620951299
 21
-0.4093395118
 31
0.0
  0
LINE
  5
1FA
330
1F
100
AcDbEntity
  8
0
  6
Continuous
 62
     7
370
    25
100
AcDbLine
 10
1.2415163812
 20
-0.416312009
 30
0.0
 11
1.2458536729
 21
-0.4187155054
 31
0.0
  0
LINE
  5
1FB
330
1F
100
AcDbEntity
  8
0
  6
Continuous
 62
     7
370
    25
100
AcDbLine
 10
1.2269126392
 20
-0.4425331309
 30
0.0
 11
1.2296747751
 21
-0.444127678
 31
0.0
  0
LINE
  5
1FC
330
1F
100
AcDbEntity
  8
0
  6
Continuous
 62
     7
370
    25
100
AcDbLine
 10
1.2384636213
 20
-0.4229163681
 30
0.0
 11
1.2412257572
 21
-0.4245109152
 31
0.0
  0
LINE
  5
1FD
330
1F
100
AcDbEntity
  8
0
  6
Continuous
 62
     7
370
    25
100
AcDbLine
 10
1.238539046
 20
-0.4568282223
 30
0.0
 11
1.2413011819
 21
-0.4584227694
 31
0.0
  0
LINE
  5
1FE
330
1F
100
AcDbEntity
  8
0
  6
Continuous
 62
     7
370
    25
100
AcDbLine
 10
1.2458536729
 20
-0.4187155054
 30
0.0
 11
1.2486158087
 21
-0.4203100525
 31
0.0
  0
LINE
  5
1FF
330
1F
100
AcDbEntity
  8
0
  6
Continuous
 62
     7
370
    25
100
AcDbLine
 10
1.2620951299
 20
-0.4093395118
 30
0.0
 11
1.2648572658
 21
-0.4109340589
 31
0.0
  0
LINE
  5
200
330
1F
100
AcDbEntity
  8
0
  6
Continuous
 62
     7
370
    25
100
AcDbLine
 10
1.2697821663
 20
-0.3968054244
 30
0.0
 11
1.2725443022
 21
-0.3983999715
 31
0.0
  0
LINE
  5
201
330
1F
100
AcDbEntity
  8
0
  6
Continuous
 62
     7
370
    25
100
AcDbLine
 10
1.275932424
 20
-0.401351412
 30
0.0
 11
1.2786945598
 21
-0.4029459591
 31
0.0
  0
LINE
  5
202
330
1F
100
AcDbEntity
  8
0
  6
Continuous
 62
     7
370
    25
100
AcDbLine
 10
1.2697821663
 20
-0.4049018802
 30
0.0
 11
1.2725443022
 21
-0.4064964272
 31
0.0
  0
LINE
  5
203
330
1F
100
AcDbEntity
  8
0
  6
Continuous
 62
     7
370
    25
100
AcDbLine
 10
1.2697821663
 20
-0.4206284562
 30
0.0
 11
1.2725443022
 21
-0.4222230033
 31
0.0
  0
LINE
  5
204
330
1F
100
AcDbEntity
  8
0
  6
Continuous
 62
     7
370
    25
100
AcDbLine
 10
1.3170530403
 20
-0.4104324825
 30
0.0
 11
1.3170530403
 21
-0.3737344653
 31
0.0
  0
LINE
  5
205
330
1F
100
AcDbEntity
  8
0
  6
Continuous
 62
     7
370
    25
100
AcDbLine
 10
1.3121297112
 20
-0.4132746599
 30
0.0
 11
1.3170530403
 21
-0.4104324825
 31
0.0
  0
LINE
  5
206
330
1F
100
AcDbEntity
  8
0
  6
Continuous
 62
     7
370
    25
100
AcDbLine
 10
1.3092088691
 20
-0.4101051301
 30
0.0
 11
1.3093675753
 21
-0.410013511
 31
0.0
  0
LINE
  5
207
330
1F
100
AcDbEntity
  8
0
  6
Continuous
 62
     7
370
    25
100
AcDbLine
 10
1.2736995379
 20
-0.435498032
 30
0.0
 11
1.2764616738
 21
-0.437092579
 31
0.0
  0
LINE
  5
208
330
1F
100
AcDbEntity
  8
0
  6
Continuous
 62
     7
370
    25
100
AcDbLine
 10
1.2870308577
 20
-0.407827622
 30
0.0
 11
1.2897929936
 21
-0.4094221691
 31
0.0
  0
LINE
  5
209
330
1F
100
AcDbEntity
  8
0
  6
Continuous
 62
     7
370
    25
100
AcDbLine
 10
1.2984262764
 20
-0.3883006641
 30
0.0
 11
1.3011884122
 21
-0.3898952112
 31
0.0
  0
LINE
  5
20A
330
1F
100
AcDbEntity
  8
0
  6
Continuous
 62
     7
370
    25
100
AcDbLine
 10
1.2974473263
 20
-0.422821196
 30
0.0
 11
1.3002094622
 21
-0.4244157431
 31
0.0
  0
LINE
  5
20B
330
1F
100
AcDbEntity
  8
0
  6
Continuous
 62
     7
370
    25
100
AcDbLine
 10
1.3092088691
 20
-0.3799330399
 30
0.0
 11
1.311971005
 21
-0.3815275869
 31
0.0
  0
LINE
  5
20C
330
1F
100
AcDbEntity
  8
0
  6
Continuous
 62
     7
370
    25
100
AcDbLine
 10
1.3170530403
 20
-0.4104324825
 30
0.0
 11
1.3198151762
 21
-0.4120270296
 31
0.0
  0
LINE
  5
20D
330
1F
100
AcDbEntity
  8
0
  6
Continuous
 62
     7
370
    25
100
AcDbLine
 10
1.3092088691
 20
-0.4101051301
 30
0.0
 11
1.311971005
 21
-0.4116996772
 31
0.0
  0
LINE
  5
20E
330
1F
100
AcDbEntity
  8
0
  6
Continuous
 62
     7
370
    25
100
AcDbLine
 10
1.3093675753
 20
-0.410013511
 30
0.0
 11
1.3121297112
 21
-0.4116080581
 31
0.0
  0
ARC
  5
20F
330
1F
100
AcDbEntity
  8
0
  6
Continuous
 62
     7
370
    25
100
AcDbCircle
 10
0.842516699
 20
0.8192476022
 30
0.0
 40
0.0453845051548742
100
AcDbArc
 50
242.6096722366
 51
297.3903277634
  0
ARC
  5
210
330
1F
100
AcDbEntity
  8
0
  6
Continuous
 62
     7
370
    25
100
AcDbCircle
 10
1.3001132238
 20
0.7578581422
 30
0.0
 40
0.4789403608050735
100
AcDbArc
 50
122.5241628363
 51
177.4758347842
  0
ARC
  5
211
330
1F
100
AcDbEntity
  8
0
  6
Continuous
 62
     7
370
    25
100
AcDbCircle
 10
1.018156384
 20
1.1234572394
 30
0.0
 40
0.0453780947117735
100
AcDbArc
 50
2.6054784857
 51
57.39452166
  0
ARC
  5
212
330
1F
100
AcDbEntity
  8
0
  6
Continuous
 62
     7
370
    25
100
AcDbCircle
 10
1.1443338344
 20
0.8477562296
 30
0.0
 40
0.4790879244684301
100
AcDbArc
 50
122.5296706405
 51
177.396149236
  0
ARC
  5
213
330
1F
100
AcDbEntity
  8
0
  6
Continuous
 62
     7
370
    25
100
AcDbCircle
 10
0.842516699
 20
-0.5821727135
 30
0.0
 40
0.0453845051548736
100
AcDbArc
 50
242.6096722366
 51
297.3903277634
  0
ARC
  5
214
330
1F
100
AcDbEntity
  8
0
  6
Continuous
 62
     7
370
    25
100
AcDbCircle
 10
1.2479660879
 20
1.2561235576
 30
0.0
 40
0.0453780947117726
100
AcDbArc
 50
2.6054784857
 51
57.39452166
  0
ARC
  5
215
330
1F
100
AcDbEntity
  8
0
  6
Continuous
 62
     7
370
    25
100
AcDbCircle
 10
-0.2390608464
 20
0.0634906699
 30
0.0
 40
0.1567139108002537
100
AcDbArc
 50
174.0136776583
 51
234.6741419145
  0
ARC
  5
216
330
1F
100
AcDbEntity
  8
0
  6
Continuous
 62
     7
370
    25
100
AcDbCircle
 10
0.8776076332
 20
1.2393100236
 30
0.0
 40
0.0153597904936017
100
AcDbArc
 50
53.653510389
 51
115.5481401091
  0
ARC
  5
217
330
1F
100
AcDbEntity
  8
0
  6
Continuous
 62
     7
370
    25
100
AcDbCircle
 10
1.1073668236
 20
1.3715702939
 30
0.0
 40
0.0157180504204426
100
AcDbArc
 50
54.3824473179
 51
114.307094253
  0
ARC
  5
218
330
1F
100
AcDbEntity
  8
0
  6
Continuous
 62
     7
370
    25
100
AcDbCircle
 10
1.3636988902
 20
1.1687266199
 30
0.0
 40
0.1552850159982202
100
AcDbArc
 50
65.1057928537
 51
126.0029705457
  0
ARC
  5
219
330
1F
100
AcDbEntity
  8
0
  6
Continuous
 62
     7
370
    25
100
AcDbCircle
 10
1.4872369381
 20
1.1561926406
 30
0.0
 40
0.0148851356303664
100
AcDbArc
 50
294.4124704693
 51
353.8725557486
  0
ARC
  5
21A
330
1F
100
AcDbEntity
  8
0
  6
Continuous
 62
     7
370
    25
100
AcDbCircle
 10
1.2078669281
 20
1.2585029299
 30
0.0
 40
0.1555027317551914
100
AcDbArc
 50
65.3358954244
 51
125.9745630047
  0
ARC
  5
21B
330
1F
100
AcDbEntity
  8
0
  6
Continuous
 62
     7
370
    25
100
AcDbCircle
 10
1.4872601502
 20
-0.2452551034
 30
0.0
 40
0.0148505692468639
100
AcDbArc
 50
294.3746582936
 51
354.3052007488
  0
ARC
  5
21C
330
1F
100
AcDbEntity
  8
0
  6
Continuous
 62
     7
370
    25
100
AcDbCircle
 10
1.0503914525
 20
-0.7404673937
 30
0.0
 40
0.0149062746702512
100
AcDbArc
 50
306.3422618022
 51
5.5640110788
  0
ARC
  5
21D
330
1F
100
AcDbEntity
  8
0
  6
Continuous
 62
     7
370
    25
100
AcDbCircle
 10
0.9776466898
 20
-0.6387842015
 30
0.0
 40
0.1568598866011696
100
AcDbArc
 50
174.0299037927
 51
234.4959010736
  0
ARC
  5
21E
330
1F
100
AcDbEntity
  8
0
  6
Continuous
 62
     7
370
    25
100
AcDbCircle
 10
1.2775115105
 20
-0.6101529828
 30
0.0
 40
0.0141592188916335
100
AcDbArc
 50
304.0563508351
 51
7.2558295583
  0
ENDSEC
  0
SECTION
  2
OBJECTS
  0
DICTIONARY
  5
C
330
0
100
AcDbDictionary
281
     1
  3
ACAD_GROUP
350
D
  3
ACAD_LAYOUT
350
1A
  3
ACAD_MLINESTYLE
350
17
  3
ACAD_PLOTSETTINGS
350
19
  3
ACAD_PLOTSTYLENAME
350
E
  3
ACAD_SCALELIST
350
47
  3
DWGPROPS
350
21F
  0
DICTIONARY
  5
D
102
{ACAD_REACTORS
330
C
102
}
330
C
100
AcDbDictionary
281
     1
  0
DICTIONARY
  5
1A
102
{ACAD_REACTORS
330
C
102
}
330
C
100
AcDbDictionary
281
     1
  3
Layout1
350
1E
  3
Layout2
350
26
  3
Model
350
22
  0
DICTIONARY
  5
17
102
{ACAD_REACTORS
330
C
102
}
330
C
100
AcDbDictionary
281
     1
  3
Standard
350
18
  0
DICTIONARY
  5
19
102
{ACAD_REACTORS
330
C
102
}
330
C
100
AcDbDictionary
281
     1
  0
ACDBDICTIONARYWDFLT
  5
E
102
{ACAD_REACTORS
330
C
102
}
330
C
100
AcDbDictionary
281
     1
  3
Normal
350
F
100
AcDbDictionaryWithDefault
340
F
  0
DICTIONARY
  5
47
102
{ACAD_REACTORS
330
C
102
}
330
C
100
AcDbDictionary
281
     1
  3
A0
350
48
  3
A1
350
49
  3
A2
350
4A
  3
A3
350
4B
  3
A4
350
4C
  3
A5
350
4D
  3
A6
350
4E
  3
A7
350
4F
  3
A8
350
50
  3
A9
350
51
  3
B1
350
52
  3
B2
350
53
  3
B3
350
54
  3
B4
350
55
  3
B5
350
56
  3
B6
350
57
  3
B7
350
58
  0
XRECORD
  5
21F
102
{ACAD_REACTORS
330
C
102
}
330
C
100
AcDbXrecord
280
     1
  1
DWGPROPS COOKIE
  2

  3

  4

  6

  7

  8
Alan Ramirez
  9

300
=
301
=
302
=
303
=
304
=
305
=
306
=
307
=
308
=
309
=
 40
0.0
 41
2460425.674714352
 42
2460425.674743044
  1

 90
        0
  0
LAYOUT
  5
1E
102
{ACAD_REACTORS
330
1A
102
}
330
1A
100
AcDbPlotSettings
  1

  2
none_device
  4

  6

 40
0.0
 41
0.0
 42
0.0
 43
0.0
 44
0.0
 45
0.0
 46
0.0
 47
0.0
 48
0.0
 49
0.0
140
0.0
141
0.0
142
1.0
143
1.0
 70
   688
 72
     0
 73
     0
 74
     5
  7

 75
    16
147
1.0
148
0.0
149
0.0
100
AcDbLayout
  1
Layout1
 70
     1
 71
     1
 10
0.0
 20
0.0
 11
12.0
 21
9.0
 12
0.0
 22
0.0
 32
0.0
 14
1.0000000000E+20
 24
1.0000000000E+20
 34
1.0000000000E+20
 15
-1.0000000000E+20
 25
-1.0000000000E+20
 35
-1.0000000000E+20
146
0.0
 13
0.0
 23
0.0
 33
0.0
 16
1.0
 26
0.0
 36
0.0
 17
0.0
 27
1.0
 37
0.0
 76
     0
330
1B
  0
LAYOUT
  5
26
102
{ACAD_REACTORS
330
1A
102
}
330
1A
100
AcDbPlotSettings
  1

  2
none_device
  4

  6

 40
0.0
 41
0.0
 42
0.0
 43
0.0
 44
0.0
 45
0.0
 46
0.0
 47
0.0
 48
0.0
 49
0.0
140
0.0
141
0.0
142
1.0
143
1.0
 70
   688
 72
     0
 73
     0
 74
     5
  7

 75
    16
147
1.0
148
0.0
149
0.0
100
AcDbLayout
  1
Layout2
 70
     1
 71
     2
 10
0.0
 20
0.0
 11
0.0
 21
0.0
 12
0.0
 22
0.0
 32
0.0
 14
0.0
 24
0.0
 34
0.0
 15
0.0
 25
0.0
 35
0.0
146
0.0
 13
0.0
 23
0.0
 33
0.0
 16
1.0
 26
0.0
 36
0.0
 17
0.0
 27
1.0
 37
0.0
 76
     0
330
23
  0
LAYOUT
  5
22
102
{ACAD_REACTORS
330
1A
102
}
330
1A
100
AcDbPlotSettings
  1

  2
none_device
  4
ANSI_A_(11.00_x_8.50_Inches)
  6

 40
6.35
 41
19.05
 42
6.35000508
 43
19.05000254
 44
279.4
 45
215.9
 46
79.6370510014
 47
58.156679484
 48
0.0
 49
0.0
140
0.0
141
0.0
142
3.823111801
143
1.0
 70
  1696
 72
     0
 73
     0
 74
     0
  7

 75
     0
147
0.5913241897
148
-39.4088153714
149
0.0
100
AcDbLayout
  1
Model
 70
     1
 71
     0
 10
0.0
 20
0.0
 11
12.0
 21
9.0
 12
0.0
 22
0.0
 32
0.0
 14
-0.3957747572
 24
-0.7839512043
 34
0.0
 15
1.5020374257
 25
1.417135355
 35
0.0
146
0.0
 13
0.0
 23
0.0
 33
0.0
 16
1.0
 26
0.0
 36
0.0
 17
0.0
 27
1.0
 37
0.0
 76
     0
330
1F
331
29
  0
MLINESTYLE
  5
18
102
{ACAD_REACTORS
330
17
102
}
330
17
100
AcDbMlineStyle
  2
Standard
 70
     0
  3

 62
   256
 51
90.0
 52
90.0
 71
     2
 49
0.5
 62
   256
  6
BYLAYER
 49
-0.5
 62
   256
  6
BYLAYER
  0
ACDBPLACEHOLDER
  5
F
102
{ACAD_REACTORS
330
E
102
}
330
E
  0
SCALE
  5
48
102
{ACAD_REACTORS
330
47
102
}
330
47
100
AcDbScale
 70
     0
300
1:1
140
1.0
141
1.0
290
     1
  0
SCALE
  5
49
102
{ACAD_REACTORS
330
47
102
}
330
47
100
AcDbScale
 70
     0
300
1/128" = 1'-0"
140
0.0078125
141
12.0
290
     0
  0
SCALE
  5
4A
102
{ACAD_REACTORS
330
47
102
}
330
47
100
AcDbScale
 70
     0
300
1/64" = 1'-0"
140
0.015625
141
12.0
290
     0
  0
SCALE
  5
4B
102
{ACAD_REACTORS
330
47
102
}
330
47
100
AcDbScale
 70
     0
300
1/32" = 1'-0"
140
0.03125
141
12.0
290
     0
  0
SCALE
  5
4C
102
{ACAD_REACTORS
330
47
102
}
330
47
100
AcDbScale
 70
     0
300
1/16" = 1'-0"
140
0.0625
141
12.0
290
     0
  0
SCALE
  5
4D
102
{ACAD_REACTORS
330
47
102
}
330
47
100
AcDbScale
 70
     0
300
3/32" = 1'-0"
140
0.09375
141
12.0
290
     0
  0
SCALE
  5
4E
102
{ACAD_REACTORS
330
47
102
}
330
47
100
AcDbScale
 70
     0
300
1/8" = 1'-0"
140
0.125
141
12.0
290
     0
  0
SCALE
  5
4F
102
{ACAD_REACTORS
330
47
102
}
330
47
100
AcDbScale
 70
     0
300
3/16" = 1'-0"
140
0.1875
141
12.0
290
     0
  0
SCALE
  5
50
102
{ACAD_REACTORS
330
47
102
}
330
47
100
AcDbScale
 70
     0
300
1/4" = 1'-0"
140
0.25
141
12.0
290
     0
  0
SCALE
  5
51
102
{ACAD_REACTORS
330
47
102
}
330
47
100
AcDbScale
 70
     0
300
3/8" = 1'-0"
140
0.375
141
12.0
290
     0
  0
SCALE
  5
52
102
{ACAD_REACTORS
330
47
102
}
330
47
100
AcDbScale
 70
     0
300
1/2" = 1'-0"
140
0.5
141
12.0
290
     0
  0
SCALE
  5
53
102
{ACAD_REACTORS
330
47
102
}
330
47
100
AcDbScale
 70
     0
300
3/4" = 1'-0"
140
0.75
141
12.0
290
     0
  0
SCALE
  5
54
102
{ACAD_REACTORS
330
47
102
}
330
47
100
AcDbScale
 70
     0
300
1" = 1'-0"
140
1.0
141
12.0
290
     0
  0
SCALE
  5
55
102
{ACAD_REACTORS
330
47
102
}
330
47
100
AcDbScale
 70
     0
300
1-1/2" = 1'-0"
140
1.5
141
12.0
290
     0
  0
SCALE
  5
56
102
{ACAD_REACTORS
330
47
102
}
330
47
100
AcDbScale
 70
     0
300
3" = 1'-0"
140
3.0
141
12.0
290
     0
  0
SCALE
  5
57
102
{ACAD_REACTORS
330
47
102
}
330
47
100
AcDbScale
 70
     0
300
6" = 1'-0"
140
6.0
141
12.0
290
     0
  0
SCALE
  5
58
102
{ACAD_REACTORS
330
47
102
}
330
47
100
AcDbScale
 70
     0
300
1'-0" = 1'-0"
140
12.0
141
12.0
290
     0
  0
ENDSEC
  0
EOF
